  0
SECTION
  2
HEADER
  9
$ACADVER
  1
AC1015
  9
$ACADMAINTVER
 70
    20
  9
$DWGCODEPAGE
  3
ANSI_932
  9
$INSBASE
 10
0.0
 20
0.0
 30
0.0
  9
$EXTMIN
 10
9.99995
 20
9.999999999999998
 30
0.0
  9
$EXTMAX
 10
622.2281360000001
 20
515.907715
 30
0.0
  9
$LIMMIN
 10
0.000002
 20
0.0
  9
$LIMMAX
 10
792.0000019999998
 20
546.0
  9
$ORTHOMODE
 70
     1
  9
$REGENMODE
 70
     1
  9
$FILLMODE
 70
     1
  9
$QTEXTMODE
 70
     0
  9
$MIRRTEXT
 70
     1
  9
$LTSCALE
 40
1.0
  9
$ATTMODE
 70
     1
  9
$TEXTSIZE
 40
2.5
  9
$TRACEWID
 40
1.0
  9
$TEXTSTYLE
  7
STANDARD
  9
$CLAYER
  8
0
  9
$CELTYPE
  6
BYLAYER
  9
$CECOLOR
 62
   256
  9
$CELTSCALE
 40
1.0
  9
$DISPSILH
 70
     0
  9
$DIMSCALE
 40
1.0
  9
$DIMASZ
 40
3.0
  9
$DIMEXO
 40
1.0
  9
$DIMDLI
 40
10.0
  9
$DIMRND
 40
0.0
  9
$DIMDLE
 40
0.0
  9
$DIMEXE
 40
1.0
  9
$DIMTP
 40
0.0
  9
$DIMTM
 40
0.0
  9
$DIMTXT
 40
3.2
  9
$DIMCEN
 40
0.0
  9
$DIMTSZ
 40
0.0
  9
$DIMTOL
 70
     0
  9
$DIMLIM
 70
     0
  9
$DIMTIH
 70
     0
  9
$DIMTOH
 70
     0
  9
$DIMSE1
 70
     0
  9
$DIMSE2
 70
     0
  9
$DIMTAD
 70
     3
  9
$DIMZIN
 70
     8
  9
$DIMBLK
  1

  9
$DIMASO
 70
     1
  9
$DIMSHO
 70
     1
  9
$DIMPOST
  1

  9
$DIMAPOST
  1

  9
$DIMALT
 70
     0
  9
$DIMALTD
 70
     2
  9
$DIMALTF
 40
25.4
  9
$DIMLFAC
 40
1.0
  9
$DIMTOFL
 70
     1
  9
$DIMTVP
 40
0.0
  9
$DIMTIX
 70
     0
  9
$DIMSOXD
 70
     0
  9
$DIMSAH
 70
     1
  9
$DIMBLK1
  1
OPEN
  9
$DIMBLK2
  1
OPEN
  9
$DIMSTYLE
  2
STANDARD
  9
$DIMCLRD
 70
     0
  9
$DIMCLRE
 70
     0
  9
$DIMCLRT
 70
     0
  9
$DIMTFAC
 40
1.0
  9
$DIMGAP
 40
1.0
  9
$DIMJUST
 70
     0
  9
$DIMSD1
 70
     0
  9
$DIMSD2
 70
     0
  9
$DIMTOLJ
 70
     1
  9
$DIMTZIN
 70
     0
  9
$DIMALTZ
 70
     0
  9
$DIMALTTZ
 70
     0
  9
$DIMUPT
 70
     0
  9
$DIMDEC
 70
     4
  9
$DIMTDEC
 70
     4
  9
$DIMALTU
 70
     2
  9
$DIMALTTD
 70
     2
  9
$DIMTXSTY
  7
STANDARD
  9
$DIMAUNIT
 70
     0
  9
$DIMADEC
 70
     0
  9
$DIMALTRND
 40
0.0
  9
$DIMAZIN
 70
     0
  9
$DIMDSEP
 70
    46
  9
$DIMATFIT
 70
     3
  9
$DIMFRAC
 70
     0
  9
$DIMLDRBLK
  1
OPEN
  9
$DIMLUNIT
 70
     2
  9
$DIMLWD
 70
    -2
  9
$DIMLWE
 70
    -2
  9
$DIMTMOVE
 70
     0
  9
$LUNITS
 70
     2
  9
$LUPREC
 70
     4
  9
$SKETCHINC
 40
1.0
  9
$FILLETRAD
 40
10.0
  9
$AUNITS
 70
     0
  9
$AUPREC
 70
     0
  9
$MENU
  1
.
  9
$ELEVATION
 40
0.0
  9
$PELEVATION
 40
0.0
  9
$THICKNESS
 40
0.0
  9
$LIMCHECK
 70
     0
  9
$CHAMFERA
 40
10.0
  9
$CHAMFERB
 40
10.0
  9
$CHAMFERC
 40
0.0
  9
$CHAMFERD
 40
0.0
  9
$SKPOLY
 70
     0
  9
$TDCREATE
 40
2451640.677685996
  9
$TDUCREATE
 40
2451640.302685996
  9
$TDUPDATE
 40
2457192.622660301
  9
$TDUUPDATE
 40
2457192.247660301
  9
$TDINDWG
 40
0.0005666319
  9
$TDUSRTIMER
 40
0.0005661574
  9
$USRTIMER
 70
     1
  9
$ANGBASE
 50
0.0
  9
$ANGDIR
 70
     0
  9
$PDMODE
 70
     0
  9
$PDSIZE
 40
0.0
  9
$PLINEWID
 40
0.0
  9
$SPLFRAME
 70
     0
  9
$SPLINETYPE
 70
     6
  9
$SPLINESEGS
 70
     8
  9
$HANDSEED
  5
8D9
  9
$SURFTAB1
 70
     6
  9
$SURFTAB2
 70
     6
  9
$SURFTYPE
 70
     6
  9
$SURFU
 70
     6
  9
$SURFV
 70
     6
  9
$UCSBASE
  2

  9
$UCSNAME
  2

  9
$UCSORG
 10
0.0
 20
0.0
 30
0.0
  9
$UCSXDIR
 10
1.0
 20
0.0
 30
0.0
  9
$UCSYDIR
 10
0.0
 20
1.0
 30
0.0
  9
$UCSORTHOREF
  2

  9
$UCSORTHOVIEW
 70
     0
  9
$UCSORGTOP
 10
0.0
 20
0.0
 30
0.0
  9
$UCSORGBOTTOM
 10
0.0
 20
0.0
 30
0.0
  9
$UCSORGLEFT
 10
0.0
 20
0.0
 30
0.0
  9
$UCSORGRIGHT
 10
0.0
 20
0.0
 30
0.0
  9
$UCSORGFRONT
 10
0.0
 20
0.0
 30
0.0
  9
$UCSORGBACK
 10
0.0
 20
0.0
 30
0.0
  9
$PUCSBASE
  2

  9
$PUCSNAME
  2

  9
$PUCSORG
 10
0.0
 20
0.0
 30
0.0
  9
$PUCSXDIR
 10
1.0
 20
0.0
 30
0.0
  9
$PUCSYDIR
 10
0.0
 20
1.0
 30
0.0
  9
$PUCSORTHOREF
  2

  9
$PUCSORTHOVIEW
 70
     0
  9
$PUCSORGTOP
 10
0.0
 20
0.0
 30
0.0
  9
$PUCSORGBOTTOM
 10
0.0
 20
0.0
 30
0.0
  9
$PUCSORGLEFT
 10
0.0
 20
0.0
 30
0.0
  9
$PUCSORGRIGHT
 10
0.0
 20
0.0
 30
0.0
  9
$PUCSORGFRONT
 10
0.0
 20
0.0
 30
0.0
  9
$PUCSORGBACK
 10
0.0
 20
0.0
 30
0.0
  9
$USERI1
 70
     0
  9
$USERI2
 70
     0
  9
$USERI3
 70
     0
  9
$USERI4
 70
     0
  9
$USERI5
 70
     0
  9
$USERR1
 40
0.0
  9
$USERR2
 40
0.0
  9
$USERR3
 40
0.0
  9
$USERR4
 40
0.0
  9
$USERR5
 40
0.0
  9
$WORLDVIEW
 70
     1
  9
$SHADEDGE
 70
     3
  9
$SHADEDIF
 70
    70
  9
$TILEMODE
 70
     1
  9
$MAXACTVP
 70
    48
  9
$PINSBASE
 10
0.0
 20
0.0
 30
0.0
  9
$PLIMCHECK
 70
     0
  9
$PEXTMIN
 10
1.000000000000000E+20
 20
1.000000000000000E+20
 30
1.000000000000000E+20
  9
$PEXTMAX
 10
-1.000000000000000E+20
 20
-1.000000000000000E+20
 30
-1.000000000000000E+20
  9
$PLIMMIN
 10
0.0
 20
0.0
  9
$PLIMMAX
 10
420.0
 20
297.0
  9
$UNITMODE
 70
     0
  9
$VISRETAIN
 70
     1
  9
$PLINEGEN
 70
     0
  9
$PSLTSCALE
 70
     1
  9
$TREEDEPTH
 70
  3020
  9
$CMLSTYLE
  2
STANDARD
  9
$CMLJUST
 70
     0
  9
$CMLSCALE
 40
1.0
  9
$PROXYGRAPHICS
 70
     1
  9
$MEASUREMENT
 70
     0
  9
$CELWEIGHT
370
    -1
  9
$ENDCAPS
280
     0
  9
$JOINSTYLE
280
     0
  9
$LWDISPLAY
290
     0
  9
$INSUNITS
 70
     0
  9
$HYPERLINKBASE
  1

  9
$STYLESHEET
  1

  9
$XEDIT
290
     1
  9
$CEPSNTYPE
380
     0
  9
$PSTYLEMODE
290
     1
  9
$FINGERPRINTGUID
  2
{001C8DF0-25CE-419C-BEC0-27CAB17F2130}
  9
$VERSIONGUID
  2
{1BD44164-727F-4125-8B1F-1B25A430DD43}
  9
$EXTNAMES
290
     1
  9
$PSVPSCALE
 40
0.0
  9
$OLESTARTUP
290
     0
  0
ENDSEC
  0
SECTION
  2
CLASSES
  0
CLASS
  1
ACDBDICTIONARYWDFLT
  2
AcDbDictionaryWithDefault
  3
ObjectDBX Classes
 90
        0
280
     0
281
     0
  0
CLASS
  1
ACDBPLACEHOLDER
  2
AcDbPlaceHolder
  3
ObjectDBX Classes
 90
        0
280
     0
281
     0
  0
CLASS
  1
LAYOUT
  2
AcDbLayout
  3
ObjectDBX Classes
 90
        0
280
     0
281
     0
  0
CLASS
  1
DICTIONARYVAR
  2
AcDbDictionaryVar
  3
ObjectDBX Classes
 90
        0
280
     0
281
     0
  0
CLASS
  1
MATERIAL
  2
AcDbMaterial
  3
ObjectDBX Classes
 90
     1153
280
     0
281
     0
  0
CLASS
  1
VISUALSTYLE
  2
AcDbVisualStyle
  3
ObjectDBX Classes
 90
     4095
280
     0
281
     0
  0
CLASS
  1
TABLESTYLE
  2
AcDbTableStyle
  3
ObjectDBX Classes
 90
     4095
280
     0
281
     0
  0
CLASS
  1
SCALE
  2
AcDbScale
  3
ObjectDBX Classes
 90
     1153
280
     0
281
     0
  0
CLASS
  1
MLEADERSTYLE
  2
AcDbMLeaderStyle
  3
ACDB_MLEADERSTYLE_CLASS
 90
     4095
280
     0
281
     0
  0
CLASS
  1
ACDBSECTIONVIEWSTYLE
  2
AcDbSectionViewStyle
  3
ObjectDBX Classes
 90
     1025
280
     0
281
     0
  0
CLASS
  1
ACDBDETAILVIEWSTYLE
  2
AcDbDetailViewStyle
  3
ObjectDBX Classes
 90
     1025
280
     0
281
     0
  0
CLASS
  1
CELLSTYLEMAP
  2
AcDbCellStyleMap
  3
ObjectDBX Classes
 90
     1152
280
     0
281
     0
  0
ENDSEC
  0
SECTION
  2
TABLES
  0
TABLE
  2
VPORT
  5
649
330
0
100
AcDbSymbolTable
 70
     1
  0
VPORT
  5
822
330
649
100
AcDbSymbolTableRecord
100
AcDbViewportTableRecord
  2
*ACTIVE
 70
     0
 10
0.0
 20
0.0
 11
1.0
 21
1.0
 12
469.3342866014126
 22
262.9607861716774
 13
0.0
 23
0.0
 14
10.0
 24
10.0
 15
10.0
 25
10.0
 16
0.0
 26
0.0
 36
1.0
 17
0.0
 27
0.0
 37
0.0
 40
511.618643269943
 41
1.899603698811096
 42
50.0
 43
0.0
 44
0.0
 50
0.0
 51
0.0
 71
     0
 72
   100
 73
     1
 74
     0
 75
     0
 76
     0
 77
     0
 78
     0
281
     0
 65
     1
110
0.0
120
0.0
130
0.0
111
1.0
121
0.0
131
0.0
112
0.0
122
1.0
132
0.0
 79
     0
146
0.0
1001
ACAD_NAV_VCDISPLAY
1070
     3
  0
ENDTAB
  0
TABLE
  2
LTYPE
  5
646
330
0
100
AcDbSymbolTable
 70
     4
  0
LTYPE
  5
654
330
646
100
AcDbSymbolTableRecord
100
AcDbLinetypeTableRecord
  2
BYBLOCK
 70
     0
  3

 72
    65
 73
     0
 40
0.0
  0
LTYPE
  5
655
330
646
100
AcDbSymbolTableRecord
100
AcDbLinetypeTableRecord
  2
BYLAYER
 70
     0
  3

 72
    65
 73
     0
 40
0.0
  0
LTYPE
  5
656
330
646
100
AcDbSymbolTableRecord
100
AcDbLinetypeTableRecord
  2
CONTINUOUS
 70
     0
  3
Solid line
 72
    65
 73
     0
 40
0.0
  0
LTYPE
  5
664
330
646
100
AcDbSymbolTableRecord
100
AcDbLinetypeTableRecord
  2
DASHED
 70
     0
  3
Dashed __ __ __ __ __ __ __ __ __ __ __ __ __ _
 72
    65
 73
     2
 40
19.05
 49
12.7
 74
     0
 49
-6.349999999999997
 74
     0
  0
LTYPE
  5
665
330
646
100
AcDbSymbolTableRecord
100
AcDbLinetypeTableRecord
  2
CENTER
 70
     0
  3
Center ____ _ ____ _ ____ _ ____ _ ____ _ ____
 72
    65
 73
     4
 40
50.8
 49
31.75
 74
     0
 49
-6.349999999999997
 74
     0
 49
6.349999999999997
 74
     0
 49
-6.349999999999997
 74
     0
  0
LTYPE
  5
666
330
646
100
AcDbSymbolTableRecord
100
AcDbLinetypeTableRecord
  2
PHANTOM
 70
     0
  3
Phantom ______  __  __  ______  __  __  ______
 72
    65
 73
     6
 40
63.5
 49
31.75
 74
     0
 49
-6.349999999999997
 74
     0
 49
6.349999999999997
 74
     0
 49
-6.349999999999997
 74
     0
 49
6.349999999999997
 74
     0
 49
-6.349999999999997
 74
     0
  0
ENDTAB
  0
TABLE
  2
LAYER
  5
643
330
0
100
AcDbSymbolTable
 70
     8
  0
LAYER
  5
651
102
{ACAD_XDICTIONARY
360
87D
102
}
330
643
100
AcDbSymbolTableRecord
100
AcDbLayerTableRecord
  2
0
 70
     0
 62
     7
  6
CONTINUOUS
370
    -3
390
82B
  0
LAYER
  5
667
102
{ACAD_XDICTIONARY
360
87F
102
}
330
643
100
AcDbSymbolTableRecord
100
AcDbLayerTableRecord
  2
4
 70
     0
 62
     1
  6
CENTER
370
    -3
390
82B
  0
LAYER
  5
668
102
{ACAD_XDICTIONARY
360
881
102
}
330
643
100
AcDbSymbolTableRecord
100
AcDbLayerTableRecord
  2
5
 70
     0
 62
     6
  6
PHANTOM
370
    -3
390
82B
  0
LAYER
  5
669
102
{ACAD_XDICTIONARY
360
883
102
}
330
643
100
AcDbSymbolTableRecord
100
AcDbLayerTableRecord
  2
1
 70
     0
 62
     7
  6
CONTINUOUS
370
    -3
390
82B
  0
LAYER
  5
66A
102
{ACAD_XDICTIONARY
360
885
102
}
330
643
100
AcDbSymbolTableRecord
100
AcDbLayerTableRecord
  2
2
 70
     0
 62
     4
  6
CONTINUOUS
370
    -3
390
82B
  0
LAYER
  5
66B
102
{ACAD_XDICTIONARY
360
887
102
}
330
643
100
AcDbSymbolTableRecord
100
AcDbLayerTableRecord
  2
3
 70
     0
 62
     2
  6
DASHED
370
    -3
390
82B
  0
LAYER
  5
66C
102
{ACAD_XDICTIONARY
360
889
102
}
330
643
100
AcDbSymbolTableRecord
100
AcDbLayerTableRecord
  2
6
 70
     0
 62
     5
  6
CONTINUOUS
370
    -3
390
82B
  0
LAYER
  5
66D
102
{ACAD_XDICTIONARY
360
88B
102
}
330
643
100
AcDbSymbolTableRecord
100
AcDbLayerTableRecord
  2
7
 70
     0
 62
     3
  6
CONTINUOUS
370
    -3
390
82B
  0
ENDTAB
  0
TABLE
  2
STYLE
  5
644
330
0
100
AcDbSymbolTable
 70
     1
  0
STYLE
  5
652
330
644
100
AcDbSymbolTableRecord
100
AcDbTextStyleTableRecord
  2
STANDARD
 70
     0
 40
0.0
 41
1.0
 50
0.0
 71
     0
 42
2.5
  3
txt
  4

  0
ENDTAB
  0
TABLE
  2
VIEW
  5
647
330
0
100
AcDbSymbolTable
 70
     0
  0
ENDTAB
  0
TABLE
  2
UCS
  5
648
330
0
100
AcDbSymbolTable
 70
     0
  0
ENDTAB
  0
TABLE
  2
APPID
  5
64A
330
0
100
AcDbSymbolTable
 70
     7
  0
APPID
  5
653
330
64A
100
AcDbSymbolTableRecord
100
AcDbRegAppTableRecord
  2
ACAD
 70
     0
  0
APPID
  5
66E
330
64A
100
AcDbSymbolTableRecord
100
AcDbRegAppTableRecord
  2
CONTENTTABDATA
 70
     0
  0
APPID
  5
66F
330
64A
100
AcDbSymbolTableRecord
100
AcDbRegAppTableRecord
  2
CONTENTCURRENTTAB
 70
     0
  0
APPID
  5
670
330
64A
100
AcDbSymbolTableRecord
100
AcDbRegAppTableRecord
  2
CONTENTBLOCKDESCRIPTION
 70
     0
  0
APPID
  5
671
330
64A
100
AcDbSymbolTableRecord
100
AcDbRegAppTableRecord
  2
CONTENTBLOCKICON
 70
     0
  0
APPID
  5
897
330
64A
100
AcDbSymbolTableRecord
100
AcDbRegAppTableRecord
  2
ACAD_NAV_VCDISPLAY
 70
     0
  0
APPID
  5
8D0
330
64A
100
AcDbSymbolTableRecord
100
AcDbRegAppTableRecord
  2
ACAD_MLEADERVER
 70
     0
  0
ENDTAB
  0
TABLE
  2
DIMSTYLE
  5
64B
330
0
100
AcDbSymbolTable
 70
     1
100
AcDbDimStyleTable
 71
     0
  0
DIMSTYLE
105
672
330
64B
100
AcDbSymbolTableRecord
100
AcDbDimStyleTableRecord
  2
STANDARD
 70
     0
 41
3.0
 42
1.0
 43
10.0
 44
1.0
 73
     0
 74
     0
 77
     3
 78
     8
140
3.2
141
0.0
147
1.0
172
     1
173
     1
284
     8
285
     8
286
     8
340
652
  0
ENDTAB
  0
TABLE
  2
BLOCK_RECORD
  5
642
330
0
100
AcDbSymbolTable
 70
     1
  0
BLOCK_RECORD
  5
65F
102
{ACAD_XDICTIONARY
360
825
102
}
330
642
100
AcDbSymbolTableRecord
100
AcDbBlockTableRecord
  2
*MODEL_SPACE
340
879
  0
BLOCK_RECORD
  5
65B
102
{ACAD_XDICTIONARY
360
823
102
}
330
642
100
AcDbSymbolTableRecord
100
AcDbBlockTableRecord
  2
*PAPER_SPACE
340
87A
  0
BLOCK_RECORD
  5
67A
330
642
100
AcDbSymbolTableRecord
100
AcDbBlockTableRecord
  2
_OPEN
340
0
  0
ENDTAB
  0
ENDSEC
  0
SECTION
  2
BLOCKS
  0
BLOCK
  5
660
330
65F
100
AcDbEntity
  8
0
100
AcDbBlockBegin
  2
*MODEL_SPACE
 70
     0
 10
0.0
 20
0.0
 30
0.0
  3
*MODEL_SPACE
  1

  0
ENDBLK
  5
661
330
65F
100
AcDbEntity
  8
0
100
AcDbBlockEnd
  0
BLOCK
  5
65C
330
65B
100
AcDbEntity
 67
     1
  8
0
100
AcDbBlockBegin
  2
*PAPER_SPACE
 70
     0
 10
0.0
 20
0.0
 30
0.0
  3
*PAPER_SPACE
  1

  0
ENDBLK
  5
65D
330
65B
100
AcDbEntity
 67
     1
  8
0
100
AcDbBlockEnd
  0
BLOCK
  5
67B
330
67A
100
AcDbEntity
  8
0
100
AcDbBlockBegin
  2
_OPEN
 70
     0
 10
0.0
 20
0.0
 30
0.0
  3
_OPEN
  1

  0
LINE
  5
67C
330
67A
100
AcDbEntity
  8
0
  6
ByBlock
 62
     0
100
AcDbLine
 10
-1.0
 20
0.166667
 30
0.0
 11
0.0
 21
0.0
 31
0.0
  0
LINE
  5
67D
330
67A
100
AcDbEntity
  8
0
  6
ByBlock
 62
     0
100
AcDbLine
 10
0.0
 20
0.0
 30
0.0
 11
-1.0
 21
-0.166667
 31
0.0
  0
LINE
  5
67E
330
67A
100
AcDbEntity
  8
0
  6
ByBlock
 62
     0
100
AcDbLine
 10
0.0
 20
0.0
 30
0.0
 11
-1.0
 21
0.0
 31
0.0
  0
ENDBLK
  5
67F
330
67A
100
AcDbEntity
  8
0
100
AcDbBlockEnd
  0
ENDSEC
  0
SECTION
  2
ENTITIES
  0
LINE
  5
680
330
65F
100
AcDbEntity
  8
4
  6
CENTER
100
AcDbLine
 10
275.228136
 20
274.8288269999998
 30
0.0
 11
293.428133
 21
274.8288269999998
 31
0.0
  0
LINE
  5
681
330
65F
100
AcDbEntity
  8
1
  6
Continuous
100
AcDbLine
 10
141.5543689999998
 20
263.8288269999998
 30
0.0
 11
125.9018959999998
 21
263.8288269999998
 31
0.0
  0
LINE
  5
682
330
65F
100
AcDbEntity
  8
1
  6
Continuous
100
AcDbLine
 10
141.5543689999998
 20
285.828827
 30
0.0
 11
125.9018959999998
 21
285.828827
 31
0.0
  0
LINE
  5
683
330
65F
100
AcDbEntity
  8
4
  6
CENTER
100
AcDbLine
 10
278.328143
 20
166.829987
 30
0.0
 11
296.52814
 21
166.829987
 31
0.0
  0
LINE
  5
684
330
65F
100
AcDbEntity
  8
4
  6
CENTER
100
AcDbLine
 10
105.3268399999998
 20
182.938049
 30
0.0
 11
110.1268439999999
 21
174.624207
 31
0.0
  0
LINE
  5
685
330
65F
100
AcDbEntity
  8
1
  6
Continuous
100
AcDbLine
 10
291.228136
 20
182.8299709999998
 30
0.0
 11
291.228136
 21
150.829971
 31
0.0
  0
LINE
  5
686
330
65F
100
AcDbEntity
  8
4
  6
CENTER
100
AcDbLine
 10
135.6268449999998
 20
166.829971
 30
0.0
 11
93.626847
 21
166.829971
 31
0.0
  0
LINE
  5
687
330
65F
100
AcDbEntity
  8
4
  6
CENTER
100
AcDbLine
 10
105.3268459999999
 20
150.721909
 30
0.0
 11
110.126835
 21
159.035741
 31
0.0
  0
LINE
  5
688
330
65F
100
AcDbEntity
  8
1
  6
Continuous
100
AcDbLine
 10
290.02814
 20
182.8299709999998
 30
0.0
 11
290.02814
 21
150.829971
 31
0.0
  0
LINE
  5
689
330
65F
100
AcDbEntity
  8
1
  6
Continuous
100
AcDbLine
 10
287.328143
 20
171.3056789999999
 30
0.0
 11
287.328143
 21
162.3542629999998
 31
0.0
  0
LINE
  5
68A
330
65F
100
AcDbEntity
  8
1
  6
Continuous
100
AcDbLine
 10
290.02814
 20
182.829987
 30
0.0
 11
291.228136
 21
182.829987
 31
0.0
  0
LINE
  5
68B
330
65F
100
AcDbEntity
  8
1
  6
Continuous
100
AcDbLine
 10
290.02814
 20
150.8299869999999
 30
0.0
 11
291.228136
 21
150.8299869999999
 31
0.0
  0
LINE
  5
68C
330
65F
100
AcDbEntity
  8
4
  6
CENTER
100
AcDbLine
 10
114.626847
 20
145.829971
 30
0.0
 11
114.626847
 21
187.829971
 31
0.0
  0
LINE
  5
68D
330
65F
100
AcDbEntity
  8
1
  6
Continuous
100
AcDbLine
 10
267.2281359999999
 20
72.849327
 30
0.0
 11
267.2281359999999
 21
41.15064199999999
 31
0.0
  0
LINE
  5
68E
330
65F
100
AcDbEntity
  8
1
  6
Continuous
100
AcDbLine
 10
121.1268299999999
 20
382.827698
 30
0.0
 11
121.1268299999999
 21
388.827698
 31
0.0
  0
LINE
  5
68F
330
65F
100
AcDbEntity
  8
1
  6
Continuous
100
AcDbLine
 10
108.126831
 20
382.827698
 30
0.0
 11
108.126831
 21
388.827698
 31
0.0
  0
LINE
  5
690
330
65F
100
AcDbEntity
  8
4
  6
CENTER
100
AcDbLine
 10
127.12683
 20
386.427704
 30
0.0
 11
127.12683
 21
392.827698
 31
0.0
  0
LINE
  5
691
330
65F
100
AcDbEntity
  8
4
  6
CENTER
100
AcDbLine
 10
102.126831
 20
386.427704
 30
0.0
 11
102.126831
 21
392.827698
 31
0.0
  0
LINE
  5
692
330
65F
100
AcDbEntity
  8
1
  6
Continuous
100
AcDbLine
 10
132.87683
 20
388.827698
 30
0.0
 11
132.87683
 21
390.427704
 31
0.0
  0
LINE
  5
693
330
65F
100
AcDbEntity
  8
1
  6
Continuous
100
AcDbLine
 10
96.37683100000003
 20
388.827698
 30
0.0
 11
96.37683100000003
 21
390.427704
 31
0.0
  0
LINE
  5
694
330
65F
100
AcDbEntity
  8
1
  6
Continuous
100
AcDbLine
 10
132.87683
 20
388.827698
 30
0.0
 11
96.37683100000003
 21
388.827698
 31
0.0
  0
LINE
  5
695
330
65F
100
AcDbEntity
  8
1
  6
Continuous
100
AcDbLine
 10
132.87683
 20
390.427704
 30
0.0
 11
96.37683100000003
 21
390.427704
 31
0.0
  0
LINE
  5
696
330
65F
100
AcDbEntity
  8
1
  6
Continuous
100
AcDbLine
 10
280.228136
 20
72.849327
 30
0.0
 11
280.228136
 21
41.15064199999999
 31
0.0
  0
LINE
  5
697
330
65F
100
AcDbEntity
  8
4
  6
CENTER
100
AcDbLine
 10
114.626831
 20
395.8276979999998
 30
0.0
 11
114.626831
 21
369.827698
 31
0.0
  0
LINE
  5
698
330
65F
100
AcDbEntity
  8
4
  6
CENTER
100
AcDbLine
 10
125.704122
 20
382.827698
 30
0.0
 11
103.604125
 21
382.827698
 31
0.0
  0
LINE
  5
699
330
65F
100
AcDbEntity
  8
4
  6
CENTER
100
AcDbLine
 10
267.728136
 20
69.49998499999999
 30
0.0
 11
279.7281359999999
 21
69.49998499999999
 31
0.0
  0
LINE
  5
69A
330
65F
100
AcDbEntity
  8
4
  6
CENTER
100
AcDbLine
 10
273.728136
 20
80.24998499999998
 30
0.0
 11
273.728136
 21
33.74998499999998
 31
0.0
  0
LINE
  5
69B
330
65F
100
AcDbEntity
  8
4
  6
CENTER
100
AcDbLine
 10
267.728136
 20
44.49998499999998
 30
0.0
 11
279.7281359999999
 21
44.49998499999998
 31
0.0
  0
LINE
  5
69C
330
65F
100
AcDbEntity
  8
1
  6
Continuous
100
AcDbLine
 10
286.828143
 20
292.8288269999999
 30
0.0
 11
286.828143
 21
279.0800479999999
 31
0.0
  0
LINE
  5
69D
330
65F
100
AcDbEntity
  8
1
  6
Continuous
100
AcDbLine
 10
286.828143
 20
162.829987
 30
0.0
 11
287.328143
 21
162.829987
 31
0.0
  0
LINE
  5
69E
330
65F
100
AcDbEntity
  8
1
  6
Continuous
100
AcDbLine
 10
286.828143
 20
170.8299869999999
 30
0.0
 11
287.328143
 21
170.8299869999999
 31
0.0
  0
LINE
  5
69F
330
65F
100
AcDbEntity
  8
1
  6
Continuous
100
AcDbLine
 10
284.828143
 20
292.8288269999999
 30
0.0
 11
284.828143
 21
279.0800479999999
 31
0.0
  0
LINE
  5
6A0
330
65F
100
AcDbEntity
  8
1
  6
Continuous
100
AcDbLine
 10
284.828143
 20
158.829971
 30
0.0
 11
286.828143
 21
158.829971
 31
0.0
  0
LINE
  5
6A1
330
65F
100
AcDbEntity
  8
1
  6
Continuous
100
AcDbLine
 10
283.3281429999999
 20
163.329971
 30
0.0
 11
284.828143
 21
163.329971
 31
0.0
  0
LINE
  5
6A2
330
65F
100
AcDbEntity
  8
1
  6
Continuous
100
AcDbLine
 10
283.3281429999999
 20
170.329971
 30
0.0
 11
284.828143
 21
170.329971
 31
0.0
  0
LINE
  5
6A3
330
65F
100
AcDbEntity
  8
1
  6
Continuous
100
AcDbLine
 10
282.328143
 20
254.828827
 30
0.0
 11
284.328143
 21
254.828827
 31
0.0
  0
LINE
  5
6A4
330
65F
100
AcDbEntity
  8
1
  6
Continuous
100
AcDbLine
 10
282.328143
 20
388.829071
 30
0.0
 11
284.328143
 21
388.829071
 31
0.0
  0
LINE
  5
6A5
330
65F
100
AcDbEntity
  8
1
  6
Continuous
100
AcDbLine
 10
284.328143
 20
388.829071
 30
0.0
 11
284.328143
 21
279.0800479999999
 31
0.0
  0
LINE
  5
6A6
330
65F
100
AcDbEntity
  8
1
  6
Continuous
100
AcDbLine
 10
282.328143
 20
388.829071
 30
0.0
 11
282.328143
 21
254.828827
 31
0.0
  0
LINE
  5
6A7
330
65F
100
AcDbEntity
  8
1
  6
Continuous
100
AcDbLine
 10
607.6281299999999
 20
388.827698
 30
0.0
 11
607.6281299999999
 21
376.327698
 31
0.0
  0
LINE
  5
6A8
330
65F
100
AcDbEntity
  8
1
  6
Continuous
100
AcDbLine
 10
281.828143
 20
378.827698
 30
0.0
 11
282.328143
 21
378.827698
 31
0.0
  0
LINE
  5
6A9
330
65F
100
AcDbEntity
  8
1
  6
Continuous
100
AcDbLine
 10
281.828143
 20
386.827698
 30
0.0
 11
282.328143
 21
386.827698
 31
0.0
  0
LINE
  5
6AA
330
65F
100
AcDbEntity
  8
1
  6
Continuous
100
AcDbLine
 10
281.7281359999999
 20
263.8288269999998
 30
0.0
 11
282.328143
 21
263.8288269999998
 31
0.0
  0
LINE
  5
6AB
330
65F
100
AcDbEntity
  8
1
  6
Continuous
100
AcDbLine
 10
280.228136
 20
270.828827
 30
0.0
 11
281.7281359999999
 21
270.828827
 31
0.0
  0
LINE
  5
6AC
330
65F
100
AcDbEntity
  8
1
  6
Continuous
100
AcDbLine
 10
280.228136
 20
278.8288269999998
 30
0.0
 11
281.7281359999999
 21
278.8288269999998
 31
0.0
  0
LINE
  5
6AD
330
65F
100
AcDbEntity
  8
1
  6
Continuous
100
AcDbLine
 10
280.228136
 20
278.8288269999998
 30
0.0
 11
280.228136
 21
270.828827
 31
0.0
  0
LINE
  5
6AE
330
65F
100
AcDbEntity
  8
1
  6
Continuous
100
AcDbLine
 10
287.428133
 20
290.8288269999999
 30
0.0
 11
287.428133
 21
279.0800479999999
 31
0.0
  0
LINE
  5
6AF
330
65F
100
AcDbEntity
  8
1
  6
Continuous
100
AcDbLine
 10
288.4281329999998
 20
277.328827
 30
0.0
 11
288.4281329999998
 21
272.3288269999998
 31
0.0
  0
LINE
  5
6B0
330
65F
100
AcDbEntity
  8
1
  6
Continuous
100
AcDbLine
 10
283.3281429999999
 20
170.329971
 30
0.0
 11
283.3281429999999
 21
163.329971
 31
0.0
  0
LINE
  5
6B1
330
65F
100
AcDbEntity
  8
1
  6
Continuous
100
AcDbLine
 10
285.328143
 20
384.8276979999998
 30
0.0
 11
285.328143
 21
380.827698
 31
0.0
  0
LINE
  5
6B2
330
65F
100
AcDbEntity
  8
1
  6
Continuous
100
AcDbLine
 10
610.7281359999998
 20
386.327698
 30
0.0
 11
610.7281359999998
 21
379.3276979999998
 31
0.0
  0
LINE
  5
6B3
330
65F
100
AcDbEntity
  8
1
  6
Continuous
100
AcDbLine
 10
609.2281360000002
 20
379.3276979999998
 30
0.0
 11
610.7281359999998
 21
379.3276979999998
 31
0.0
  0
LINE
  5
6B4
330
65F
100
AcDbEntity
  8
1
  6
Continuous
100
AcDbLine
 10
609.2281360000002
 20
386.327698
 30
0.0
 11
610.7281359999998
 21
386.327698
 31
0.0
  0
LINE
  5
6B5
330
65F
100
AcDbEntity
  8
4
  6
CENTER
100
AcDbLine
 10
133.728133
 20
297.8288269999998
 30
0.0
 11
133.728133
 21
251.8288269999999
 31
0.0
  0
LINE
  5
6B6
330
65F
100
AcDbEntity
  8
4
  6
CENTER
100
AcDbLine
 10
164.2353159999998
 20
274.8288269999998
 30
0.0
 11
102.8206709999998
 21
274.8288269999998
 31
0.0
  0
LINE
  5
6B7
330
65F
100
AcDbEntity
  8
1
  6
Continuous
100
AcDbLine
 10
286.828143
 20
258.828827
 30
0.0
 11
287.428133
 21
258.828827
 31
0.0
  0
LINE
  5
6B8
330
65F
100
AcDbEntity
  8
1
  6
Continuous
100
AcDbLine
 10
286.828143
 20
290.8288269999999
 30
0.0
 11
287.428133
 21
290.8288269999999
 31
0.0
  0
LINE
  5
6B9
330
65F
100
AcDbEntity
  8
1
  6
Continuous
100
AcDbLine
 10
284.328143
 20
263.8288269999998
 30
0.0
 11
284.828143
 21
263.8288269999998
 31
0.0
  0
LINE
  5
6BA
330
65F
100
AcDbEntity
  8
1
  6
Continuous
100
AcDbLine
 10
284.328143
 20
285.828827
 30
0.0
 11
284.828143
 21
285.828827
 31
0.0
  0
LINE
  5
6BB
330
65F
100
AcDbEntity
  8
1
  6
Continuous
100
AcDbLine
 10
281.7281359999999
 20
263.8288269999998
 30
0.0
 11
282.328143
 21
263.8288269999998
 31
0.0
  0
LINE
  5
6BC
330
65F
100
AcDbEntity
  8
1
  6
Continuous
100
AcDbLine
 10
281.7281359999999
 20
285.828827
 30
0.0
 11
282.328143
 21
285.828827
 31
0.0
  0
LINE
  5
6BD
330
65F
100
AcDbEntity
  8
1
  6
Continuous
100
AcDbLine
 10
281.7281359999999
 20
263.8288269999998
 30
0.0
 11
281.7281359999999
 21
285.828827
 31
0.0
  0
LINE
  5
6BE
330
65F
100
AcDbEntity
  8
1
  6
Continuous
100
AcDbLine
 10
622.2281360000001
 20
390.427704
 30
0.0
 11
609.2281360000002
 21
390.427704
 31
0.0
  0
LINE
  5
6BF
330
65F
100
AcDbEntity
  8
4
  6
CENTER
100
AcDbLine
 10
393.46712
 20
274.8288269999998
 30
0.0
 11
454.2694879999998
 21
274.8288269999998
 31
0.0
  0
LINE
  5
6C0
330
65F
100
AcDbEntity
  8
4
  6
CENTER
100
AcDbLine
 10
424.728136
 20
297.8288269999998
 30
0.0
 11
424.728136
 21
251.8288269999999
 31
0.0
  0
LINE
  5
6C1
330
65F
100
AcDbEntity
  8
4
  6
CENTER
100
AcDbLine
 10
443.829424
 20
395.8276979999998
 30
0.0
 11
443.829424
 21
369.827698
 31
0.0
  0
LINE
  5
6C2
330
65F
100
AcDbEntity
  8
4
  6
CENTER
100
AcDbLine
 10
432.734108
 20
382.827698
 30
0.0
 11
454.8341139999998
 21
382.827698
 31
0.0
  0
LINE
  5
6C3
330
65F
100
AcDbEntity
  8
1
  6
Continuous
100
AcDbLine
 10
425.579424
 20
390.427704
 30
0.0
 11
462.079424
 21
390.427704
 31
0.0
  0
LINE
  5
6C4
330
65F
100
AcDbEntity
  8
1
  6
Continuous
100
AcDbLine
 10
425.579424
 20
388.827698
 30
0.0
 11
437.3294239999999
 21
388.827698
 31
0.0
  0
LINE
  5
6C5
330
65F
100
AcDbEntity
  8
1
  6
Continuous
100
AcDbLine
 10
462.079424
 20
388.827698
 30
0.0
 11
462.079424
 21
390.427704
 31
0.0
  0
LINE
  5
6C6
330
65F
100
AcDbEntity
  8
1
  6
Continuous
100
AcDbLine
 10
425.579424
 20
388.827698
 30
0.0
 11
425.579424
 21
390.427704
 31
0.0
  0
LINE
  5
6C7
330
65F
100
AcDbEntity
  8
4
  6
CENTER
100
AcDbLine
 10
456.329424
 20
386.427704
 30
0.0
 11
456.329424
 21
392.827698
 31
0.0
  0
LINE
  5
6C8
330
65F
100
AcDbEntity
  8
4
  6
CENTER
100
AcDbLine
 10
431.329424
 20
386.427704
 30
0.0
 11
431.329424
 21
392.827698
 31
0.0
  0
LINE
  5
6C9
330
65F
100
AcDbEntity
  8
1
  6
Continuous
100
AcDbLine
 10
437.3294239999999
 20
385.9422299999998
 30
0.0
 11
437.3294239999999
 21
390.427704
 31
0.0
  0
LINE
  5
6CA
330
65F
100
AcDbEntity
  8
4
  6
CENTER
100
AcDbLine
 10
443.829424
 20
145.829971
 30
0.0
 11
443.829424
 21
187.829971
 31
0.0
  0
LINE
  5
6CB
330
65F
100
AcDbEntity
  8
4
  6
CENTER
100
AcDbLine
 10
453.129412
 20
150.721909
 30
0.0
 11
448.3294189999998
 21
159.035755
 31
0.0
  0
LINE
  5
6CC
330
65F
100
AcDbEntity
  8
4
  6
CENTER
100
AcDbLine
 10
422.829424
 20
166.829971
 30
0.0
 11
464.829424
 21
166.829971
 31
0.0
  0
LINE
  5
6CD
330
65F
100
AcDbEntity
  8
4
  6
CENTER
100
AcDbLine
 10
453.1294429999999
 20
182.938049
 30
0.0
 11
448.329436
 21
174.624208
 31
0.0
  0
LINE
  5
6CE
330
65F
100
AcDbEntity
  8
1
  6
Continuous
100
AcDbLine
 10
450.329424
 20
388.827698
 30
0.0
 11
462.079424
 21
388.827698
 31
0.0
  0
LINE
  5
6CF
330
65F
100
AcDbEntity
  8
1
  6
Continuous
100
AcDbLine
 10
288.4281329999998
 20
277.328827
 30
0.0
 11
288.328143
 21
277.328827
 31
0.0
  0
LINE
  5
6D0
330
65F
100
AcDbEntity
  8
1
  6
Continuous
100
AcDbLine
 10
287.428133
 20
272.3288269999998
 30
0.0
 11
288.4281329999998
 21
272.3288269999998
 31
0.0
  0
LINE
  5
6D1
330
65F
100
AcDbEntity
  8
1
  6
Continuous
100
AcDbLine
 10
404.7130909999998
 20
279.0800479999999
 30
0.0
 11
406.700243
 21
278.853638
 31
0.0
  0
LINE
  5
6D2
330
65F
100
AcDbEntity
  8
1
  6
Continuous
100
AcDbLine
 10
404.260302
 20
275.1057739999998
 30
0.0
 11
406.247424
 21
274.879364
 31
0.0
  0
LINE
  5
6D3
330
65F
100
AcDbEntity
  8
1
  6
Continuous
100
AcDbLine
 10
404.7130909999998
 20
279.0800479999999
 30
0.0
 11
404.260302
 21
275.1057739999998
 31
0.0
  0
LINE
  5
6D4
330
65F
100
AcDbEntity
  8
1
  6
Continuous
100
AcDbLine
 10
406.700243
 20
278.853638
 30
0.0
 11
406.247424
 21
274.879364
 31
0.0
  0
LINE
  5
6D5
330
65F
100
AcDbEntity
  8
1
  6
Continuous
100
AcDbLine
 10
404.228136
 20
274.8288269999998
 30
0.0
 11
406.7281359999998
 21
274.8288269999998
 31
0.0
  0
LINE
  5
6D6
330
65F
100
AcDbEntity
  8
1
  6
Continuous
100
AcDbLine
 10
153.728136
 20
274.8288269999998
 30
0.0
 11
154.228136
 21
274.8288269999998
 31
0.0
  0
LINE
  5
6D7
330
65F
100
AcDbEntity
  8
4
  6
CENTER
100
AcDbLine
 10
415.2281359999998
 20
276.8288269999998
 30
0.0
 11
415.2281359999998
 21
272.8288269999998
 31
0.0
  0
LINE
  5
6D8
330
65F
100
AcDbEntity
  8
4
  6
CENTER
100
AcDbLine
 10
434.228136
 20
276.8288269999998
 30
0.0
 11
434.228136
 21
272.8288269999998
 31
0.0
  0
LINE
  5
6D9
330
65F
100
AcDbEntity
  8
1
  6
Continuous
100
AcDbLine
 10
284.328143
 20
384.8276979999998
 30
0.0
 11
285.328143
 21
384.8276979999998
 31
0.0
  0
LINE
  5
6DA
330
65F
100
AcDbEntity
  8
1
  6
Continuous
100
AcDbLine
 10
284.328143
 20
380.827698
 30
0.0
 11
285.328143
 21
380.827698
 31
0.0
  0
LINE
  5
6DB
330
65F
100
AcDbEntity
  8
1
  6
Continuous
100
AcDbLine
 10
284.328143
 20
453.557678
 30
0.0
 11
284.328143
 21
500.1896359999998
 31
0.0
  0
LINE
  5
6DC
330
65F
100
AcDbEntity
  8
1
  6
Continuous
100
AcDbLine
 10
281.828143
 20
486.157715
 30
0.0
 11
281.828143
 21
499.157715
 31
0.0
  0
LINE
  5
6DD
330
65F
100
AcDbEntity
  8
1
  6
Continuous
100
AcDbLine
 10
280.228136
 20
486.157715
 30
0.0
 11
281.828143
 21
486.157715
 31
0.0
  0
LINE
  5
6DE
330
65F
100
AcDbEntity
  8
1
  6
Continuous
100
AcDbLine
 10
282.328143
 20
500.1896359999998
 30
0.0
 11
284.328143
 21
500.1896359999998
 31
0.0
  0
LINE
  5
6DF
330
65F
100
AcDbEntity
  8
1
  6
Continuous
100
AcDbLine
 10
290.02814
 20
508.657654
 30
0.0
 11
291.228136
 21
508.657654
 31
0.0
  0
LINE
  5
6E0
330
65F
100
AcDbEntity
  8
4
  6
CENTER
100
AcDbLine
 10
261.755322
 20
492.657715
 30
0.0
 11
296.52814
 21
492.657715
 31
0.0
  0
LINE
  5
6E1
330
65F
100
AcDbEntity
  8
1
  6
Continuous
100
AcDbLine
 10
281.828143
 20
496.657715
 30
0.0
 11
282.328143
 21
496.657715
 31
0.0
  0
LINE
  5
6E2
330
65F
100
AcDbEntity
  8
1
  6
Continuous
100
AcDbLine
 10
281.828143
 20
488.657715
 30
0.0
 11
282.328143
 21
488.657715
 31
0.0
  0
LINE
  5
6E3
330
65F
100
AcDbEntity
  8
1
  6
Continuous
100
AcDbLine
 10
285.328143
 20
495.157715
 30
0.0
 11
285.328143
 21
490.157715
 31
0.0
  0
LINE
  5
6E4
330
65F
100
AcDbEntity
  8
1
  6
Continuous
100
AcDbLine
 10
284.328143
 20
490.157715
 30
0.0
 11
285.328143
 21
490.157715
 31
0.0
  0
LINE
  5
6E5
330
65F
100
AcDbEntity
  8
1
  6
Continuous
100
AcDbLine
 10
284.328143
 20
495.157715
 30
0.0
 11
285.328143
 21
495.157715
 31
0.0
  0
LINE
  5
6E6
330
65F
100
AcDbEntity
  8
1
  6
Continuous
100
AcDbLine
 10
284.828143
 20
292.8288269999999
 30
0.0
 11
286.828143
 21
292.8288269999999
 31
0.0
  0
LINE
  5
6E7
330
65F
100
AcDbEntity
  8
1
  6
Continuous
100
AcDbLine
 10
284.328143
 20
274.8288269999998
 30
0.0
 11
288.328143
 21
274.8288269999998
 31
0.0
  0
LINE
  5
6E8
330
65F
100
AcDbEntity
  8
1
  6
Continuous
100
AcDbLine
 10
288.328143
 20
279.069946
 30
0.0
 11
288.328143
 21
274.8288269999998
 31
0.0
  0
LINE
  5
6E9
330
65F
100
AcDbEntity
  8
1
  6
Continuous
100
AcDbLine
 10
284.328143
 20
274.8288269999998
 30
0.0
 11
284.328143
 21
254.828827
 31
0.0
  0
LINE
  5
6EA
330
65F
100
AcDbEntity
  8
1
  6
Continuous
100
AcDbLine
 10
284.828143
 20
274.8288269999998
 30
0.0
 11
284.828143
 21
158.829971
 31
0.0
  0
LINE
  5
6EB
330
65F
100
AcDbEntity
  8
1
  6
Continuous
100
AcDbLine
 10
286.828143
 20
274.8288269999998
 30
0.0
 11
286.828143
 21
158.829971
 31
0.0
  0
LINE
  5
6EC
330
65F
100
AcDbEntity
  8
1
  6
Continuous
100
AcDbLine
 10
287.428133
 20
274.8288269999998
 30
0.0
 11
287.428133
 21
258.828827
 31
0.0
  0
LINE
  5
6ED
330
65F
100
AcDbEntity
  8
1
  6
Continuous
100
AcDbLine
 10
284.828143
 20
490.157715
 30
0.0
 11
284.828143
 21
455.8101809999998
 31
0.0
  0
LINE
  5
6EE
330
65F
100
AcDbEntity
  8
1
  6
Continuous
100
AcDbLine
 10
286.828143
 20
500.657715
 30
0.0
 11
286.828143
 21
455.631592
 31
0.0
  0
LINE
  5
6EF
330
65F
100
AcDbEntity
  8
1
  6
Continuous
100
AcDbLine
 10
287.428133
 20
489.5576779999998
 30
0.0
 11
287.428133
 21
457.557678
 31
0.0
  0
LINE
  5
6F0
330
65F
100
AcDbEntity
  8
1
  6
Continuous
100
AcDbLine
 10
288.4281329999998
 20
476.057678
 30
0.0
 11
288.4281329999998
 21
471.057678
 31
0.0
  0
LINE
  5
6F1
330
65F
100
AcDbEntity
  8
4
  6
CENTER
100
AcDbLine
 10
276.311343
 20
473.557678
 30
0.0
 11
293.428133
 21
473.557678
 31
0.0
  0
LINE
  5
6F2
330
65F
100
AcDbEntity
  8
1
  6
Continuous
100
AcDbLine
 10
286.828143
 20
457.557678
 30
0.0
 11
287.428133
 21
457.557678
 31
0.0
  0
LINE
  5
6F3
330
65F
100
AcDbEntity
  8
1
  6
Continuous
100
AcDbLine
 10
286.828143
 20
489.5576779999998
 30
0.0
 11
287.428133
 21
489.5576779999998
 31
0.0
  0
LINE
  5
6F4
330
65F
100
AcDbEntity
  8
1
  6
Continuous
100
AcDbLine
 10
285.328143
 20
491.557678
 30
0.0
 11
286.828143
 21
491.557678
 31
0.0
  0
LINE
  5
6F5
330
65F
100
AcDbEntity
  8
1
  6
Continuous
100
AcDbLine
 10
287.428133
 20
471.057678
 30
0.0
 11
288.4281329999998
 21
471.057678
 31
0.0
  0
LINE
  5
6F6
330
65F
100
AcDbEntity
  8
1
  6
Continuous
100
AcDbLine
 10
287.428133
 20
476.057678
 30
0.0
 11
288.4281329999998
 21
476.057678
 31
0.0
  0
LINE
  5
6F7
330
65F
100
AcDbEntity
  8
1
  6
Continuous
100
AcDbLine
 10
288.328143
 20
455.4976809999998
 30
0.0
 11
288.328143
 21
453.057678
 31
0.0
  0
LINE
  5
6F8
330
65F
100
AcDbEntity
  8
1
  6
Continuous
100
AcDbLine
 10
291.228136
 20
508.657654
 30
0.0
 11
291.228136
 21
476.6576539999999
 31
0.0
  0
LINE
  5
6F9
330
65F
100
AcDbEntity
  8
1
  6
Continuous
100
AcDbLine
 10
290.02814
 20
508.657654
 30
0.0
 11
290.02814
 21
476.6576539999999
 31
0.0
  0
LINE
  5
6FA
330
65F
100
AcDbEntity
  8
1
  6
Continuous
100
AcDbLine
 10
287.328143
 20
496.157715
 30
0.0
 11
287.328143
 21
489.5576779999998
 31
0.0
  0
LINE
  5
6FB
330
65F
100
AcDbEntity
  8
1
  6
Continuous
100
AcDbLine
 10
290.02814
 20
476.6576539999999
 30
0.0
 11
291.228136
 21
476.6576539999999
 31
0.0
  0
LINE
  5
6FC
330
65F
100
AcDbEntity
  8
1
  6
Continuous
100
AcDbLine
 10
284.828143
 20
500.657715
 30
0.0
 11
286.828143
 21
500.657715
 31
0.0
  0
LINE
  5
6FD
330
65F
100
AcDbEntity
  8
1
  6
Continuous
100
AcDbLine
 10
284.828143
 20
500.657715
 30
0.0
 11
284.828143
 21
495.157715
 31
0.0
  0
LINE
  5
6FE
330
65F
100
AcDbEntity
  8
1
  6
Continuous
100
AcDbLine
 10
281.7281359999999
 20
486.157715
 30
0.0
 11
281.7281359999999
 21
460.0576779999998
 31
0.0
  0
LINE
  5
6FF
330
65F
100
AcDbEntity
  8
1
  6
Continuous
100
AcDbLine
 10
280.228136
 20
477.557678
 30
0.0
 11
280.228136
 21
469.557678
 31
0.0
  0
LINE
  5
700
330
65F
100
AcDbEntity
  8
1
  6
Continuous
100
AcDbLine
 10
280.228136
 20
477.557678
 30
0.0
 11
281.7281359999999
 21
477.557678
 31
0.0
  0
LINE
  5
701
330
65F
100
AcDbEntity
  8
1
  6
Continuous
100
AcDbLine
 10
280.228136
 20
469.557678
 30
0.0
 11
281.7281359999999
 21
469.557678
 31
0.0
  0
LINE
  5
702
330
65F
100
AcDbEntity
  8
1
  6
Continuous
100
AcDbLine
 10
281.7281359999999
 20
481.3839719999998
 30
0.0
 11
282.328143
 21
481.3839719999998
 31
0.0
  0
LINE
  5
703
330
65F
100
AcDbEntity
  8
1
  6
Continuous
100
AcDbLine
 10
281.7281359999999
 20
465.731445
 30
0.0
 11
282.328143
 21
465.731445
 31
0.0
  0
LINE
  5
704
330
65F
100
AcDbEntity
  8
1
  6
Continuous
100
AcDbLine
 10
284.328143
 20
96.26665500000001
 30
0.0
 11
284.328143
 21
60.499985
 31
0.0
  0
LINE
  5
705
330
65F
100
AcDbEntity
  8
1
  6
Continuous
100
AcDbLine
 10
281.828143
 20
60.99998499999998
 30
0.0
 11
282.328143
 21
60.99998499999998
 31
0.0
  0
LINE
  5
706
330
65F
100
AcDbEntity
  8
1
  6
Continuous
100
AcDbLine
 10
281.828143
 20
63.49998499999998
 30
0.0
 11
281.828143
 21
50.499985
 31
0.0
  0
LINE
  5
707
330
65F
100
AcDbEntity
  8
1
  6
Continuous
100
AcDbLine
 10
280.228136
 20
63.49998499999998
 30
0.0
 11
281.828143
 21
63.49998499999998
 31
0.0
  0
LINE
  5
708
330
65F
100
AcDbEntity
  8
1
  6
Continuous
100
AcDbLine
 10
282.328143
 20
49.468021
 30
0.0
 11
284.328143
 21
49.468021
 31
0.0
  0
LINE
  5
709
330
65F
100
AcDbEntity
  8
1
  6
Continuous
100
AcDbLine
 10
280.228136
 20
80.09998299999997
 30
0.0
 11
281.7281359999999
 21
80.09998299999997
 31
0.0
  0
LINE
  5
70A
330
65F
100
AcDbEntity
  8
4
  6
CENTER
100
AcDbLine
 10
261.1348699999999
 20
56.99998499999999
 30
0.0
 11
296.52814
 21
56.99998499999999
 31
0.0
  0
LINE
  5
70B
330
65F
100
AcDbEntity
  8
1
  6
Continuous
100
AcDbLine
 10
280.228136
 20
72.09998299999998
 30
0.0
 11
281.7281359999999
 21
72.09998299999998
 31
0.0
  0
LINE
  5
70C
330
65F
100
AcDbEntity
  8
1
  6
Continuous
100
AcDbLine
 10
290.02814
 20
41.0
 30
0.0
 11
291.228136
 21
41.0
 31
0.0
  0
LINE
  5
70D
330
65F
100
AcDbEntity
  8
1
  6
Continuous
100
AcDbLine
 10
281.828143
 20
52.999985
 30
0.0
 11
282.328143
 21
52.999985
 31
0.0
  0
LINE
  5
70E
330
65F
100
AcDbEntity
  8
1
  6
Continuous
100
AcDbLine
 10
278.728136
 20
53.49998499999998
 30
0.0
 11
278.728136
 21
60.499985
 31
0.0
  0
LINE
  5
70F
330
65F
100
AcDbEntity
  8
1
  6
Continuous
100
AcDbLine
 10
278.728136
 20
53.49998499999998
 30
0.0
 11
280.228136
 21
53.49998499999998
 31
0.0
  0
LINE
  5
710
330
65F
100
AcDbEntity
  8
1
  6
Continuous
100
AcDbLine
 10
278.728136
 20
60.499985
 30
0.0
 11
280.228136
 21
60.499985
 31
0.0
  0
LINE
  5
711
330
65F
100
AcDbEntity
  8
1
  6
Continuous
100
AcDbLine
 10
284.828143
 20
48.99998499999998
 30
0.0
 11
284.828143
 21
96.59998299999999
 31
0.0
  0
LINE
  5
712
330
65F
100
AcDbEntity
  8
1
  6
Continuous
100
AcDbLine
 10
286.828143
 20
48.99998499999998
 30
0.0
 11
286.828143
 21
96.59998299999999
 31
0.0
  0
LINE
  5
713
330
65F
100
AcDbEntity
  8
1
  6
Continuous
100
AcDbLine
 10
287.428133
 20
61.95526499999999
 30
0.0
 11
287.428133
 21
92.099983
 31
0.0
  0
LINE
  5
714
330
65F
100
AcDbEntity
  8
1
  6
Continuous
100
AcDbLine
 10
288.4281329999998
 20
73.59998299999998
 30
0.0
 11
288.4281329999998
 21
78.59998299999998
 31
0.0
  0
LINE
  5
715
330
65F
100
AcDbEntity
  8
1
  6
Continuous
100
AcDbLine
 10
286.828143
 20
92.099983
 30
0.0
 11
287.428133
 21
92.099983
 31
0.0
  0
LINE
  5
716
330
65F
100
AcDbEntity
  8
4
  6
CENTER
100
AcDbLine
 10
275.228136
 20
76.09998299999998
 30
0.0
 11
293.428133
 21
76.09998299999998
 31
0.0
  0
LINE
  5
717
330
65F
100
AcDbEntity
  8
1
  6
Continuous
100
AcDbLine
 10
287.428133
 20
78.59998299999998
 30
0.0
 11
288.4281329999998
 21
78.59998299999998
 31
0.0
  0
LINE
  5
718
330
65F
100
AcDbEntity
  8
1
  6
Continuous
100
AcDbLine
 10
287.428133
 20
73.59998299999998
 30
0.0
 11
288.4281329999998
 21
73.59998299999998
 31
0.0
  0
LINE
  5
719
330
65F
100
AcDbEntity
  8
1
  6
Continuous
100
AcDbLine
 10
288.328143
 20
94.159988
 30
0.0
 11
288.328143
 21
96.59998299999999
 31
0.0
  0
LINE
  5
71A
330
65F
100
AcDbEntity
  8
1
  6
Continuous
100
AcDbLine
 10
291.228136
 20
41.0
 30
0.0
 11
291.228136
 21
73.0
 31
0.0
  0
LINE
  5
71B
330
65F
100
AcDbEntity
  8
1
  6
Continuous
100
AcDbLine
 10
290.02814
 20
41.0
 30
0.0
 11
290.02814
 21
73.0
 31
0.0
  0
LINE
  5
71C
330
65F
100
AcDbEntity
  8
1
  6
Continuous
100
AcDbLine
 10
287.328143
 20
52.46046800000002
 30
0.0
 11
287.328143
 21
61.475685
 31
0.0
  0
LINE
  5
71D
330
65F
100
AcDbEntity
  8
1
  6
Continuous
100
AcDbLine
 10
290.02814
 20
73.0
 30
0.0
 11
291.228136
 21
73.0
 31
0.0
  0
LINE
  5
71E
330
65F
100
AcDbEntity
  8
1
  6
Continuous
100
AcDbLine
 10
284.828143
 20
48.99998499999998
 30
0.0
 11
286.828143
 21
48.99998499999998
 31
0.0
  0
LINE
  5
71F
330
65F
100
AcDbEntity
  8
1
  6
Continuous
100
AcDbLine
 10
281.7281359999999
 20
68.273735
 30
0.0
 11
282.328143
 21
68.273735
 31
0.0
  0
LINE
  5
720
330
65F
100
AcDbEntity
  8
1
  6
Continuous
100
AcDbLine
 10
281.7281359999999
 20
83.92623899999998
 30
0.0
 11
282.328143
 21
83.92623899999998
 31
0.0
  0
LINE
  5
721
330
65F
100
AcDbEntity
  8
1
  6
Continuous
100
AcDbLine
 10
280.228136
 20
72.09998299999998
 30
0.0
 11
280.228136
 21
80.09998299999997
 31
0.0
  0
LINE
  5
722
330
65F
100
AcDbEntity
  8
1
  6
Continuous
100
AcDbLine
 10
281.7281359999999
 20
63.49998499999998
 30
0.0
 11
281.7281359999999
 21
89.59998299999998
 31
0.0
  0
LINE
  5
723
330
65F
100
AcDbEntity
  8
1
  6
Continuous
100
AcDbLine
 10
284.328143
 20
53.49998499999998
 30
0.0
 11
284.328143
 21
49.468021
 31
0.0
  0
LINE
  5
724
330
65F
100
AcDbEntity
  8
1
  6
Continuous
100
AcDbLine
 10
607.7281359999998
 20
263.8288269999998
 30
0.0
 11
607.7281359999998
 21
285.828827
 31
0.0
  0
LINE
  5
725
330
65F
100
AcDbEntity
  8
1
  6
Continuous
100
AcDbLine
 10
607.7281359999998
 20
285.828827
 30
0.0
 11
607.1281299999999
 21
285.828827
 31
0.0
  0
LINE
  5
726
330
65F
100
AcDbEntity
  8
1
  6
Continuous
100
AcDbLine
 10
607.7281359999998
 20
263.8288269999998
 30
0.0
 11
607.1281299999999
 21
263.8288269999998
 31
0.0
  0
LINE
  5
727
330
65F
100
AcDbEntity
  8
1
  6
Continuous
100
AcDbLine
 10
605.1281299999999
 20
285.828827
 30
0.0
 11
604.6281299999999
 21
285.828827
 31
0.0
  0
LINE
  5
728
330
65F
100
AcDbEntity
  8
1
  6
Continuous
100
AcDbLine
 10
605.1281299999999
 20
263.8288269999998
 30
0.0
 11
604.6281299999999
 21
263.8288269999998
 31
0.0
  0
LINE
  5
729
330
65F
100
AcDbEntity
  8
1
  6
Continuous
100
AcDbLine
 10
602.6281299999999
 20
290.8288269999999
 30
0.0
 11
602.0281240000001
 21
290.8288269999999
 31
0.0
  0
LINE
  5
72A
330
65F
100
AcDbEntity
  8
1
  6
Continuous
100
AcDbLine
 10
602.6281299999999
 20
258.828827
 30
0.0
 11
602.0281240000001
 21
258.828827
 31
0.0
  0
LINE
  5
72B
330
65F
100
AcDbEntity
  8
1
  6
Continuous
100
AcDbLine
 10
604.1281299999999
 20
384.8276979999998
 30
0.0
 11
604.1281299999999
 21
380.827698
 31
0.0
  0
LINE
  5
72C
330
65F
100
AcDbEntity
  8
1
  6
Continuous
100
AcDbLine
 10
606.1281299999999
 20
170.329971
 30
0.0
 11
606.1281299999999
 21
163.329971
 31
0.0
  0
LINE
  5
72D
330
65F
100
AcDbEntity
  8
1
  6
Continuous
100
AcDbLine
 10
601.0281240000002
 20
277.328827
 30
0.0
 11
601.0281240000002
 21
272.3288269999998
 31
0.0
  0
LINE
  5
72E
330
65F
100
AcDbEntity
  8
1
  6
Continuous
100
AcDbLine
 10
609.2281360000002
 20
278.8288269999998
 30
0.0
 11
609.2281360000002
 21
270.828827
 31
0.0
  0
LINE
  5
72F
330
65F
100
AcDbEntity
  8
1
  6
Continuous
100
AcDbLine
 10
609.2281360000002
 20
278.8288269999998
 30
0.0
 11
607.7281359999998
 21
278.8288269999998
 31
0.0
  0
LINE
  5
730
330
65F
100
AcDbEntity
  8
1
  6
Continuous
100
AcDbLine
 10
609.2281360000002
 20
270.828827
 30
0.0
 11
607.7281359999998
 21
270.828827
 31
0.0
  0
LINE
  5
731
330
65F
100
AcDbEntity
  8
1
  6
Continuous
100
AcDbLine
 10
607.6281299999999
 20
378.827698
 30
0.0
 11
607.1281299999999
 21
378.827698
 31
0.0
  0
LINE
  5
732
330
65F
100
AcDbEntity
  8
1
  6
Continuous
100
AcDbLine
 10
607.7281359999998
 20
263.8288269999998
 30
0.0
 11
607.1281299999999
 21
263.8288269999998
 31
0.0
  0
LINE
  5
733
330
65F
100
AcDbEntity
  8
1
  6
Continuous
100
AcDbLine
 10
607.6281299999999
 20
386.827698
 30
0.0
 11
607.1281299999999
 21
386.827698
 31
0.0
  0
LINE
  5
734
330
65F
100
AcDbEntity
  8
1
  6
Continuous
100
AcDbLine
 10
607.1281299999999
 20
388.829071
 30
0.0
 11
605.1281299999999
 21
388.829071
 31
0.0
  0
LINE
  5
735
330
65F
100
AcDbEntity
  8
1
  6
Continuous
100
AcDbLine
 10
607.1281299999999
 20
388.829071
 30
0.0
 11
607.1281299999999
 21
254.828827
 31
0.0
  0
LINE
  5
736
330
65F
100
AcDbEntity
  8
1
  6
Continuous
100
AcDbLine
 10
607.1281299999999
 20
254.828827
 30
0.0
 11
605.1281299999999
 21
254.828827
 31
0.0
  0
LINE
  5
737
330
65F
100
AcDbEntity
  8
1
  6
Continuous
100
AcDbLine
 10
605.1281299999999
 20
388.829071
 30
0.0
 11
605.1281299999999
 21
254.828827
 31
0.0
  0
LINE
  5
738
330
65F
100
AcDbEntity
  8
1
  6
Continuous
100
AcDbLine
 10
606.1281299999999
 20
170.329971
 30
0.0
 11
604.6281299999999
 21
170.329971
 31
0.0
  0
LINE
  5
739
330
65F
100
AcDbEntity
  8
1
  6
Continuous
100
AcDbLine
 10
604.6281299999999
 20
158.829971
 30
0.0
 11
602.6281299999999
 21
158.829971
 31
0.0
  0
LINE
  5
73A
330
65F
100
AcDbEntity
  8
1
  6
Continuous
100
AcDbLine
 10
602.6281299999999
 20
170.8299869999999
 30
0.0
 11
602.1281299999999
 21
170.8299869999999
 31
0.0
  0
LINE
  5
73B
330
65F
100
AcDbEntity
  8
1
  6
Continuous
100
AcDbLine
 10
606.1281299999999
 20
163.329971
 30
0.0
 11
604.6281299999999
 21
163.329971
 31
0.0
  0
LINE
  5
73C
330
65F
100
AcDbEntity
  8
1
  6
Continuous
100
AcDbLine
 10
602.6281299999999
 20
162.829987
 30
0.0
 11
602.1281299999999
 21
162.829987
 31
0.0
  0
LINE
  5
73D
330
65F
100
AcDbEntity
  8
4
  6
CENTER
100
AcDbLine
 10
602.5287959999999
 20
382.827698
 30
0.0
 11
615.269549
 21
382.827698
 31
0.0
  0
LINE
  5
73E
330
65F
100
AcDbEntity
  8
1
  6
Continuous
100
AcDbLine
 10
599.4281179999997
 20
150.8299869999999
 30
0.0
 11
598.2281359999998
 21
150.8299869999999
 31
0.0
  0
LINE
  5
73F
330
65F
100
AcDbEntity
  8
1
  6
Continuous
100
AcDbLine
 10
599.4281179999997
 20
182.829987
 30
0.0
 11
598.2281359999998
 21
182.829987
 31
0.0
  0
LINE
  5
740
330
65F
100
AcDbEntity
  8
1
  6
Continuous
100
AcDbLine
 10
602.1281299999999
 20
171.3056789999999
 30
0.0
 11
602.1281299999999
 21
162.3542629999998
 31
0.0
  0
LINE
  5
741
330
65F
100
AcDbEntity
  8
1
  6
Continuous
100
AcDbLine
 10
599.4281179999997
 20
182.8299709999998
 30
0.0
 11
599.4281179999997
 21
150.829971
 31
0.0
  0
LINE
  5
742
330
65F
100
AcDbEntity
  8
1
  6
Continuous
100
AcDbLine
 10
598.2281359999998
 20
182.8299709999998
 30
0.0
 11
598.2281359999998
 21
150.829971
 31
0.0
  0
LINE
  5
743
330
65F
100
AcDbEntity
  8
4
  6
CENTER
100
AcDbLine
 10
611.4281179999998
 20
166.829987
 30
0.0
 11
593.2281360000001
 21
166.829987
 31
0.0
  0
LINE
  5
744
330
65F
100
AcDbEntity
  8
4
  6
CENTER
100
AcDbLine
 10
614.2281360000001
 20
274.8288269999998
 30
0.0
 11
596.0281240000001
 21
274.8288269999998
 31
0.0
  0
LINE
  5
745
330
65F
100
AcDbEntity
  8
1
  6
Continuous
100
AcDbLine
 10
601.0281240000002
 20
277.328827
 30
0.0
 11
602.0281240000001
 21
277.328827
 31
0.0
  0
LINE
  5
746
330
65F
100
AcDbEntity
  8
1
  6
Continuous
100
AcDbLine
 10
602.0281240000001
 20
272.3288269999998
 30
0.0
 11
601.0281240000002
 21
272.3288269999998
 31
0.0
  0
LINE
  5
747
330
65F
100
AcDbEntity
  8
1
  6
Continuous
100
AcDbLine
 10
605.1281299999999
 20
384.8276979999998
 30
0.0
 11
604.1281299999999
 21
384.8276979999998
 31
0.0
  0
LINE
  5
748
330
65F
100
AcDbEntity
  8
1
  6
Continuous
100
AcDbLine
 10
605.1281299999999
 20
380.827698
 30
0.0
 11
604.1281299999999
 21
380.827698
 31
0.0
  0
LINE
  5
749
330
65F
100
AcDbEntity
  8
1
  6
Continuous
100
AcDbLine
 10
601.1281299999999
 20
279.0788269999998
 30
0.0
 11
601.1281299999999
 21
277.328827
 31
0.0
  0
LINE
  5
74A
330
65F
100
AcDbEntity
  8
1
  6
Continuous
100
AcDbLine
 10
604.6281299999999
 20
292.8288269999999
 30
0.0
 11
602.6281299999999
 21
292.8288269999999
 31
0.0
  0
LINE
  5
74B
330
65F
100
AcDbEntity
  8
1
  6
Continuous
100
AcDbLine
 10
604.6281299999999
 20
292.8288269999999
 30
0.0
 11
604.6281299999999
 21
158.829971
 31
0.0
  0
LINE
  5
74C
330
65F
100
AcDbEntity
  8
1
  6
Continuous
100
AcDbLine
 10
602.6281299999999
 20
292.8288269999999
 30
0.0
 11
602.6281299999999
 21
158.829971
 31
0.0
  0
LINE
  5
74D
330
65F
100
AcDbEntity
  8
1
  6
Continuous
100
AcDbLine
 10
602.0281240000001
 20
290.8288269999999
 30
0.0
 11
602.0281240000001
 21
258.828827
 31
0.0
  0
LINE
  5
74E
330
65F
100
AcDbEntity
  8
1
  6
Continuous
100
AcDbLine
 10
284.328143
 20
275.094421
 30
0.0
 11
288.328143
 21
275.094421
 31
0.0
  0
LINE
  5
74F
330
65F
100
AcDbEntity
  8
1
  6
Continuous
100
AcDbLine
 10
283.3281429999999
 20
60.499985
 30
0.0
 11
283.3281429999999
 21
53.49998499999998
 31
0.0
  0
LINE
  5
750
330
65F
100
AcDbEntity
  8
1
  6
Continuous
100
AcDbLine
 10
283.3281429999999
 20
60.499985
 30
0.0
 11
284.828143
 21
60.499985
 31
0.0
  0
LINE
  5
751
330
65F
100
AcDbEntity
  8
1
  6
Continuous
100
AcDbLine
 10
283.3281429999999
 20
53.49998499999998
 30
0.0
 11
284.828143
 21
53.49998499999998
 31
0.0
  0
LINE
  5
752
330
65F
100
AcDbEntity
  8
1
  6
Continuous
100
AcDbLine
 10
286.828143
 20
60.99998499999998
 30
0.0
 11
287.328143
 21
60.99998499999998
 31
0.0
  0
LINE
  5
753
330
65F
100
AcDbEntity
  8
1
  6
Continuous
100
AcDbLine
 10
286.828143
 20
52.999985
 30
0.0
 11
287.328143
 21
52.999985
 31
0.0
  0
LINE
  5
754
330
65F
100
AcDbEntity
  8
1
  6
Continuous
100
AcDbLine
 10
287.328143
 20
497.133423
 30
0.0
 11
287.328143
 21
489.5576779999998
 31
0.0
  0
LINE
  5
755
330
65F
100
AcDbEntity
  8
1
  6
Continuous
100
AcDbLine
 10
286.828143
 20
496.657715
 30
0.0
 11
287.328143
 21
496.657715
 31
0.0
  0
LINE
  5
756
330
65F
100
AcDbEntity
  8
1
  6
Continuous
100
AcDbLine
 10
284.328143
 20
489.157715
 30
0.0
 11
284.828143
 21
489.157715
 31
0.0
  0
LINE
  5
757
330
65F
100
AcDbEntity
  8
1
  6
Continuous
100
AcDbLine
 10
284.328143
 20
496.157715
 30
0.0
 11
284.828143
 21
496.157715
 31
0.0
  0
LINE
  5
758
330
65F
100
AcDbEntity
  8
1
  6
Continuous
100
AcDbLine
 10
153.743166
 20
279.0800479999999
 30
0.0
 11
154.1959789999999
 21
275.1057739999998
 31
0.0
  0
LINE
  5
759
330
65F
100
AcDbEntity
  8
1
  6
Continuous
100
AcDbLine
 10
153.743166
 20
279.0800479999999
 30
0.0
 11
153.282435
 21
279.0275569999999
 31
0.0
  0
LINE
  5
75A
330
65F
100
AcDbEntity
  8
1
  6
Continuous
100
AcDbLine
 10
154.1959789999999
 20
275.1057739999998
 30
0.0
 11
153.728068
 21
274.879364
 31
0.0
  0
LINE
  5
75B
330
65F
100
AcDbEntity
  8
1
  6
Continuous
100
AcDbLine
 10
284.328143
 20
279.0800479999999
 30
0.0
 11
288.328143
 21
279.0800479999999
 31
0.0
  0
LINE
  5
75C
330
65F
100
AcDbEntity
  8
1
  6
Continuous
100
AcDbLine
 10
602.0281240000001
 20
279.0788269999998
 30
0.0
 11
601.1281299999999
 21
279.0788269999998
 31
0.0
  0
LINE
  5
75D
330
65F
100
AcDbEntity
  8
1
  6
Continuous
100
AcDbLine
 10
282.328143
 20
56.099987
 30
0.0
 11
283.3281429999999
 21
56.099987
 31
0.0
  0
LINE
  5
75E
330
65F
100
AcDbEntity
  8
1
  6
Continuous
100
AcDbLine
 10
284.828143
 20
96.59998299999999
 30
0.0
 11
286.828143
 21
96.59998299999999
 31
0.0
  0
LINE
  5
75F
330
65F
100
AcDbEntity
  8
1
  6
Continuous
100
AcDbLine
 10
284.328143
 20
94.25284600000001
 30
0.0
 11
284.828143
 21
94.297485
 31
0.0
  0
LINE
  5
760
330
65F
100
AcDbEntity
  8
1
  6
Continuous
100
AcDbLine
 10
284.328143
 20
93.802841
 30
0.0
 11
284.828143
 21
93.847488
 31
0.0
  0
LINE
  5
761
330
65F
100
AcDbEntity
  8
1
  6
Continuous
100
AcDbLine
 10
286.828143
 20
94.47605900000001
 30
0.0
 11
288.328143
 21
94.609985
 31
0.0
  0
LINE
  5
762
330
65F
100
AcDbEntity
  8
1
  6
Continuous
100
AcDbLine
 10
286.828143
 20
94.026054
 30
0.0
 11
288.328143
 21
94.159988
 31
0.0
  0
LINE
  5
763
330
65F
100
AcDbEntity
  8
1
  6
Continuous
100
AcDbLine
 10
282.328143
 20
96.099983
 30
0.0
 11
282.328143
 21
49.468021
 31
0.0
  0
LINE
  5
764
330
65F
100
AcDbEntity
  8
1
  6
Continuous
100
AcDbLine
 10
282.328143
 20
96.099983
 30
0.0
 11
284.828143
 21
96.308319
 31
0.0
  0
LINE
  5
765
330
65F
100
AcDbEntity
  8
1
  6
Continuous
100
AcDbLine
 10
286.828143
 20
96.474983
 30
0.0
 11
288.328143
 21
96.59998299999999
 31
0.0
  0
LINE
  5
766
330
65F
100
AcDbEntity
  8
1
  6
Continuous
100
AcDbLine
 10
282.328143
 20
453.557678
 30
0.0
 11
288.328143
 21
453.057678
 31
0.0
  0
LINE
  5
767
330
65F
100
AcDbEntity
  8
1
  6
Continuous
100
AcDbLine
 10
284.328143
 20
455.404846
 30
0.0
 11
288.328143
 21
455.047668
 31
0.0
  0
LINE
  5
768
330
65F
100
AcDbEntity
  8
1
  6
Continuous
100
AcDbLine
 10
284.328143
 20
455.854858
 30
0.0
 11
288.328143
 21
455.4976809999998
 31
0.0
  0
LINE
  5
769
330
65F
100
AcDbEntity
  8
1
  6
Continuous
100
AcDbLine
 10
282.328143
 20
453.557678
 30
0.0
 11
282.328143
 21
500.1896359999998
 31
0.0
  0
LINE
  5
76A
330
65F
100
AcDbEntity
  8
1
  6
Continuous
100
AcDbLine
 10
122.647505
 20
383.120728
 30
0.0
 11
152.911532
 21
280.4854429999999
 31
0.0
  0
LINE
  5
76B
330
65F
100
AcDbEntity
  8
1
  6
Continuous
100
AcDbLine
 10
122.0445389999998
 20
295.0196529999999
 30
0.0
 11
107.096611
 21
379.463623
 31
0.0
  0
LINE
  5
76C
330
65F
100
AcDbEntity
  8
1
  6
Continuous
100
AcDbLine
 10
122.46398
 20
257.016846
 30
0.0
 11
106.7492529999999
 21
168.2241669999999
 31
0.0
  0
LINE
  5
76D
330
65F
100
AcDbEntity
  8
1
  6
Continuous
100
AcDbLine
 10
154.228136
 20
274.8288269999998
 30
0.0
 11
153.616152
 21
272.715393
 31
0.0
  0
LINE
  5
76E
330
65F
100
AcDbEntity
  8
1
  6
Continuous
100
AcDbLine
 10
151.668307
 20
265.988586
 30
0.0
 11
122.31116
 21
164.6048739999999
 31
0.0
  0
LINE
  5
76F
330
65F
100
AcDbEntity
  8
1
  6
Continuous
100
AcDbLine
 10
435.8087639999998
 20
383.120728
 30
0.0
 11
405.5447259999998
 21
280.4854429999999
 31
0.0
  0
LINE
  5
770
330
65F
100
AcDbEntity
  8
1
  6
Continuous
100
AcDbLine
 10
436.41173
 20
295.0196529999999
 30
0.0
 11
451.359667
 21
379.463623
 31
0.0
  0
LINE
  5
771
330
65F
100
AcDbEntity
  8
1
  6
Continuous
100
AcDbLine
 10
404.228136
 20
274.8288269999998
 30
0.0
 11
432.2910939999998
 21
177.9145199999999
 31
0.0
  0
LINE
  5
772
330
65F
100
AcDbEntity
  8
1
  6
Continuous
100
AcDbLine
 10
435.9922969999998
 20
257.016846
 30
0.0
 11
449.292193
 21
181.86853
 31
0.0
  0
LINE
  5
773
330
65F
100
AcDbEntity
  8
1
  6
Continuous
100
AcDbLine
 10
599.4281179999997
 20
174.329971
 30
0.0
 11
601.7434259999999
 21
172.1861879999999
 31
0.0
  0
LINE
  5
774
330
65F
100
AcDbEntity
  8
1
  6
Continuous
100
AcDbLine
 10
601.7434259999999
 20
161.473755
 30
0.0
 11
599.4281179999997
 21
159.329971
 31
0.0
  0
LINE
  5
775
330
65F
100
AcDbEntity
  8
1
  6
Continuous
100
AcDbLine
 10
287.712847
 20
172.1861879999999
 30
0.0
 11
290.02814
 21
174.329971
 31
0.0
  0
LINE
  5
776
330
65F
100
AcDbEntity
  8
1
  6
Continuous
100
AcDbLine
 10
287.712847
 20
161.473755
 30
0.0
 11
290.02814
 21
159.329971
 31
0.0
  0
LINE
  5
777
330
65F
100
AcDbEntity
  8
1
  6
Continuous
100
AcDbLine
 10
290.02814
 20
500.1577150000001
 30
0.0
 11
287.712847
 21
498.013916
 31
0.0
  0
LINE
  5
778
330
65F
100
AcDbEntity
  8
1
  6
Continuous
100
AcDbLine
 10
290.02814
 20
485.157715
 30
0.0
 11
287.712847
 21
487.3014529999998
 31
0.0
  0
LINE
  5
779
330
65F
100
AcDbEntity
  8
1
  6
Continuous
100
AcDbLine
 10
287.712847
 20
62.356201
 30
0.0
 11
290.02814
 21
64.49998499999999
 31
0.0
  0
LINE
  5
77A
330
65F
100
AcDbEntity
  8
1
  6
Continuous
100
AcDbLine
 10
287.636187
 20
51.657711
 30
0.0
 11
290.02814
 21
48.99998499999998
 31
0.0
  0
LINE
  5
77B
330
65F
100
AcDbEntity
  8
1
  6
Continuous
100
AcDbLine
 10
609.2281360000002
 20
390.427704
 30
0.0
 11
609.2281360000002
 21
376.327698
 31
0.0
  0
LINE
  5
77C
330
65F
100
AcDbEntity
  8
1
  6
Continuous
100
AcDbLine
 10
622.2281360000001
 20
390.427704
 30
0.0
 11
622.2281360000001
 21
388.827698
 31
0.0
  0
LINE
  5
77D
330
65F
100
AcDbEntity
  8
1
  6
Continuous
100
AcDbLine
 10
622.2281360000001
 20
388.827698
 30
0.0
 11
609.2281360000002
 21
388.827698
 31
0.0
  0
LINE
  5
77E
330
65F
100
AcDbEntity
  8
4
  6
CENTER
100
AcDbLine
 10
287.801867
 20
382.827698
 30
0.0
 11
276.739916
 21
382.827698
 31
0.0
  0
LINE
  5
77F
330
65F
100
AcDbEntity
  8
1
  6
Continuous
100
AcDbLine
 10
607.6281299999999
 20
376.327698
 30
0.0
 11
609.2281360000002
 21
376.327698
 31
0.0
  0
LINE
  5
780
330
65F
100
AcDbEntity
  8
1
  6
Continuous
100
AcDbLine
 10
450.329424
 20
384.9660029999999
 30
0.0
 11
450.329424
 21
390.427704
 31
0.0
  0
LINE
  5
781
330
65F
100
AcDbEntity
  8
1
  6
Continuous
100
AcDbLine
 10
281.828143
 20
376.327698
 30
0.0
 11
280.228136
 21
376.327698
 31
0.0
  0
LINE
  5
782
330
65F
100
AcDbEntity
  8
1
  6
Continuous
100
AcDbLine
 10
280.228136
 20
390.427704
 30
0.0
 11
280.228136
 21
376.327698
 31
0.0
  0
LINE
  5
783
330
65F
100
AcDbEntity
  8
1
  6
Continuous
100
AcDbLine
 10
281.828143
 20
388.827698
 30
0.0
 11
281.828143
 21
376.327698
 31
0.0
  0
LINE
  5
784
330
65F
100
AcDbEntity
  8
1
  6
Continuous
100
AcDbLine
 10
267.2281359999999
 20
388.827698
 30
0.0
 11
280.228136
 21
388.827698
 31
0.0
  0
LINE
  5
785
330
65F
100
AcDbEntity
  8
1
  6
Continuous
100
AcDbLine
 10
267.2281359999999
 20
390.427704
 30
0.0
 11
280.228136
 21
390.427704
 31
0.0
  0
LINE
  5
786
330
65F
100
AcDbEntity
  8
1
  6
Continuous
100
AcDbLine
 10
267.2281359999999
 20
390.427704
 30
0.0
 11
267.2281359999999
 21
388.827698
 31
0.0
  0
LINE
  5
787
330
65F
100
AcDbEntity
  8
1
  6
Continuous
100
AcDbLine
 10
280.228136
 20
386.327698
 30
0.0
 11
278.728136
 21
386.327698
 31
0.0
  0
LINE
  5
788
330
65F
100
AcDbEntity
  8
1
  6
Continuous
100
AcDbLine
 10
278.728136
 20
386.327698
 30
0.0
 11
278.728136
 21
379.3276979999998
 31
0.0
  0
LINE
  5
789
330
65F
100
AcDbEntity
  8
1
  6
Continuous
100
AcDbLine
 10
280.228136
 20
379.3276979999998
 30
0.0
 11
278.728136
 21
379.3276979999998
 31
0.0
  0
LINE
  5
78A
330
65F
100
AcDbEntity
  8
4
  6
CENTER
100
AcDbLine
 10
273.728136
 20
393.6276859999999
 30
0.0
 11
273.728136
 21
385.6276859999999
 31
0.0
  0
LINE
  5
78B
330
65F
100
AcDbEntity
  8
4
  6
CENTER
100
AcDbLine
 10
615.7281359999998
 20
394.794281
 30
0.0
 11
615.7281359999998
 21
385.008057
 31
0.0
  0
LINE
  5
78C
330
65F
100
AcDbEntity
  8
1
  6
Continuous
100
AcDbLine
 10
267.2281359999999
 20
508.507019
 30
0.0
 11
267.2281359999999
 21
476.80835
 31
0.0
  0
LINE
  5
78D
330
65F
100
AcDbEntity
  8
1
  6
Continuous
100
AcDbLine
 10
280.228136
 20
508.507019
 30
0.0
 11
280.228136
 21
499.157715
 31
0.0
  0
LINE
  5
78E
330
65F
100
AcDbEntity
  8
4
  6
CENTER
100
AcDbLine
 10
267.728136
 20
505.157715
 30
0.0
 11
279.7281359999999
 21
505.157715
 31
0.0
  0
LINE
  5
78F
330
65F
100
AcDbEntity
  8
4
  6
CENTER
100
AcDbLine
 10
273.728136
 20
515.907715
 30
0.0
 11
273.728136
 21
469.407715
 31
0.0
  0
LINE
  5
790
330
65F
100
AcDbEntity
  8
4
  6
CENTER
100
AcDbLine
 10
267.728136
 20
480.157715
 30
0.0
 11
279.7281359999999
 21
480.157715
 31
0.0
  0
LINE
  5
791
330
65F
100
AcDbEntity
  8
1
  6
Continuous
100
AcDbLine
 10
280.228136
 20
50.499985
 30
0.0
 11
281.828143
 21
50.499985
 31
0.0
  0
LINE
  5
792
330
65F
100
AcDbEntity
  8
1
  6
Continuous
100
AcDbLine
 10
280.228136
 20
499.157715
 30
0.0
 11
281.828143
 21
499.157715
 31
0.0
  0
LINE
  5
793
330
65F
100
AcDbEntity
  8
1
  6
Continuous
100
AcDbLine
 10
280.228136
 20
486.157715
 30
0.0
 11
281.828143
 21
486.157715
 31
0.0
  0
LINE
  5
794
330
65F
100
AcDbEntity
  8
1
  6
Continuous
100
AcDbLine
 10
280.228136
 20
486.157715
 30
0.0
 11
280.228136
 21
476.80835
 31
0.0
  0
LINE
  5
795
330
65F
100
AcDbEntity
  8
1
  6
Continuous
100
AcDbLine
 10
284.328143
 20
484.557678
 30
0.0
 11
284.828143
 21
484.557678
 31
0.0
  0
LINE
  5
796
330
65F
100
AcDbEntity
  8
1
  6
Continuous
100
AcDbLine
 10
284.328143
 20
462.557678
 30
0.0
 11
284.828143
 21
462.557678
 31
0.0
  0
LINE
  5
797
330
65F
100
AcDbEntity
  8
1
  6
Continuous
100
AcDbLine
 10
281.828143
 20
487.057678
 30
0.0
 11
282.328143
 21
487.057678
 31
0.0
  0
LINE
  5
798
330
65F
100
AcDbEntity
  8
1
  6
Continuous
100
AcDbLine
 10
281.7281359999999
 20
460.0576779999998
 30
0.0
 11
282.328143
 21
460.0576779999998
 31
0.0
  0
LINE
  5
799
330
65F
100
AcDbEntity
  8
1
  6
Continuous
100
AcDbLine
 10
281.7281359999999
 20
89.59998299999998
 30
0.0
 11
282.328143
 21
89.59998299999998
 31
0.0
  0
LINE
  5
79A
330
65F
100
AcDbEntity
  8
1
  6
Continuous
100
AcDbLine
 10
281.828143
 20
62.599987
 30
0.0
 11
282.328143
 21
62.599987
 31
0.0
  0
LINE
  5
79B
330
65F
100
AcDbEntity
  8
1
  6
Continuous
100
AcDbLine
 10
284.328143
 20
87.09998299999998
 30
0.0
 11
284.828143
 21
87.09998299999998
 31
0.0
  0
LINE
  5
79C
330
65F
100
AcDbEntity
  8
1
  6
Continuous
100
AcDbLine
 10
284.328143
 20
65.09998299999999
 30
0.0
 11
284.828143
 21
65.09998299999999
 31
0.0
  0
LINE
  5
79D
330
65F
100
AcDbEntity
  8
4
  6
CENTER
100
AcDbLine
 10
596.7281359999998
 20
155.5716549999999
 30
0.0
 11
600.9281179999998
 21
155.5716549999999
 31
0.0
  0
LINE
  5
79E
330
65F
100
AcDbEntity
  8
4
  6
CENTER
100
AcDbLine
 10
596.7281359999998
 20
178.088303
 30
0.0
 11
600.9281179999998
 21
178.088303
 31
0.0
  0
LINE
  5
79F
330
65F
100
AcDbEntity
  8
4
  6
CENTER
100
AcDbLine
 10
292.728136
 20
178.088303
 30
0.0
 11
288.52814
 21
178.088303
 31
0.0
  0
LINE
  5
7A0
330
65F
100
AcDbEntity
  8
4
  6
CENTER
100
AcDbLine
 10
292.728136
 20
155.5716549999999
 30
0.0
 11
288.52814
 21
155.5716549999999
 31
0.0
  0
LINE
  5
7A1
330
65F
100
AcDbEntity
  8
4
  6
CENTER
100
AcDbLine
 10
292.728136
 20
69.999985
 30
0.0
 11
288.52814
 21
69.999985
 31
0.0
  0
LINE
  5
7A2
330
65F
100
AcDbEntity
  8
4
  6
CENTER
100
AcDbLine
 10
292.728136
 20
50.499985
 30
0.0
 11
288.52814
 21
50.499985
 31
0.0
  0
LINE
  5
7A3
330
65F
100
AcDbEntity
  8
4
  6
CENTER
100
AcDbLine
 10
292.728136
 20
479.657715
 30
0.0
 11
288.52814
 21
479.657715
 31
0.0
  0
LINE
  5
7A4
330
65F
100
AcDbEntity
  8
4
  6
CENTER
100
AcDbLine
 10
292.728136
 20
499.157715
 30
0.0
 11
288.52814
 21
499.157715
 31
0.0
  0
ARC
  5
7A5
330
65F
100
AcDbEntity
  8
1
  6
Continuous
100
AcDbCircle
 10
133.728133
 20
274.8288269999998
 30
0.0
 40
13.5
100
AcDbArc
 50
305.430972
 51
54.56911700000001
  0
ARC
  5
7A6
330
65F
100
AcDbEntity
  8
1
  6
Continuous
100
AcDbCircle
 10
133.728133
 20
274.8288269999998
 30
0.0
 40
13.5
100
AcDbArc
 50
125.430933
 51
234.569077
  0
CIRCLE
  5
7A7
330
65F
100
AcDbEntity
  8
1
  6
Continuous
100
AcDbCircle
 10
133.728133
 20
274.8288269999998
 30
0.0
 40
4.0
  0
ARC
  5
7A8
330
65F
100
AcDbEntity
  8
1
  6
Continuous
100
AcDbCircle
 10
114.9741439999999
 20
380.858063
 30
0.0
 40
8.0
100
AcDbArc
 50
16.379364
 51
39.728127
  0
ARC
  5
7A9
330
65F
100
AcDbEntity
  8
1
  6
Continuous
100
AcDbCircle
 10
114.626831
 20
166.829971
 30
0.0
 40
8.0
100
AcDbArc
 50
170.000034
 51
344.738663
  0
CIRCLE
  5
7AA
330
65F
100
AcDbEntity
  8
1
  6
Continuous
100
AcDbCircle
 10
114.626847
 20
166.829971
 30
0.0
 40
3.5
  0
CIRCLE
  5
7AB
330
65F
100
AcDbEntity
  8
1
  6
Continuous
100
AcDbCircle
 10
114.626831
 20
382.827698
 30
0.0
 40
3.5
  0
CIRCLE
  5
7AC
330
65F
100
AcDbEntity
  8
4
  6
CENTER
100
AcDbCircle
 10
114.626847
 20
166.829971
 30
0.0
 40
13.0
  0
ARC
  5
7AD
330
65F
100
AcDbEntity
  8
1
  6
Continuous
100
AcDbCircle
 10
114.626847
 20
166.829971
 30
0.0
 40
16.0
100
AcDbArc
 50
109.963655
 51
43.85091699999999
  0
CIRCLE
  5
7AE
330
65F
100
AcDbEntity
  8
1
  6
Continuous
100
AcDbCircle
 10
127.6268449999998
 20
166.829971
 30
0.0
 40
2.799999999999998
  0
CIRCLE
  5
7AF
330
65F
100
AcDbEntity
  8
1
  6
Continuous
100
AcDbCircle
 10
108.1268469999999
 20
155.57164
 30
0.0
 40
2.799999999999998
  0
ARC
  5
7B0
330
65F
100
AcDbEntity
  8
1
  6
Continuous
100
AcDbCircle
 10
114.626831
 20
382.827698
 30
0.0
 40
6.5
100
AcDbArc
 50
180.000005
 51
0.00001
  0
ARC
  5
7B1
330
65F
100
AcDbEntity
  8
1
  6
Continuous
100
AcDbCircle
 10
273.728136
 20
65.24998499999999
 30
0.0
 40
10.0
100
AcDbArc
 50
49.4584
 51
130.5416219999999
  0
ARC
  5
7B2
330
65F
100
AcDbEntity
  8
1
  6
Continuous
100
AcDbCircle
 10
273.728136
 20
48.749985
 30
0.0
 40
10.0
100
AcDbArc
 50
229.4583779999999
 51
310.5416
  0
CIRCLE
  5
7B3
330
65F
100
AcDbEntity
  8
1
  6
Continuous
100
AcDbCircle
 10
273.728136
 20
69.49998499999999
 30
0.0
 40
1.649999999999999
  0
CIRCLE
  5
7B4
330
65F
100
AcDbEntity
  8
1
  6
Continuous
100
AcDbCircle
 10
273.728136
 20
44.49998499999998
 30
0.0
 40
1.649999999999999
  0
CIRCLE
  5
7B5
330
65F
100
AcDbEntity
  8
1
  6
Continuous
100
AcDbCircle
 10
273.728136
 20
44.49998499999998
 30
0.0
 40
3.0
  0
CIRCLE
  5
7B6
330
65F
100
AcDbEntity
  8
1
  6
Continuous
100
AcDbCircle
 10
273.728136
 20
69.49998499999999
 30
0.0
 40
3.0
  0
ARC
  5
7B7
330
65F
100
AcDbEntity
  8
1
  6
Continuous
100
AcDbCircle
 10
108.1268429999998
 20
178.088303
 30
0.0
 40
2.799999999999998
100
AcDbArc
 50
72.523837
 51
267.4033539999999
  0
CIRCLE
  5
7B8
330
65F
100
AcDbEntity
  8
1
  6
Continuous
100
AcDbCircle
 10
443.829424
 20
166.829971
 30
0.0
 40
16.0
  0
CIRCLE
  5
7B9
330
65F
100
AcDbEntity
  8
4
  6
CENTER
100
AcDbCircle
 10
443.829424
 20
166.829971
 30
0.0
 40
13.0
  0
CIRCLE
  5
7BA
330
65F
100
AcDbEntity
  8
1
  6
Continuous
100
AcDbCircle
 10
443.829424
 20
166.829971
 30
0.0
 40
3.5
  0
ARC
  5
7BB
330
65F
100
AcDbEntity
  8
1
  6
Continuous
100
AcDbCircle
 10
443.482134
 20
380.8290709999998
 30
0.0
 40
8.0
100
AcDbArc
 50
349.9663799999999
 51
163.6206379999999
  0
CIRCLE
  5
7BC
330
65F
100
AcDbEntity
  8
1
  6
Continuous
100
AcDbCircle
 10
443.829424
 20
382.827698
 30
0.0
 40
1.0
  0
CIRCLE
  5
7BD
330
65F
100
AcDbEntity
  8
1
  6
Continuous
100
AcDbCircle
 10
424.728136
 20
274.8288269999998
 30
0.0
 40
16.0
  0
ARC
  5
7BE
330
65F
100
AcDbEntity
  8
1
  6
Continuous
100
AcDbCircle
 10
424.728136
 20
274.8288269999998
 30
0.0
 40
18.0
100
AcDbArc
 50
315.6853429999998
 51
180.000005
  0
CIRCLE
  5
7BF
330
65F
100
AcDbEntity
  8
1
  6
Continuous
100
AcDbCircle
 10
424.728136
 20
274.8288269999998
 30
0.0
 40
2.5
  0
CIRCLE
  5
7C0
330
65F
100
AcDbEntity
  8
1
  6
Continuous
100
AcDbCircle
 10
434.228136
 20
274.8288269999998
 30
0.0
 40
1.0
  0
CIRCLE
  5
7C1
330
65F
100
AcDbEntity
  8
1
  6
Continuous
100
AcDbCircle
 10
415.2281359999998
 20
274.8288269999998
 30
0.0
 40
1.0
  0
ARC
  5
7C2
330
65F
100
AcDbEntity
  8
1
  6
Continuous
100
AcDbCircle
 10
441.900469
 20
258.062469
 30
0.0
 40
6.0
100
AcDbArc
 50
135.6853419999999
 51
190.000017
  0
ARC
  5
7C3
330
65F
100
AcDbEntity
  8
1
  6
Continuous
100
AcDbCircle
 10
116.555796
 20
258.062469
 30
0.0
 40
6.0
100
AcDbArc
 50
349.999992
 51
1.715841999999999
  0
CIRCLE
  5
7C4
330
65F
100
AcDbEntity
  8
1
  6
Continuous
100
AcDbCircle
 10
443.829424
 20
166.829971
 30
0.0
 40
8.0
  0
CIRCLE
  5
7C5
330
65F
100
AcDbEntity
  8
1
  6
Continuous
100
AcDbCircle
 10
443.829424
 20
166.829971
 30
0.0
 40
2.0
  0
CIRCLE
  5
7C6
330
65F
100
AcDbEntity
  8
1
  6
Continuous
100
AcDbCircle
 10
443.829424
 20
166.829971
 30
0.0
 40
1.0
  0
CIRCLE
  5
7C7
330
65F
100
AcDbEntity
  8
1
  6
Continuous
100
AcDbCircle
 10
443.829424
 20
382.827698
 30
0.0
 40
2.0
  0
ARC
  5
7C8
330
65F
100
AcDbEntity
  8
1
  6
Continuous
100
AcDbCircle
 10
284.328143
 20
281.0799559999999
 30
0.0
 40
2.0
100
AcDbArc
 50
180.000005
 51
270.000001
  0
ARC
  5
7C9
330
65F
100
AcDbEntity
  8
1
  6
Continuous
100
AcDbCircle
 10
284.328143
 20
273.094421
 30
0.0
 40
2.0
100
AcDbArc
 50
90.00000300000001
 51
180.000005
  0
ARC
  5
7CA
330
65F
100
AcDbEntity
  8
1
  6
Continuous
100
AcDbCircle
 10
283.9686149999998
 20
273.2697449999998
 30
0.0
 40
1.6
100
AcDbArc
 50
77.014679
 51
154.0014769999999
  0
ARC
  5
7CB
330
65F
100
AcDbEntity
  8
1
  6
Continuous
100
AcDbCircle
 10
424.728136
 20
274.8288269999998
 30
0.0
 40
20.0
100
AcDbArc
 50
303.969493
 51
47.42103999999999
  0
ARC
  5
7CC
330
65F
100
AcDbEntity
  8
1
  6
Continuous
100
AcDbCircle
 10
442.319872
 20
293.973816
 30
0.0
 40
6.0
100
AcDbArc
 50
170.000007
 51
227.4210389999999
  0
ARC
  5
7CD
330
65F
100
AcDbEntity
  8
1
  6
Continuous
100
AcDbCircle
 10
424.728136
 20
274.8288269999998
 30
0.0
 40
20.0
100
AcDbArc
 50
163.570805
 51
167.8814189999999
  0
ARC
  5
7CE
330
65F
100
AcDbEntity
  8
1
  6
Continuous
100
AcDbCircle
 10
424.728136
 20
274.8288269999998
 30
0.0
 40
20.0
100
AcDbArc
 50
186.0659129999999
 51
206.232375
  0
ARC
  5
7CF
330
65F
100
AcDbEntity
  8
1
  6
Continuous
100
AcDbCircle
 10
116.136389
 20
293.973816
 30
0.0
 40
6.0
100
AcDbArc
 50
312.578956
 51
9.999993999999999
  0
ARC
  5
7D0
330
65F
100
AcDbEntity
  8
1
  6
Continuous
100
AcDbCircle
 10
133.728133
 20
274.8288269999998
 30
0.0
 40
20.0
100
AcDbArc
 50
132.578958
 51
0.144701
  0
ARC
  5
7D1
330
65F
100
AcDbEntity
  8
1
  6
Continuous
100
AcDbCircle
 10
153.745661
 20
276.979279
 30
0.0
 40
2.1
100
AcDbArc
 50
102.743148
 51
269.5201389999999
  0
ARC
  5
7D2
330
65F
100
AcDbEntity
  8
1
  6
Continuous
100
AcDbCircle
 10
133.728133
 20
274.8288269999998
 30
0.0
 40
20.0
100
AcDbArc
 50
12.118586
 51
16.379364
  0
ARC
  5
7D3
330
65F
100
AcDbEntity
  8
1
  6
Continuous
100
AcDbCircle
 10
424.728136
 20
274.8288269999998
 30
0.0
 40
20.0
100
AcDbArc
 50
179.3597839999999
 51
180.000005
  0
ARC
  5
7D4
330
65F
100
AcDbEntity
  8
1
  6
Continuous
100
AcDbCircle
 10
114.9741439999999
 20
380.858063
 30
0.0
 40
8.0
100
AcDbArc
 50
148.860872
 51
190.0382789999999
  0
ARC
  5
7D5
330
65F
100
AcDbEntity
  8
1
  6
Continuous
100
AcDbCircle
 10
600.9281179999998
 20
171.3056789999999
 30
0.0
 40
1.199999999999999
100
AcDbArc
 50
0.0
 51
47.20259399999998
  0
ARC
  5
7D6
330
65F
100
AcDbEntity
  8
1
  6
Continuous
100
AcDbCircle
 10
600.9281179999998
 20
162.3542629999998
 30
0.0
 40
1.199999999999999
100
AcDbArc
 50
312.797389
 51
0.0
  0
ARC
  5
7D7
330
65F
100
AcDbEntity
  8
1
  6
Continuous
100
AcDbCircle
 10
288.52814
 20
171.3056789999999
 30
0.0
 40
1.199999999999999
100
AcDbArc
 50
132.797401
 51
180.000005
  0
ARC
  5
7D8
330
65F
100
AcDbEntity
  8
1
  6
Continuous
100
AcDbCircle
 10
288.52814
 20
162.3542629999998
 30
0.0
 40
1.199999999999999
100
AcDbArc
 50
180.000005
 51
227.2026089999999
  0
ARC
  5
7D9
330
65F
100
AcDbEntity
  8
1
  6
Continuous
100
AcDbCircle
 10
288.52814
 20
497.133423
 30
0.0
 40
1.199999999999999
100
AcDbArc
 50
132.797401
 51
180.000005
  0
ARC
  5
7DA
330
65F
100
AcDbEntity
  8
1
  6
Continuous
100
AcDbCircle
 10
288.52814
 20
488.182007
 30
0.0
 40
1.199999999999999
100
AcDbArc
 50
203.5562789999999
 51
227.2025989999999
  0
ARC
  5
7DB
330
65F
100
AcDbEntity
  8
1
  6
Continuous
100
AcDbCircle
 10
288.52814
 20
61.475685
 30
0.0
 40
1.199999999999999
100
AcDbArc
 50
132.797401
 51
180.000005
  0
ARC
  5
7DC
330
65F
100
AcDbEntity
  8
1
  6
Continuous
100
AcDbCircle
 10
288.52814
 20
52.46046800000002
 30
0.0
 40
1.199999999999999
100
AcDbArc
 50
180.000005
 51
221.987213
  0
ARC
  5
7DD
330
65F
100
AcDbEntity
  8
1
  6
Continuous
100
AcDbCircle
 10
609.2281360000002
 20
388.827698
 30
0.0
 40
1.6
100
AcDbArc
 50
90.00000300000001
 51
180.000005
  0
ARC
  5
7DE
330
65F
100
AcDbEntity
  8
1
  6
Continuous
100
AcDbCircle
 10
280.228136
 20
388.827698
 30
0.0
 40
1.6
100
AcDbArc
 50
0.0
 51
90.00000300000001
  0
ARC
  5
7DF
330
65F
100
AcDbEntity
  8
1
  6
Continuous
100
AcDbCircle
 10
273.728136
 20
500.907715
 30
0.0
 40
10.0
100
AcDbArc
 50
49.4584
 51
130.5416219999999
  0
ARC
  5
7E0
330
65F
100
AcDbEntity
  8
1
  6
Continuous
100
AcDbCircle
 10
273.728136
 20
484.407715
 30
0.0
 40
10.0
100
AcDbArc
 50
229.4583779999999
 51
310.5416
  0
CIRCLE
  5
7E1
330
65F
100
AcDbEntity
  8
1
  6
Continuous
100
AcDbCircle
 10
273.728136
 20
480.157715
 30
0.0
 40
1.649999999999999
  0
CIRCLE
  5
7E2
330
65F
100
AcDbEntity
  8
1
  6
Continuous
100
AcDbCircle
 10
273.728136
 20
505.157715
 30
0.0
 40
1.649999999999999
  0
TEXT
  5
7E3
330
65F
100
AcDbEntity
  8
6
  6
Continuous
100
AcDbText
 10
27.97945
 20
10.0487
 30
0.0
 40
1.399999999999999
  1
6
 41
1.069393
100
AcDbText
  0
TEXT
  5
7E4
330
65F
100
AcDbEntity
  8
1
  6
Continuous
100
AcDbText
 10
17.97945
 20
10.0487
 30
0.0
 40
1.399999999999999
  1
1
 41
1.069393
100
AcDbText
  0
TEXT
  5
7E5
330
65F
100
AcDbEntity
  8
1
  6
Continuous
100
AcDbText
 10
9.99995
 20
10.0
 30
0.0
 40
1.399999999999999
  1
LAYER
 41
1.009912999999997
100
AcDbText
  0
TEXT
  5
7E6
330
65F
100
AcDbEntity
  8
2
  6
Continuous
100
AcDbText
 10
19.97944999999998
 20
10.0487
 30
0.0
 40
1.399999999999999
  1
2
 41
1.069393
100
AcDbText
  0
TEXT
  5
7E7
330
65F
100
AcDbEntity
  8
3
  6
DASHED
100
AcDbText
 10
21.97945
 20
10.0487
 30
0.0
 40
1.399999999999999
  1
3
 41
1.069393
100
AcDbText
  0
TEXT
  5
7E8
330
65F
100
AcDbEntity
  8
4
  6
CENTER
100
AcDbText
 10
23.97944999999999
 20
10.0487
 30
0.0
 40
1.399999999999999
  1
4
 41
1.069393
100
AcDbText
  0
TEXT
  5
7E9
330
65F
100
AcDbEntity
  8
5
  6
PHANTOM
100
AcDbText
 10
25.97945
 20
10.0487
 30
0.0
 40
1.399999999999999
  1
5
 41
1.069393
100
AcDbText
  0
TEXT
  5
7EA
330
65F
100
AcDbEntity
  8
7
  6
Continuous
100
AcDbText
 10
10.00005
 20
26.0
 30
0.0
 40
3.0
  1
CODE No.5052
 41
1.003962999999999
100
AcDbText
  0
TEXT
  5
7EB
330
65F
100
AcDbEntity
  8
7
  6
Continuous
100
AcDbText
 10
10.00005
 20
18.0
 30
0.0
 40
3.0
  1
TYPE No.TM-60-R
 41
1.003152
100
AcDbText
  0
TEXT
  5
7EC
330
65F
100
AcDbEntity
  8
7
  6
Continuous
100
AcDbText
 10
29.97944999999999
 20
10.0487
 30
0.0
 40
1.399999999999999
  1
7
 41
1.069393
100
AcDbText
  0
LINE
  5
7ED
330
65F
100
AcDbEntity
  8
5
  6
PHANTOM
100
AcDbLine
 10
63.27426899999998
 20
184.276055
 30
0.0
 11
57.274269
 21
184.276055
 31
0.0
  0
LINE
  5
7EE
330
65F
100
AcDbEntity
  8
5
  6
PHANTOM
100
AcDbLine
 10
63.27426899999998
 20
197.276055
 30
0.0
 11
57.274269
 21
197.276055
 31
0.0
  0
LINE
  5
7EF
330
65F
100
AcDbEntity
  8
4
  6
CENTER
100
AcDbLine
 10
59.674263
 20
178.276055
 30
0.0
 11
53.27426899999998
 21
178.276055
 31
0.0
  0
LINE
  5
7F0
330
65F
100
AcDbEntity
  8
4
  6
CENTER
100
AcDbLine
 10
59.674263
 20
203.276055
 30
0.0
 11
53.27426899999998
 21
203.276055
 31
0.0
  0
LINE
  5
7F1
330
65F
100
AcDbEntity
  8
5
  6
PHANTOM
100
AcDbLine
 10
57.274269
 20
172.526055
 30
0.0
 11
55.67426300000001
 21
172.526055
 31
0.0
  0
LINE
  5
7F2
330
65F
100
AcDbEntity
  8
5
  6
PHANTOM
100
AcDbLine
 10
57.274269
 20
209.0260549999999
 30
0.0
 11
55.67426300000001
 21
209.0260549999999
 31
0.0
  0
LINE
  5
7F3
330
65F
100
AcDbEntity
  8
5
  6
PHANTOM
100
AcDbLine
 10
57.274269
 20
172.526055
 30
0.0
 11
57.274269
 21
209.0260549999999
 31
0.0
  0
LINE
  5
7F4
330
65F
100
AcDbEntity
  8
5
  6
PHANTOM
100
AcDbLine
 10
55.67426300000001
 20
172.526055
 30
0.0
 11
55.67426300000001
 21
209.0260549999999
 31
0.0
  0
LINE
  5
7F5
330
65F
100
AcDbEntity
  8
5
  6
PHANTOM
100
AcDbLine
 10
58.255363
 20
197.276055
 30
0.0
 11
117.064055
 21
285.888169
 31
0.0
  0
LINE
  5
7F6
330
65F
100
AcDbEntity
  8
5
  6
PHANTOM
100
AcDbLine
 10
125.771132
 20
252.9002619999999
 30
0.0
 11
70.691647
 21
187.1699399999999
 31
0.0
  0
CIRCLE
  5
7F7
330
65F
100
AcDbEntity
  8
5
  6
PHANTOM
100
AcDbCircle
 10
63.27426899999998
 20
190.776055
 30
0.0
 40
3.5
  0
ARC
  5
7F8
330
65F
100
AcDbEntity
  8
5
  6
PHANTOM
100
AcDbCircle
 10
63.27426899999998
 20
190.776055
 30
0.0
 40
6.5
100
AcDbArc
 50
269.999978
 51
90.00001000000002
  0
ARC
  5
7F9
330
65F
100
AcDbEntity
  8
5
  6
PHANTOM
100
AcDbCircle
 10
493.874213
 20
192.326803
 30
0.0
 40
8.0
100
AcDbArc
 50
219.966387
 51
33.62064399999999
  0
CIRCLE
  5
7FA
330
65F
100
AcDbEntity
  8
5
  6
PHANTOM
100
AcDbCircle
 10
495.1820019999998
 20
190.776053
 30
0.0
 40
1.0
  0
CIRCLE
  5
7FB
330
65F
100
AcDbEntity
  8
5
  6
PHANTOM
100
AcDbCircle
 10
495.1820019999998
 20
190.776053
 30
0.0
 40
2.0
  0
ARC
  5
7FC
330
65F
100
AcDbEntity
  8
5
  6
PHANTOM
100
AcDbCircle
 10
64.55986300000001
 20
192.308152
 30
0.0
 40
8.0
100
AcDbArc
 50
266.4201229999998
 51
320.063516
  0
CIRCLE
  5
7FD
330
65F
100
AcDbEntity
  8
1
  6
Continuous
100
AcDbCircle
 10
430.829424
 20
166.829971
 30
0.0
 40
1.9
  0
CIRCLE
  5
7FE
330
65F
100
AcDbEntity
  8
1
  6
Continuous
100
AcDbCircle
 10
450.3294309999998
 20
155.571645
 30
0.0
 40
1.9
  0
CIRCLE
  5
7FF
330
65F
100
AcDbEntity
  8
1
  6
Continuous
100
AcDbCircle
 10
450.329425
 20
178.088301
 30
0.0
 40
1.9
  0
CIRCLE
  5
800
330
65F
100
AcDbEntity
  8
1
  6
Continuous
100
AcDbCircle
 10
127.6268469999999
 20
166.829971
 30
0.0
 40
1.9
  0
CIRCLE
  5
801
330
65F
100
AcDbEntity
  8
1
  6
Continuous
100
AcDbCircle
 10
108.1268399999999
 20
155.571645
 30
0.0
 40
1.9
  0
LINE
  5
802
330
65F
100
AcDbEntity
  8
4
  6
CENTER
100
AcDbLine
 10
63.27426899999998
 20
179.3715589999999
 30
0.0
 11
63.27426899999998
 21
201.4715649999998
 31
0.0
  0
LINE
  5
803
330
65F
100
AcDbEntity
  8
4
  6
CENTER
100
AcDbLine
 10
76.27426899999997
 20
190.776055
 30
0.0
 11
50.274269
 21
190.776055
 31
0.0
  0
LINE
  5
804
330
65F
100
AcDbEntity
  8
5
  6
PHANTOM
100
AcDbLine
 10
432.6851379999998
 20
252.9002619999999
 30
0.0
 11
487.7646229999998
 21
187.1699399999999
 31
0.0
  0
LINE
  5
805
330
65F
100
AcDbEntity
  8
5
  6
PHANTOM
100
AcDbLine
 10
500.5620549999998
 20
196.731882
 30
0.0
 11
441.392215
 21
285.888169
 31
0.0
  0
LINE
  5
806
330
65F
100
AcDbEntity
  8
5
  6
PHANTOM
100
AcDbLine
 10
502.782008
 20
172.5260529999999
 30
0.0
 11
502.782008
 21
209.026053
 31
0.0
  0
LINE
  5
807
330
65F
100
AcDbEntity
  8
4
  6
CENTER
100
AcDbLine
 10
484.1104999999997
 20
190.776053
 30
0.0
 11
506.210499
 21
190.776053
 31
0.0
  0
LINE
  5
808
330
65F
100
AcDbEntity
  8
5
  6
PHANTOM
100
AcDbLine
 10
495.1820019999998
 20
184.2760529999999
 30
0.0
 11
502.782008
 21
184.2760529999999
 31
0.0
  0
LINE
  5
809
330
65F
100
AcDbEntity
  8
4
  6
CENTER
100
AcDbLine
 10
498.782008
 20
203.276053
 30
0.0
 11
505.182002
 21
203.276053
 31
0.0
  0
LINE
  5
80A
330
65F
100
AcDbEntity
  8
5
  6
PHANTOM
100
AcDbLine
 10
501.182002
 20
209.026053
 30
0.0
 11
502.782008
 21
209.026053
 31
0.0
  0
LINE
  5
80B
330
65F
100
AcDbEntity
  8
5
  6
PHANTOM
100
AcDbLine
 10
501.182002
 20
197.276053
 30
0.0
 11
501.182002
 21
209.026053
 31
0.0
  0
LINE
  5
80C
330
65F
100
AcDbEntity
  8
4
  6
CENTER
100
AcDbLine
 10
495.1820019999998
 20
177.7760529999999
 30
0.0
 11
495.1820019999998
 21
203.7760529999999
 31
0.0
  0
LINE
  5
80D
330
65F
100
AcDbEntity
  8
5
  6
PHANTOM
100
AcDbLine
 10
501.182002
 20
172.5260529999999
 30
0.0
 11
501.182002
 21
184.2760529999999
 31
0.0
  0
LINE
  5
80E
330
65F
100
AcDbEntity
  8
4
  6
CENTER
100
AcDbLine
 10
498.782008
 20
178.276053
 30
0.0
 11
505.182002
 21
178.276053
 31
0.0
  0
LINE
  5
80F
330
65F
100
AcDbEntity
  8
5
  6
PHANTOM
100
AcDbLine
 10
500.200908
 20
197.276053
 30
0.0
 11
502.782008
 21
197.276053
 31
0.0
  0
LINE
  5
810
330
65F
100
AcDbEntity
  8
5
  6
PHANTOM
100
AcDbLine
 10
501.182002
 20
172.5260529999999
 30
0.0
 11
502.782008
 21
172.5260529999999
 31
0.0
  0
ARC
  5
811
330
65F
100
AcDbEntity
  8
5
  6
PHANTOM
100
AcDbCircle
 10
495.1820019999998
 20
190.776053
 30
0.0
 40
6.5
100
AcDbArc
 50
262.109287
 51
270.0
  0
LINE
  5
812
330
65F
100
AcDbEntity
  8
1
  6
Continuous
100
AcDbLine
 10
130.4761659999998
 20
390.427704
 30
0.0
 11
130.4761659999998
 21
388.827698
 31
0.0
  0
LINE
  5
813
330
65F
100
AcDbEntity
  8
1
  6
Continuous
100
AcDbLine
 10
98.777497
 20
390.427704
 30
0.0
 11
98.777497
 21
388.827698
 31
0.0
  0
LINE
  5
814
330
65F
100
AcDbEntity
  8
1
  6
Continuous
100
AcDbLine
 10
459.6787589999998
 20
390.427704
 30
0.0
 11
459.6787589999998
 21
388.827698
 31
0.0
  0
LINE
  5
815
330
65F
100
AcDbEntity
  8
1
  6
Continuous
100
AcDbLine
 10
427.98009
 20
390.427704
 30
0.0
 11
427.98009
 21
388.827698
 31
0.0
  0
ARC
  5
816
330
65F
100
AcDbEntity
  8
1
  6
Continuous
100
AcDbCircle
 10
108.1268429999998
 20
178.088303
 30
0.0
 40
1.9
100
AcDbArc
 50
68.96311999999999
 51
270.964066
  0
ENDSEC
  0
SECTION
  2
OBJECTS
  0
DICTIONARY
  5
64D
330
0
100
AcDbDictionary
281
     1
  3
ACAD_CIP_PREVIOUS_PRODUCT_INFO
350
87C
  3
ACAD_COLOR
350
85E
  3
ACAD_DETAILVIEWSTYLE
350
877
  3
ACAD_GROUP
350
64E
  3
ACAD_LAYOUT
350
65A
  3
ACAD_MATERIAL
350
82C
  3
ACAD_MLEADERSTYLE
350
873
  3
ACAD_MLINESTYLE
350
657
  3
ACAD_PLOTSETTINGS
350
659
  3
ACAD_PLOTSTYLENAME
350
82A
  3
ACAD_SCALELIST
350
861
  3
ACAD_SECTIONVIEWSTYLE
350
875
  3
ACAD_TABLESTYLE
350
85F
  3
ACAD_VISUALSTYLE
350
845
  3
ACDB_RECOMPOSE_DATA
350
89A
  3
AcDbVariableDictionary
350
88D
  3
DWGPROPS
350
89B
  0
DICTIONARY
  5
87D
330
651
100
AcDbDictionary
280
     1
281
     1
  3
ADSK_XREC_LAYER_RECONCILED
360
87E
  0
DICTIONARY
  5
87F
330
667
100
AcDbDictionary
280
     1
281
     1
  3
ADSK_XREC_LAYER_RECONCILED
360
880
  0
DICTIONARY
  5
881
330
668
100
AcDbDictionary
280
     1
281
     1
  3
ADSK_XREC_LAYER_RECONCILED
360
882
  0
DICTIONARY
  5
883
330
669
100
AcDbDictionary
280
     1
281
     1
  3
ADSK_XREC_LAYER_RECONCILED
360
884
  0
DICTIONARY
  5
885
330
66A
100
AcDbDictionary
280
     1
281
     1
  3
ADSK_XREC_LAYER_RECONCILED
360
886
  0
DICTIONARY
  5
887
330
66B
100
AcDbDictionary
280
     1
281
     1
  3
ADSK_XREC_LAYER_RECONCILED
360
888
  0
DICTIONARY
  5
889
330
66C
100
AcDbDictionary
280
     1
281
     1
  3
ADSK_XREC_LAYER_RECONCILED
360
88A
  0
DICTIONARY
  5
88B
330
66D
100
AcDbDictionary
280
     1
281
     1
  3
ADSK_XREC_LAYER_RECONCILED
360
88C
  0
DICTIONARY
  5
825
330
65F
100
AcDbDictionary
281
     1
  3
ACAD_LAYOUTSELFREF
350
826
  0
DICTIONARY
  5
823
330
65B
100
AcDbDictionary
281
     1
  3
ACAD_LAYOUTSELFREF
350
824
  0
XRECORD
  5
87C
102
{ACAD_REACTORS
330
64D
102
}
330
64D
100
AcDbXrecord
280
     1
300
ACDLT
300
2014
300
ACDLT_F_S
  0
DICTIONARY
  5
85E
102
{ACAD_REACTORS
330
64D
102
}
330
64D
100
AcDbDictionary
281
     1
  0
DICTIONARY
  5
877
102
{ACAD_REACTORS
330
64D
102
}
330
64D
100
AcDbDictionary
281
     1
  3
Imperial24
350
878
  0
DICTIONARY
  5
64E
102
{ACAD_REACTORS
330
64D
102
}
330
64D
100
AcDbDictionary
281
     1
  0
DICTIONARY
  5
65A
102
{ACAD_REACTORS
330
64D
102
}
330
64D
100
AcDbDictionary
281
     1
  3
Model
350
879
  3
レイアウト1
350
87A
  0
DICTIONARY
  5
82C
102
{ACAD_REACTORS
330
64D
102
}
330
64D
100
AcDbDictionary
281
     1
  3
ByBlock
350
835
  3
ByLayer
350
82D
  3
Global
350
83D
  0
DICTIONARY
  5
873
102
{ACAD_REACTORS
330
64D
102
}
330
64D
100
AcDbDictionary
281
     1
  3
Standard
350
874
  0
DICTIONARY
  5
657
102
{ACAD_REACTORS
330
64D
102
}
330
64D
100
AcDbDictionary
281
     1
  3
STANDARD
350
658
  0
DICTIONARY
  5
659
102
{ACAD_REACTORS
330
64D
102
}
330
64D
100
AcDbDictionary
281
     1
  0
ACDBDICTIONARYWDFLT
  5
82A
102
{ACAD_REACTORS
330
64D
102
}
330
64D
100
AcDbDictionary
281
     1
  3
Normal
350
82B
100
AcDbDictionaryWithDefault
340
82B
  0
DICTIONARY
  5
861
102
{ACAD_REACTORS
330
64D
102
}
330
64D
100
AcDbDictionary
281
     1
  3
A0
350
862
  3
A1
350
863
  3
A2
350
864
  3
A3
350
865
  3
A4
350
866
  3
A5
350
867
  3
A6
350
868
  3
A7
350
869
  3
A8
350
86A
  3
A9
350
86B
  3
B0
350
86C
  3
B1
350
86D
  3
B2
350
86E
  3
B3
350
86F
  3
B4
350
870
  3
B5
350
871
  3
B6
350
872
  0
DICTIONARY
  5
875
102
{ACAD_REACTORS
330
64D
102
}
330
64D
100
AcDbDictionary
281
     1
  3
Imperial24
350
876
  0
DICTIONARY
  5
85F
102
{ACAD_REACTORS
330
64D
102
}
330
64D
100
AcDbDictionary
281
     1
  3
Standard
350
860
  0
DICTIONARY
  5
845
102
{ACAD_REACTORS
330
64D
102
}
330
64D
100
AcDbDictionary
281
     1
  3
2dWireframe
350
84B
  3
Basic
350
84A
  3
Brighten
350
851
  3
ColorChange
350
855
  3
Conceptual
350
84E
  3
Dim
350
850
  3
EdgeColorOff
350
85D
  3
Facepattern
350
854
  3
Flat
350
846
  3
FlatWithEdges
350
847
  3
Gouraud
350
848
  3
GouraudWithEdges
350
849
  3
Hidden
350
84D
  3
JitterOff
350
85B
  3
Linepattern
350
853
  3
OverhangOff
350
85C
  3
Realistic
350
84F
  3
Shaded
350
85A
  3
Shaded with edges
350
859
  3
Shades of Gray
350
856
  3
Sketchy
350
857
  3
Thicken
350
852
  3
Wireframe
350
84C
  3
X-Ray
350
858
  0
XRECORD
  5
89A
102
{ACAD_REACTORS
330
64D
102
}
330
64D
100
AcDbXrecord
280
     1
 90
        1
330
860
  0
DICTIONARY
  5
88D
102
{ACAD_REACTORS
330
64D
102
}
330
64D
100
AcDbDictionary
281
     1
  3
CANNOSCALE
350
892
  3
CMLEADERSTYLE
350
88F
  3
CTABLESTYLE
350
88E
  3
CVIEWDETAILSTYLE
350
890
  3
CVIEWSECTIONSTYLE
350
891
  3
DIMASSOC
350
895
  3
INDEXCTL
350
894
  3
SORTENTS
350
893
  3
XCLIPFRAME
350
896
  0
XRECORD
  5
89B
102
{ACAD_REACTORS
330
64D
102
}
330
64D
100
AcDbXrecord
280
     1
  1
DWGPROPS COOKIE
  2

  3

  4

  6

  7

  8
Yoshitsune
  9

300
=
301
=
302
=
303
=
304
=
305
=
306
=
307
=
308
=
309
=
 40
0.000566099537037
 41
2451640.677685996
 42
2457192.622660301
  1

 90
        0
  0
XRECORD
  5
87E
102
{ACAD_REACTORS
330
87D
102
}
330
87D
100
AcDbXrecord
280
     1
290
     1
  0
XRECORD
  5
880
102
{ACAD_REACTORS
330
87F
102
}
330
87F
100
AcDbXrecord
280
     1
290
     1
  0
XRECORD
  5
882
102
{ACAD_REACTORS
330
881
102
}
330
881
100
AcDbXrecord
280
     1
290
     1
  0
XRECORD
  5
884
102
{ACAD_REACTORS
330
883
102
}
330
883
100
AcDbXrecord
280
     1
290
     1
  0
XRECORD
  5
886
102
{ACAD_REACTORS
330
885
102
}
330
885
100
AcDbXrecord
280
     1
290
     1
  0
XRECORD
  5
888
102
{ACAD_REACTORS
330
887
102
}
330
887
100
AcDbXrecord
280
     1
290
     1
  0
XRECORD
  5
88A
102
{ACAD_REACTORS
330
889
102
}
330
889
100
AcDbXrecord
280
     1
290
     1
  0
XRECORD
  5
88C
102
{ACAD_REACTORS
330
88B
102
}
330
88B
100
AcDbXrecord
280
     1
290
     1
  0
XRECORD
  5
826
102
{ACAD_REACTORS
330
825
102
}
330
825
100
AcDbXrecord
280
     1
340
65F
  0
XRECORD
  5
824
102
{ACAD_REACTORS
330
823
102
}
330
823
100
AcDbXrecord
280
     1
340
65B
  0
ACDBDETAILVIEWSTYLE
  5
878
102
{ACAD_XDICTIONARY
360
8D3
102
}
102
{ACAD_REACTORS
330
877
102
}
330
877
100
AcDbModelDocViewStyle
 70
     0
  3
Imperial24
290
     0
100
AcDbDetailViewStyle
 70
     0
 71
     0
 90
        3
 71
     1
340
652
 40
0.24
340
0
 40
0.24
300

 40
0.36
280
     3
 71
     2
340
656
 90
       25
 71
     3
340
652
 40
0.24
 90
        1
 40
0.75
 90
        1
300
%<\AcVar ViewType \f "%tc1">% %<\AcVar ViewDetailId>%\PSCALE %<\AcVar ViewScale \f "%sn">%
 71
     4
340
656
 90
       25
340
656
 90
       25
280
     0
  0
LAYOUT
  5
879
102
{ACAD_XDICTIONARY
360
8D5
102
}
102
{ACAD_REACTORS
330
65A
102
}
330
65A
100
AcDbPlotSettings
  1

  2
Canon LBP9100C
  4

  6

 40
0.0
 41
0.0
 42
0.0
 43
0.0
 44
0.0
 45
0.0
 46
0.0
 47
0.0
 48
0.0
 49
0.0
140
0.0
141
0.0
142
1.0
143
1.0
 70
  1712
 72
     0
 73
     0
 74
     0
  7

 75
     0
147
1.0
148
0.0
149
0.0
100
AcDbLayout
  1
Model
 70
     1
 71
     0
 10
0.0
 20
0.0
 11
12.0
 21
9.0
 12
0.0
 22
0.0
 32
0.0
 14
0.0
 24
0.0
 34
0.0
 15
0.0
 25
0.0
 35
0.0
146
0.0
 13
0.0
 23
0.0
 33
0.0
 16
1.0
 26
0.0
 36
0.0
 17
0.0
 27
1.0
 37
0.0
 76
     0
330
65F
331
822
  0
LAYOUT
  5
87A
102
{ACAD_XDICTIONARY
360
8D7
102
}
102
{ACAD_REACTORS
330
65A
102
}
330
65A
100
AcDbPlotSettings
  1

  2
Canon LBP9100C
  4

  6

 40
0.0
 41
0.0
 42
0.0
 43
0.0
 44
0.0
 45
0.0
 46
0.0
 47
0.0
 48
0.0
 49
0.0
140
0.0
141
0.0
142
1.0
143
1.0
 70
   688
 72
     0
 73
     0
 74
     5
  7

 75
    16
147
1.0
148
0.0
149
0.0
100
AcDbLayout
  1
レイアウト1
 70
     1
 71
     1
 10
0.0
 20
0.0
 11
420.0
 21
297.0
 12
0.0
 22
0.0
 32
0.0
 14
1.000000000000000E+20
 24
1.000000000000000E+20
 34
1.000000000000000E+20
 15
-1.000000000000000E+20
 25
-1.000000000000000E+20
 35
-1.000000000000000E+20
146
0.0
 13
0.0
 23
0.0
 33
0.0
 16
1.0
 26
0.0
 36
0.0
 17
0.0
 27
1.0
 37
0.0
 76
     0
330
65B
  0
MATERIAL
  5
835
102
{ACAD_XDICTIONARY
360
836
102
}
102
{ACAD_REACTORS
330
82C
102
}
330
82C
100
AcDbMaterial
  1
ByBlock
 72
     0
 43
0.0208333333333333
 43
0.0
 43
0.0
 43
0.0
 43
0.0
 43
0.0208333333333333
 43
0.0
 43
0.0
 43
0.0
 43
0.0
 43
1.0
 43
0.0
 43
0.0
 43
0.0
 43
0.0
 43
1.0
 77
     0
 47
0.0208333333333333
 47
0.0
 47
0.0
 47
0.0
 47
0.0
 47
0.0208333333333333
 47
0.0
 47
0.0
 47
0.0
 47
0.0
 47
1.0
 47
0.0
 47
0.0
 47
0.0
 47
0.0
 47
1.0
171
     0
 49
0.0208333333333333
 49
0.0
 49
0.0
 49
0.0
 49
0.0
 49
0.0208333333333333
 49
0.0
 49
0.0
 49
0.0
 49
0.0
 49
1.0
 49
0.0
 49
0.0
 49
0.0
 49
0.0
 49
1.0
175
     0
142
0.0208333333333333
142
0.0
142
0.0
142
0.0
142
0.0
142
0.0208333333333333
142
0.0
142
0.0
142
0.0
142
0.0
142
1.0
142
0.0
142
0.0
142
0.0
142
0.0
142
1.0
179
     0
144
0.0208333333333333
144
0.0
144
0.0
144
0.0
144
0.0
144
0.0208333333333333
144
0.0
144
0.0
144
0.0
144
0.0
144
1.0
144
0.0
144
0.0
144
0.0
144
0.0
144
1.0
147
0.0208333333333333
147
0.0
147
0.0
147
0.0
147
0.0
147
0.0208333333333333
147
0.0
147
0.0
147
0.0
147
0.0
147
1.0
147
0.0
147
0.0
147
0.0
147
0.0
147
1.0
  0
MATERIAL
  5
82D
102
{ACAD_XDICTIONARY
360
82E
102
}
102
{ACAD_REACTORS
330
82C
102
}
330
82C
100
AcDbMaterial
  1
ByLayer
 72
     0
 43
0.0208333333333333
 43
0.0
 43
0.0
 43
0.0
 43
0.0
 43
0.0208333333333333
 43
0.0
 43
0.0
 43
0.0
 43
0.0
 43
1.0
 43
0.0
 43
0.0
 43
0.0
 43
0.0
 43
1.0
 77
     0
 47
0.0208333333333333
 47
0.0
 47
0.0
 47
0.0
 47
0.0
 47
0.0208333333333333
 47
0.0
 47
0.0
 47
0.0
 47
0.0
 47
1.0
 47
0.0
 47
0.0
 47
0.0
 47
0.0
 47
1.0
171
     0
 49
0.0208333333333333
 49
0.0
 49
0.0
 49
0.0
 49
0.0
 49
0.0208333333333333
 49
0.0
 49
0.0
 49
0.0
 49
0.0
 49
1.0
 49
0.0
 49
0.0
 49
0.0
 49
0.0
 49
1.0
175
     0
142
0.0208333333333333
142
0.0
142
0.0
142
0.0
142
0.0
142
0.0208333333333333
142
0.0
142
0.0
142
0.0
142
0.0
142
1.0
142
0.0
142
0.0
142
0.0
142
0.0
142
1.0
179
     0
144
0.0208333333333333
144
0.0
144
0.0
144
0.0
144
0.0
144
0.0208333333333333
144
0.0
144
0.0
144
0.0
144
0.0
144
1.0
144
0.0
144
0.0
144
0.0
144
0.0
144
1.0
147
0.0208333333333333
147
0.0
147
0.0
147
0.0
147
0.0
147
0.0208333333333333
147
0.0
147
0.0
147
0.0
147
0.0
147
1.0
147
0.0
147
0.0
147
0.0
147
0.0
147
1.0
  0
MATERIAL
  5
83D
102
{ACAD_XDICTIONARY
360
83E
102
}
102
{ACAD_REACTORS
330
82C
102
}
330
82C
100
AcDbMaterial
  1
Global
 72
     0
 43
0.0208333333333333
 43
0.0
 43
0.0
 43
0.0
 43
0.0
 43
0.0208333333333333
 43
0.0
 43
0.0
 43
0.0
 43
0.0
 43
1.0
 43
0.0
 43
0.0
 43
0.0
 43
0.0
 43
1.0
 77
     0
 47
0.0208333333333333
 47
0.0
 47
0.0
 47
0.0
 47
0.0
 47
0.0208333333333333
 47
0.0
 47
0.0
 47
0.0
 47
0.0
 47
1.0
 47
0.0
 47
0.0
 47
0.0
 47
0.0
 47
1.0
171
     0
 49
0.0208333333333333
 49
0.0
 49
0.0
 49
0.0
 49
0.0
 49
0.0208333333333333
 49
0.0
 49
0.0
 49
0.0
 49
0.0
 49
1.0
 49
0.0
 49
0.0
 49
0.0
 49
0.0
 49
1.0
175
     0
142
0.0208333333333333
142
0.0
142
0.0
142
0.0
142
0.0
142
0.0208333333333333
142
0.0
142
0.0
142
0.0
142
0.0
142
1.0
142
0.0
142
0.0
142
0.0
142
0.0
142
1.0
179
     0
144
0.0208333333333333
144
0.0
144
0.0
144
0.0
144
0.0
144
0.0208333333333333
144
0.0
144
0.0
144
0.0
144
0.0
144
1.0
144
0.0
144
0.0
144
0.0
144
0.0
144
1.0
147
0.0208333333333333
147
0.0
147
0.0
147
0.0
147
0.0
147
0.0208333333333333
147
0.0
147
0.0
147
0.0
147
0.0
147
1.0
147
0.0
147
0.0
147
0.0
147
0.0
147
1.0
  0
MLEADERSTYLE
  5
874
102
{ACAD_REACTORS
330
873
102
}
330
873
100
AcDbMLeaderStyle
170
     2
171
     1
172
     0
 90
        2
 40
0.0
 41
0.0
173
     1
 91
-1056964608
340
654
 92
       -2
290
     1
 42
0.09
291
     1
 43
0.36
  3
Standard
 44
0.18
300

342
652
174
     1
178
     6
175
     1
176
     0
 93
-1056964608
 45
0.18
292
     0
297
     0
 46
0.18
 94
-1056964608
 47
1.0
 49
1.0
140
1.0
293
     1
141
0.0
294
     1
177
     0
142
1.0
295
     0
296
     0
143
0.125
1001
ACAD_MLEADERVER
1070
     2
  0
MLINESTYLE
  5
658
102
{ACAD_REACTORS
330
657
102
}
330
657
100
AcDbMlineStyle
  2
STANDARD
 70
     0
  3

 62
   256
 51
90.0
 52
90.0
 71
     2
 49
0.5
 62
   256
  6
BYLAYER
 49
-0.5
 62
   256
  6
BYLAYER
  0
ACDBPLACEHOLDER
  5
82B
102
{ACAD_REACTORS
330
82A
102
}
330
82A
  0
SCALE
  5
862
102
{ACAD_REACTORS
330
861
102
}
330
861
100
AcDbScale
 70
     0
300
1:1
140
1.0
141
1.0
290
     1
  0
SCALE
  5
863
102
{ACAD_REACTORS
330
861
102
}
330
861
100
AcDbScale
 70
     0
300
1/128" = 1'-0"
140
0.0078125
141
12.0
290
     0
  0
SCALE
  5
864
102
{ACAD_REACTORS
330
861
102
}
330
861
100
AcDbScale
 70
     0
300
1/64" = 1'-0"
140
0.015625
141
12.0
290
     0
  0
SCALE
  5
865
102
{ACAD_REACTORS
330
861
102
}
330
861
100
AcDbScale
 70
     0
300
1/32" = 1'-0"
140
0.03125
141
12.0
290
     0
  0
SCALE
  5
866
102
{ACAD_REACTORS
330
861
102
}
330
861
100
AcDbScale
 70
     0
300
1/16" = 1'-0"
140
0.0625
141
12.0
290
     0
  0
SCALE
  5
867
102
{ACAD_REACTORS
330
861
102
}
330
861
100
AcDbScale
 70
     0
300
3/32" = 1'-0"
140
0.09375
141
12.0
290
     0
  0
SCALE
  5
868
102
{ACAD_REACTORS
330
861
102
}
330
861
100
AcDbScale
 70
     0
300
1/8" = 1'-0"
140
0.125
141
12.0
290
     0
  0
SCALE
  5
869
102
{ACAD_REACTORS
330
861
102
}
330
861
100
AcDbScale
 70
     0
300
3/16" = 1'-0"
140
0.1875
141
12.0
290
     0
  0
SCALE
  5
86A
102
{ACAD_REACTORS
330
861
102
}
330
861
100
AcDbScale
 70
     0
300
1/4" = 1'-0"
140
0.25
141
12.0
290
     0
  0
SCALE
  5
86B
102
{ACAD_REACTORS
330
861
102
}
330
861
100
AcDbScale
 70
     0
300
3/8" = 1'-0"
140
0.375
141
12.0
290
     0
  0
SCALE
  5
86C
102
{ACAD_REACTORS
330
861
102
}
330
861
100
AcDbScale
 70
     0
300
1/2" = 1'-0"
140
0.5
141
12.0
290
     0
  0
SCALE
  5
86D
102
{ACAD_REACTORS
330
861
102
}
330
861
100
AcDbScale
 70
     0
300
3/4" = 1'-0"
140
0.75
141
12.0
290
     0
  0
SCALE
  5
86E
102
{ACAD_REACTORS
330
861
102
}
330
861
100
AcDbScale
 70
     0
300
1" = 1'-0"
140
1.0
141
12.0
290
     0
  0
SCALE
  5
86F
102
{ACAD_REACTORS
330
861
102
}
330
861
100
AcDbScale
 70
     0
300
1-1/2" = 1'-0"
140
1.5
141
12.0
290
     0
  0
SCALE
  5
870
102
{ACAD_REACTORS
330
861
102
}
330
861
100
AcDbScale
 70
     0
300
3" = 1'-0"
140
3.0
141
12.0
290
     0
  0
SCALE
  5
871
102
{ACAD_REACTORS
330
861
102
}
330
861
100
AcDbScale
 70
     0
300
6" = 1'-0"
140
6.0
141
12.0
290
     0
  0
SCALE
  5
872
102
{ACAD_REACTORS
330
861
102
}
330
861
100
AcDbScale
 70
     0
300
1'-0" = 1'-0"
140
12.0
141
12.0
290
     0
  0
ACDBSECTIONVIEWSTYLE
  5
876
102
{ACAD_XDICTIONARY
360
8D1
102
}
102
{ACAD_REACTORS
330
875
102
}
330
875
100
AcDbModelDocViewStyle
 70
     0
  3
Imperial24
290
     0
100
AcDbSectionViewStyle
 70
     0
 71
     0
 90
       78
 71
     1
340
652
 40
0.24
340
0
340
0
 40
0.24
300
I, O, Q, S, X, Z
 40
0.48
 90
        3
 40
0.18
 90
        1
 71
     2
340
656
 90
       25
340
656
 90
       50
 40
0.24
 40
0.0
 40
0.24
 71
     3
340
652
 40
0.24
 90
        1
 40
0.75
 90
        1
300
%<\AcVar ViewType \f "%tc1">% %<\AcVar ViewSectionStartId>%-%<\AcVar ViewSectionEndId>%\PSCALE %<\AcVar ViewScale \f "%sn">%
 71
     4
300
ANSI31
 40
1.0
 90
        0
290
     0
290
     0
 90
        6
 40
0.0
 40
1.570796326794896
 40
0.2617993877991494
 40
1.308996938995747
 40
-0.2617993877991494
 40
1.832595714594046
  0
TABLESTYLE
  5
860
102
{ACAD_XDICTIONARY
360
898
102
}
102
{ACAD_REACTORS
330
85F
102
}
330
85F
100
AcDbTableStyle
  3
Standard
 70
     0
 71
     0
 40
0.06
 41
0.06
280
     0
281
     0
  7
STANDARD
140
0.18
170
     2
 62
     0
 63
     7
283
     0
274
    -2
284
     1
 64
     0
275
    -2
285
     1
 65
     0
276
    -2
286
     1
 66
     0
277
    -2
287
     1
 67
     0
278
    -2
288
     1
 68
     0
279
    -2
289
     1
 69
     0
  7
STANDARD
140
0.25
170
     5
 62
     0
 63
     7
283
     0
274
    -2
284
     1
 64
     0
275
    -2
285
     1
 65
     0
276
    -2
286
     1
 66
     0
277
    -2
287
     1
 67
     0
278
    -2
288
     1
 68
     0
279
    -2
289
     1
 69
     0
  7
STANDARD
140
0.18
170
     5
 62
     0
 63
     7
283
     0
274
    -2
284
     1
 64
     0
275
    -2
285
     1
 65
     0
276
    -2
286
     1
 66
     0
277
    -2
287
     1
 67
     0
278
    -2
288
     1
 68
     0
279
    -2
289
     1
 69
     0
  0
VISUALSTYLE
  5
84B
102
{ACAD_XDICTIONARY
360
8A9
102
}
102
{ACAD_REACTORS
330
845
102
}
330
845
100
AcDbVisualStyle
  2
2dWireframe
 70
     4
 71
     0
 72
     2
 73
     0
 90
        0
 40
-0.6
 41
-30.0
 62
     5
 63
     7
 74
     1
 91
        4
 64
     7
 65
   257
 75
     1
175
     1
 42
1.0
 92
        0
 66
   257
 43
1.0
 76
     1
 77
     6
 78
     2
 67
     7
 79
     5
170
     0
171
     0
290
     0
174
     0
 93
        1
 44
0.0
173
     0
291
     0
 45
0.0
1001
ACAD
1000
AcDbSavedByObjectVersion
1070
     0
  0
VISUALSTYLE
  5
84A
102
{ACAD_XDICTIONARY
360
8A7
102
}
102
{ACAD_REACTORS
330
845
102
}
330
845
100
AcDbVisualStyle
  2
Basic
 70
     7
 71
     1
 72
     0
 73
     1
 90
        0
 40
-0.6
 41
-30.0
 62
     5
 63
     7
 74
     0
 91
        4
 64
     7
 65
   257
 75
     1
175
     1
 42
1.0
 92
        8
 66
     7
 43
1.0
 76
     1
 77
     6
 78
     2
 67
     7
 79
     5
170
     0
171
     0
290
     0
174
     0
 93
        1
 44
0.0
173
     0
291
     1
 45
0.0
1001
ACAD
1000
AcDbSavedByObjectVersion
1070
     0
  0
VISUALSTYLE
  5
851
102
{ACAD_XDICTIONARY
360
8B5
102
}
102
{ACAD_REACTORS
330
845
102
}
330
845
100
AcDbVisualStyle
  2
Brighten
 70
    12
 71
     2
 72
     2
 73
     0
 90
        0
 40
-0.6
 41
-30.0
 62
     5
 63
     7
 74
     1
 91
        4
 64
     7
 65
   257
 75
     1
175
     1
 42
1.0
 92
        8
 66
     7
 43
1.0
 76
     1
 77
     6
 78
     2
 67
     7
 79
     5
170
     0
171
     0
290
     0
174
     0
 93
        1
 44
50.0
173
     0
291
     1
 45
0.0
1001
ACAD
1000
AcDbSavedByObjectVersion
1070
     0
  0
VISUALSTYLE
  5
855
102
{ACAD_XDICTIONARY
360
8BD
102
}
102
{ACAD_REACTORS
330
845
102
}
330
845
100
AcDbVisualStyle
  2
ColorChange
 70
    16
 71
     2
 72
     2
 73
     3
 90
        0
 40
-0.6
 41
-30.0
 62
     5
 63
     8
 74
     1
 91
        4
 64
     7
 65
   257
 75
     1
175
     1
 42
1.0
 92
        8
 66
     8
 43
1.0
 76
     1
 77
     6
 78
     2
 67
     7
 79
     5
170
     0
171
     0
290
     0
174
     0
 93
        1
 44
0.0
173
     0
291
     1
 45
0.0
1001
ACAD
1000
AcDbSavedByObjectVersion
1070
     0
  0
VISUALSTYLE
  5
84E
102
{ACAD_XDICTIONARY
360
8AF
102
}
102
{ACAD_REACTORS
330
845
102
}
330
845
100
AcDbVisualStyle
  2
Conceptual
 70
     9
 71
     3
 72
     2
 73
     0
 90
        0
 40
-0.6
 41
-30.0
 62
     5
 63
     7
 74
     2
 91
        2
 64
     7
 65
   257
 75
     1
175
     1
 42
179.0
 92
        8
 66
     7
 43
1.0
 76
     1
 77
     6
 78
     2
 67
     7
 79
     3
170
     0
171
     0
290
     0
174
     0
 93
        1
 44
0.0
173
     0
291
     0
 45
0.0
1001
ACAD
1000
AcDbSavedByObjectVersion
1070
     0
  0
VISUALSTYLE
  5
850
102
{ACAD_XDICTIONARY
360
8B3
102
}
102
{ACAD_REACTORS
330
845
102
}
330
845
100
AcDbVisualStyle
  2
Dim
 70
    11
 71
     2
 72
     2
 73
     0
 90
        0
 40
-0.6
 41
-30.0
 62
     5
 63
     7
 74
     1
 91
        4
 64
     7
 65
   257
 75
     1
175
     1
 42
1.0
 92
        8
 66
     7
 43
1.0
 76
     1
 77
     6
 78
     2
 67
     7
 79
     5
170
     0
171
     0
290
     0
174
     0
 93
        1
 44
-50.0
173
     0
291
     1
 45
0.0
1001
ACAD
1000
AcDbSavedByObjectVersion
1070
     0
  0
VISUALSTYLE
  5
85D
102
{ACAD_XDICTIONARY
360
8CD
102
}
102
{ACAD_REACTORS
330
845
102
}
330
845
100
AcDbVisualStyle
  2
EdgeColorOff
 70
    22
 71
     2
 72
     2
 73
     0
 90
        0
 40
-0.6
 41
-30.0
 62
     5
 63
     7
 74
     1
 91
        4
 64
     7
 65
   257
 75
     1
175
     1
 42
1.0
 92
        8
 66
     7
 43
1.0
 76
     1
 77
     6
 78
     2
 67
     7
 79
     5
170
     0
171
     0
290
     0
174
     0
 93
        1
 44
0.0
173
     0
291
     1
 45
0.0
1001
ACAD
1000
AcDbSavedByObjectVersion
1070
     0
  0
VISUALSTYLE
  5
854
102
{ACAD_XDICTIONARY
360
8BB
102
}
102
{ACAD_REACTORS
330
845
102
}
330
845
100
AcDbVisualStyle
  2
Facepattern
 70
    15
 71
     2
 72
     2
 73
     0
 90
        0
 40
-0.6
 41
-30.0
 62
     5
 63
     7
 74
     1
 91
        4
 64
     7
 65
   257
 75
     1
175
     1
 42
1.0
 92
        8
 66
     7
 43
1.0
 76
     1
 77
     6
 78
     2
 67
     7
 79
     5
170
     0
171
     0
290
     0
174
     0
 93
        1
 44
0.0
173
     0
291
     1
 45
0.0
1001
ACAD
1000
AcDbSavedByObjectVersion
1070
     0
  0
VISUALSTYLE
  5
846
102
{ACAD_XDICTIONARY
360
89F
102
}
102
{ACAD_REACTORS
330
845
102
}
330
845
100
AcDbVisualStyle
  2
Flat
 70
     0
 71
     2
 72
     1
 73
     1
 90
        2
 40
-0.6
 41
30.0
 62
     5
 63
     7
 74
     0
 91
        0
 64
     7
 65
   257
 75
     1
175
     1
 42
1.0
 92
        8
 66
     7
 43
1.0
 76
     1
 77
     6
 78
     2
 67
     7
 79
     5
170
     0
171
     0
290
     0
174
     0
 93
       13
 44
0.0
173
     0
291
     1
 45
0.0
1001
ACAD
1000
AcDbSavedByObjectVersion
1070
     0
  0
VISUALSTYLE
  5
847
102
{ACAD_XDICTIONARY
360
8A1
102
}
102
{ACAD_REACTORS
330
845
102
}
330
845
100
AcDbVisualStyle
  2
FlatWithEdges
 70
     1
 71
     2
 72
     1
 73
     1
 90
        2
 40
-0.6
 41
30.0
 62
     5
 63
     7
 74
     1
 91
        0
 64
     7
 65
   257
 75
     1
175
     1
 42
1.0
 92
        0
 66
   257
 43
1.0
 76
     1
 77
     6
 78
     2
 67
     7
 79
     5
170
     0
171
     0
290
     0
174
     0
 93
       13
 44
0.0
173
     0
291
     1
 45
0.0
1001
ACAD
1000
AcDbSavedByObjectVersion
1070
     0
  0
VISUALSTYLE
  5
848
102
{ACAD_XDICTIONARY
360
8A3
102
}
102
{ACAD_REACTORS
330
845
102
}
330
845
100
AcDbVisualStyle
  2
Gouraud
 70
     2
 71
     2
 72
     2
 73
     1
 90
        2
 40
-0.6
 41
30.0
 62
     5
 63
     7
 74
     0
 91
        0
 64
     7
 65
   257
 75
     1
175
     1
 42
1.0
 92
        0
 66
     7
 43
1.0
 76
     1
 77
     6
 78
     2
 67
     7
 79
     5
170
     0
171
     0
290
     0
174
     0
 93
       13
 44
0.0
173
     0
291
     1
 45
0.0
1001
ACAD
1000
AcDbSavedByObjectVersion
1070
     0
  0
VISUALSTYLE
  5
849
102
{ACAD_XDICTIONARY
360
8A5
102
}
102
{ACAD_REACTORS
330
845
102
}
330
845
100
AcDbVisualStyle
  2
GouraudWithEdges
 70
     3
 71
     2
 72
     2
 73
     1
 90
        2
 40
-0.6
 41
30.0
 62
     5
 63
     7
 74
     1
 91
        0
 64
     7
 65
   257
 75
     1
175
     1
 42
1.0
 92
        0
 66
   257
 43
1.0
 76
     1
 77
     6
 78
     2
 67
     7
 79
     5
170
     0
171
     0
290
     0
174
     0
 93
       13
 44
0.0
173
     0
291
     1
 45
0.0
1001
ACAD
1000
AcDbSavedByObjectVersion
1070
     0
  0
VISUALSTYLE
  5
84D
102
{ACAD_XDICTIONARY
360
8AD
102
}
102
{ACAD_REACTORS
330
845
102
}
330
845
100
AcDbVisualStyle
  2
Hidden
 70
     6
 71
     1
 72
     2
 73
     2
 90
        0
 40
-0.6
 41
-30.0
 62
     5
 63
     7
 74
     2
 91
        2
 64
     7
 65
   257
 75
     2
175
     1
 42
40.0
 92
        0
 66
   257
 43
1.0
 76
     1
 77
     6
 78
     2
 67
     7
 79
     3
170
     0
171
     0
290
     0
174
     0
 93
        1
 44
0.0
173
     0
291
     0
 45
0.0
1001
ACAD
1000
AcDbSavedByObjectVersion
1070
     0
  0
VISUALSTYLE
  5
85B
102
{ACAD_XDICTIONARY
360
8C9
102
}
102
{ACAD_REACTORS
330
845
102
}
330
845
100
AcDbVisualStyle
  2
JitterOff
 70
    20
 71
     2
 72
     2
 73
     0
 90
        0
 40
-0.6
 41
-30.0
 62
     5
 63
     7
 74
     1
 91
        4
 64
     7
 65
   257
 75
     1
175
     1
 42
1.0
 92
       10
 66
     7
 43
1.0
 76
     1
 77
     6
 78
     2
 67
     7
 79
     5
170
     0
171
     0
290
     0
174
     0
 93
        1
 44
0.0
173
     0
291
     1
 45
0.0
1001
ACAD
1000
AcDbSavedByObjectVersion
1070
     0
  0
VISUALSTYLE
  5
853
102
{ACAD_XDICTIONARY
360
8B9
102
}
102
{ACAD_REACTORS
330
845
102
}
330
845
100
AcDbVisualStyle
  2
Linepattern
 70
    14
 71
     2
 72
     2
 73
     0
 90
        0
 40
-0.6
 41
-30.0
 62
     5
 63
     7
 74
     1
 91
        4
 64
     7
 65
   257
 75
     7
175
     7
 42
1.0
 92
        8
 66
     7
 43
1.0
 76
     1
 77
     6
 78
     2
 67
     7
 79
     5
170
     0
171
     0
290
     0
174
     0
 93
        1
 44
0.0
173
     0
291
     1
 45
0.0
1001
ACAD
1000
AcDbSavedByObjectVersion
1070
     0
  0
VISUALSTYLE
  5
85C
102
{ACAD_XDICTIONARY
360
8CB
102
}
102
{ACAD_REACTORS
330
845
102
}
330
845
100
AcDbVisualStyle
  2
OverhangOff
 70
    21
 71
     2
 72
     2
 73
     0
 90
        0
 40
-0.6
 41
-30.0
 62
     5
 63
     7
 74
     1
 91
        4
 64
     7
 65
   257
 75
     1
175
     1
 42
1.0
 92
        9
 66
     7
 43
1.0
 76
     1
 77
     6
 78
     2
 67
     7
 79
     5
170
     0
171
     0
290
     0
174
     0
 93
        1
 44
0.0
173
     0
291
     1
 45
0.0
1001
ACAD
1000
AcDbSavedByObjectVersion
1070
     0
  0
VISUALSTYLE
  5
84F
102
{ACAD_XDICTIONARY
360
8B1
102
}
102
{ACAD_REACTORS
330
845
102
}
330
845
100
AcDbVisualStyle
  2
Realistic
 70
     8
 71
     2
 72
     3
 73
     0
 90
        2
 40
-0.6
 41
30.0
 62
     5
 63
     7
 74
     0
 91
        0
 64
     7
 65
   257
 75
     1
175
     1
 42
1.0
 92
        8
 66
   257
 43
1.0
 76
     1
 77
     6
 78
     2
 67
     7
 79
     3
170
     0
171
     0
290
     0
174
     0
 93
       13
 44
0.0
173
     0
291
     0
 45
0.0
1001
ACAD
1000
AcDbSavedByObjectVersion
1070
     0
  0
VISUALSTYLE
  5
85A
102
{ACAD_XDICTIONARY
360
8C7
102
}
102
{ACAD_REACTORS
330
845
102
}
330
845
100
AcDbVisualStyle
  2
Shaded
 70
    27
 71
     2
 72
     2
 73
     1
 90
        2
 40
-0.6
 41
30.0
 62
     5
 63
     7
 74
     0
 91
        4
 64
     7
 65
   257
 75
     1
175
     1
 42
1.0
 92
        8
 66
   257
 43
1.0
 76
     1
 77
     6
 78
     2
 67
     8
 79
     3
170
     0
171
     0
290
     0
174
     0
 93
        5
 44
0.0
173
     0
291
     0
 45
0.0
1001
ACAD
1000
AcDbSavedByObjectVersion
1070
     0
  0
VISUALSTYLE
  5
859
102
{ACAD_XDICTIONARY
360
8C5
102
}
102
{ACAD_REACTORS
330
845
102
}
330
845
100
AcDbVisualStyle
  2
Shaded with edges
 70
    26
 71
     2
 72
     2
 73
     1
 90
        2
 40
-0.6
 41
30.0
 62
     5
 63
     7
 74
     1
 91
       10
 64
     7
 65
   257
 75
     2
175
     1
 42
1.0
 92
        8
 66
   257
 43
1.0
 76
     1
 77
     6
 78
     2
 67
     7
 79
     3
170
     0
171
     0
290
     0
174
     0
 93
        5
 44
0.0
173
     0
291
     0
 45
0.0
1001
ACAD
1000
AcDbSavedByObjectVersion
1070
     0
  0
VISUALSTYLE
  5
856
102
{ACAD_XDICTIONARY
360
8BF
102
}
102
{ACAD_REACTORS
330
845
102
}
330
845
100
AcDbVisualStyle
  2
Shades of Gray
 70
    23
 71
     2
 72
     2
 73
     3
 90
        0
 40
-0.6
 41
-30.0
 62
     5
 63
     7
 74
     2
 91
        2
 64
     7
 65
     7
 75
     1
175
     1
 42
40.0
 92
        8
 66
     7
 43
1.0
 76
     1
 77
     6
 78
     2
 67
     7
 79
     3
170
     0
171
     0
290
     0
174
     0
 93
        1
 44
0.0
173
     0
291
     0
 45
0.0
1001
ACAD
1000
AcDbSavedByObjectVersion
1070
     0
  0
VISUALSTYLE
  5
857
102
{ACAD_XDICTIONARY
360
8C1
102
}
102
{ACAD_REACTORS
330
845
102
}
330
845
100
AcDbVisualStyle
  2
Sketchy
 70
    24
 71
     1
 72
     2
 73
     2
 90
        0
 40
-0.6
 41
-30.0
 62
     5
 63
     7
 74
     2
 91
        2
 64
     7
 65
     7
 75
     1
175
     1
 42
40.0
 92
       11
 66
     7
 43
1.0
 76
     1
 77
     6
 78
     2
 67
     7
 79
     6
170
     0
171
     0
290
     0
174
     0
 93
        1
 44
0.0
173
     0
291
     0
 45
0.0
1001
ACAD
1000
AcDbSavedByObjectVersion
1070
     0
  0
VISUALSTYLE
  5
852
102
{ACAD_XDICTIONARY
360
8B7
102
}
102
{ACAD_REACTORS
330
845
102
}
330
845
100
AcDbVisualStyle
  2
Thicken
 70
    13
 71
     2
 72
     2
 73
     0
 90
        0
 40
-0.6
 41
-30.0
 62
     5
 63
     7
 74
     1
 91
        4
 64
     7
 65
   257
 75
     1
175
     1
 42
1.0
 92
       12
 66
     7
 43
1.0
 76
     1
 77
     6
 78
     2
 67
     7
 79
     5
170
     0
171
     0
290
     0
174
     0
 93
        1
 44
0.0
173
     0
291
     1
 45
0.0
1001
ACAD
1000
AcDbSavedByObjectVersion
1070
     0
  0
VISUALSTYLE
  5
84C
102
{ACAD_XDICTIONARY
360
8AB
102
}
102
{ACAD_REACTORS
330
845
102
}
330
845
100
AcDbVisualStyle
  2
Wireframe
 70
     5
 71
     0
 72
     2
 73
     0
 90
        0
 40
-0.6
 41
-30.0
 62
     5
 63
     7
 74
     1
 91
        4
 64
     7
 65
   257
 75
     1
175
     1
 42
1.0
 92
        0
 66
   257
 43
1.0
 76
     1
 77
     6
 78
     2
 67
     7
 79
     3
170
     0
171
     0
290
     0
174
     0
 93
        1
 44
0.0
173
     0
291
     0
 45
0.0
1001
ACAD
1000
AcDbSavedByObjectVersion
1070
     0
  0
VISUALSTYLE
  5
858
102
{ACAD_XDICTIONARY
360
8C3
102
}
102
{ACAD_REACTORS
330
845
102
}
330
845
100
AcDbVisualStyle
  2
X-Ray
 70
    25
 71
     2
 72
     2
 73
     1
 90
        1
 40
0.5
 41
-30.0
 62
     5
 63
     7
 74
     1
 91
        0
 64
     7
 65
   257
 75
     1
175
     1
 42
1.0
 92
        8
 66
     7
 43
1.0
 76
     1
 77
     6
 78
     2
 67
     7
 79
     3
170
     0
171
     0
290
     0
174
     0
 93
       13
 44
0.0
173
     0
291
     0
 45
0.0
1001
ACAD
1000
AcDbSavedByObjectVersion
1070
     0
  0
DICTIONARYVAR
  5
892
102
{ACAD_REACTORS
330
88D
102
}
330
88D
100
DictionaryVariables
280
     0
  1
1:1
  0
DICTIONARYVAR
  5
88F
102
{ACAD_REACTORS
330
88D
102
}
330
88D
100
DictionaryVariables
280
     0
  1
STANDARD
  0
DICTIONARYVAR
  5
88E
102
{ACAD_REACTORS
330
88D
102
}
330
88D
100
DictionaryVariables
280
     0
  1
STANDARD
  0
DICTIONARYVAR
  5
890
102
{ACAD_REACTORS
330
88D
102
}
330
88D
100
DictionaryVariables
280
     0
  1
Imperial24
  0
DICTIONARYVAR
  5
891
102
{ACAD_REACTORS
330
88D
102
}
330
88D
100
DictionaryVariables
280
     0
  1
Imperial24
  0
DICTIONARYVAR
  5
895
102
{ACAD_REACTORS
330
88D
102
}
330
88D
100
DictionaryVariables
280
     0
  1
1
  0
DICTIONARYVAR
  5
894
102
{ACAD_REACTORS
330
88D
102
}
330
88D
100
DictionaryVariables
280
     0
  1
0
  0
DICTIONARYVAR
  5
893
102
{ACAD_REACTORS
330
88D
102
}
330
88D
100
DictionaryVariables
280
     0
  1
127
  0
DICTIONARYVAR
  5
896
102
{ACAD_REACTORS
330
88D
102
}
330
88D
100
DictionaryVariables
280
     0
  1
2
  0
DICTIONARY
  5
8D3
330
878
100
AcDbDictionary
280
     1
281
     1
  3
ACAD_XREC_ROUNDTRIP
360
8D4
  0
DICTIONARY
  5
8D5
330
879
100
AcDbDictionary
280
     1
281
     1
  3
ACAD_XREC_ROUNDTRIP
360
8D6
  0
DICTIONARY
  5
8D7
330
87A
100
AcDbDictionary
280
     1
281
     1
  3
ACAD_XREC_ROUNDTRIP
360
8D8
  0
DICTIONARY
  5
836
330
835
100
AcDbDictionary
280
     1
281
     1
  3
ACAD_XREC_ROUNDTRIP
360
89D
  3
BUMPTILE
360
838
  3
DIFFUSETILE
360
837
  3
OPACITYTILE
360
83B
  3
REFLECTIONTILE
360
83A
  3
REFRACTIONTILE
360
83C
  3
SPECULARTILE
360
839
  0
DICTIONARY
  5
82E
330
82D
100
AcDbDictionary
280
     1
281
     1
  3
ACAD_XREC_ROUNDTRIP
360
89C
  3
BUMPTILE
360
830
  3
DIFFUSETILE
360
82F
  3
OPACITYTILE
360
833
  3
REFLECTIONTILE
360
832
  3
REFRACTIONTILE
360
834
  3
SPECULARTILE
360
831
  0
DICTIONARY
  5
83E
330
83D
100
AcDbDictionary
280
     1
281
     1
  3
ACAD_XREC_ROUNDTRIP
360
89E
  3
BUMPTILE
360
840
  3
DIFFUSETILE
360
83F
  3
OPACITYTILE
360
843
  3
REFLECTIONTILE
360
842
  3
REFRACTIONTILE
360
844
  3
SPECULARTILE
360
841
  0
DICTIONARY
  5
8D1
330
876
100
AcDbDictionary
280
     1
281
     1
  3
ACAD_XREC_ROUNDTRIP
360
8D2
  0
DICTIONARY
  5
898
330
860
100
AcDbDictionary
280
     1
281
     1
  3
ACAD_ROUNDTRIP_2008_TABLESTYLE_CELLSTYLEMAP
360
899
  3
ACAD_XREC_ROUNDTRIP
360
8CF
  0
DICTIONARY
  5
8A9
330
84B
100
AcDbDictionary
280
     1
281
     1
  3
ACAD_XREC_ROUNDTRIP
360
8AA
  0
DICTIONARY
  5
8A7
330
84A
100
AcDbDictionary
280
     1
281
     1
  3
ACAD_XREC_ROUNDTRIP
360
8A8
  0
DICTIONARY
  5
8B5
330
851
100
AcDbDictionary
280
     1
281
     1
  3
ACAD_XREC_ROUNDTRIP
360
8B6
  0
DICTIONARY
  5
8BD
330
855
100
AcDbDictionary
280
     1
281
     1
  3
ACAD_XREC_ROUNDTRIP
360
8BE
  0
DICTIONARY
  5
8AF
330
84E
100
AcDbDictionary
280
     1
281
     1
  3
ACAD_XREC_ROUNDTRIP
360
8B0
  0
DICTIONARY
  5
8B3
330
850
100
AcDbDictionary
280
     1
281
     1
  3
ACAD_XREC_ROUNDTRIP
360
8B4
  0
DICTIONARY
  5
8CD
330
85D
100
AcDbDictionary
280
     1
281
     1
  3
ACAD_XREC_ROUNDTRIP
360
8CE
  0
DICTIONARY
  5
8BB
330
854
100
AcDbDictionary
280
     1
281
     1
  3
ACAD_XREC_ROUNDTRIP
360
8BC
  0
DICTIONARY
  5
89F
330
846
100
AcDbDictionary
280
     1
281
     1
  3
ACAD_XREC_ROUNDTRIP
360
8A0
  0
DICTIONARY
  5
8A1
330
847
100
AcDbDictionary
280
     1
281
     1
  3
ACAD_XREC_ROUNDTRIP
360
8A2
  0
DICTIONARY
  5
8A3
330
848
100
AcDbDictionary
280
     1
281
     1
  3
ACAD_XREC_ROUNDTRIP
360
8A4
  0
DICTIONARY
  5
8A5
330
849
100
AcDbDictionary
280
     1
281
     1
  3
ACAD_XREC_ROUNDTRIP
360
8A6
  0
DICTIONARY
  5
8AD
330
84D
100
AcDbDictionary
280
     1
281
     1
  3
ACAD_XREC_ROUNDTRIP
360
8AE
  0
DICTIONARY
  5
8C9
330
85B
100
AcDbDictionary
280
     1
281
     1
  3
ACAD_XREC_ROUNDTRIP
360
8CA
  0
DICTIONARY
  5
8B9
330
853
100
AcDbDictionary
280
     1
281
     1
  3
ACAD_XREC_ROUNDTRIP
360
8BA
  0
DICTIONARY
  5
8CB
330
85C
100
AcDbDictionary
280
     1
281
     1
  3
ACAD_XREC_ROUNDTRIP
360
8CC
  0
DICTIONARY
  5
8B1
330
84F
100
AcDbDictionary
280
     1
281
     1
  3
ACAD_XREC_ROUNDTRIP
360
8B2
  0
DICTIONARY
  5
8C7
330
85A
100
AcDbDictionary
280
     1
281
     1
  3
ACAD_XREC_ROUNDTRIP
360
8C8
  0
DICTIONARY
  5
8C5
330
859
100
AcDbDictionary
280
     1
281
     1
  3
ACAD_XREC_ROUNDTRIP
360
8C6
  0
DICTIONARY
  5
8BF
330
856
100
AcDbDictionary
280
     1
281
     1
  3
ACAD_XREC_ROUNDTRIP
360
8C0
  0
DICTIONARY
  5
8C1
330
857
100
AcDbDictionary
280
     1
281
     1
  3
ACAD_XREC_ROUNDTRIP
360
8C2
  0
DICTIONARY
  5
8B7
330
852
100
AcDbDictionary
280
     1
281
     1
  3
ACAD_XREC_ROUNDTRIP
360
8B8
  0
DICTIONARY
  5
8AB
330
84C
100
AcDbDictionary
280
     1
281
     1
  3
ACAD_XREC_ROUNDTRIP
360
8AC
  0
DICTIONARY
  5
8C3
330
858
100
AcDbDictionary
280
     1
281
     1
  3
ACAD_XREC_ROUNDTRIP
360
8C4
  0
XRECORD
  5
8D4
102
{ACAD_REACTORS
330
8D3
102
}
330
8D3
100
AcDbXrecord
280
     1
102
DISPLAYNAME
  1
Imperial24
102
FLAGS
 90
        0
  0
XRECORD
  5
8D6
102
{ACAD_REACTORS
330
8D5
102
}
330
8D5
100
AcDbXrecord
280
     1
102
SHADEPLOT
 70
     0
102
SHADEPLOTRESLEVEL
 70
     2
102
SHADEPLOTCUSTOMDPI
 70
   300
  0
XRECORD
  5
8D8
102
{ACAD_REACTORS
330
8D7
102
}
330
8D7
100
AcDbXrecord
280
     1
102
SHADEPLOT
 70
     0
102
SHADEPLOTRESLEVEL
 70
     2
102
SHADEPLOTCUSTOMDPI
 70
   300
  0
XRECORD
  5
89D
102
{ACAD_REACTORS
330
836
102
}
330
836
100
AcDbXrecord
280
     1
102
MATERIAL
148
0.0
149
0.0
149
0.0
 93
        0
 94
      127
282
     0
 72
     0
 77
     0
171
     0
175
     0
179
     0
273
     0
  0
XRECORD
  5
838
102
{ACAD_REACTORS
330
836
102
}
330
836
100
AcDbXrecord
280
     1
270
     1
271
     1
  0
XRECORD
  5
837
102
{ACAD_REACTORS
330
836
102
}
330
836
100
AcDbXrecord
280
     1
270
     1
271
     1
  0
XRECORD
  5
83B
102
{ACAD_REACTORS
330
836
102
}
330
836
100
AcDbXrecord
280
     1
270
     1
271
     1
  0
XRECORD
  5
83A
102
{ACAD_REACTORS
330
836
102
}
330
836
100
AcDbXrecord
280
     1
270
     1
271
     1
  0
XRECORD
  5
83C
102
{ACAD_REACTORS
330
836
102
}
330
836
100
AcDbXrecord
280
     1
270
     1
271
     1
  0
XRECORD
  5
839
102
{ACAD_REACTORS
330
836
102
}
330
836
100
AcDbXrecord
280
     1
270
     1
271
     1
  0
XRECORD
  5
89C
102
{ACAD_REACTORS
330
82E
102
}
330
82E
100
AcDbXrecord
280
     1
102
MATERIAL
148
0.0
149
0.0
149
0.0
 93
        0
 94
      127
282
     0
 72
     0
 77
     0
171
     0
175
     0
179
     0
273
     0
  0
XRECORD
  5
830
102
{ACAD_REACTORS
330
82E
102
}
330
82E
100
AcDbXrecord
280
     1
270
     1
271
     1
  0
XRECORD
  5
82F
102
{ACAD_REACTORS
330
82E
102
}
330
82E
100
AcDbXrecord
280
     1
270
     1
271
     1
  0
XRECORD
  5
833
102
{ACAD_REACTORS
330
82E
102
}
330
82E
100
AcDbXrecord
280
     1
270
     1
271
     1
  0
XRECORD
  5
832
102
{ACAD_REACTORS
330
82E
102
}
330
82E
100
AcDbXrecord
280
     1
270
     1
271
     1
  0
XRECORD
  5
834
102
{ACAD_REACTORS
330
82E
102
}
330
82E
100
AcDbXrecord
280
     1
270
     1
271
     1
  0
XRECORD
  5
831
102
{ACAD_REACTORS
330
82E
102
}
330
82E
100
AcDbXrecord
280
     1
270
     1
271
     1
  0
XRECORD
  5
89E
102
{ACAD_REACTORS
330
83E
102
}
330
83E
100
AcDbXrecord
280
     1
102
MATERIAL
148
0.0
149
0.0
149
0.0
 93
        0
 94
      127
282
     0
 72
     0
 77
     0
171
     0
175
     0
179
     0
273
     0
  0
XRECORD
  5
840
102
{ACAD_REACTORS
330
83E
102
}
330
83E
100
AcDbXrecord
280
     1
270
     1
271
     1
  0
XRECORD
  5
83F
102
{ACAD_REACTORS
330
83E
102
}
330
83E
100
AcDbXrecord
280
     1
270
     1
271
     1
  0
XRECORD
  5
843
102
{ACAD_REACTORS
330
83E
102
}
330
83E
100
AcDbXrecord
280
     1
270
     1
271
     1
  0
XRECORD
  5
842
102
{ACAD_REACTORS
330
83E
102
}
330
83E
100
AcDbXrecord
280
     1
270
     1
271
     1
  0
XRECORD
  5
844
102
{ACAD_REACTORS
330
83E
102
}
330
83E
100
AcDbXrecord
280
     1
270
     1
271
     1
  0
XRECORD
  5
841
102
{ACAD_REACTORS
330
83E
102
}
330
83E
100
AcDbXrecord
280
     1
270
     1
271
     1
  0
XRECORD
  5
8D2
102
{ACAD_REACTORS
330
8D1
102
}
330
8D1
100
AcDbXrecord
280
     1
102
DISPLAYNAME
  1
Imperial24
102
FLAGS
 90
        0
  0
CELLSTYLEMAP
  5
899
102
{ACAD_REACTORS
330
898
102
}
330
898
100
AcDbCellStyleMap
 90
        3
300
CELLSTYLE
  1
TABLEFORMAT_BEGIN
 90
        5
170
     1
 91
        0
 92
    32768
 62
   257
 93
        1
300
CONTENTFORMAT
  1
CONTENTFORMAT_BEGIN
 90
        0
 91
        0
 92
      512
 93
        0
300

 40
0.0
140
1.0
 94
        5
 62
     0
340
652
144
0.25
309
CONTENTFORMAT_END
171
     0
 94
        0
309
TABLEFORMAT_END
  1
CELLSTYLE_BEGIN
 90
        1
 91
        1
300
_TITLE
309
CELLSTYLE_END
300
CELLSTYLE
  1
TABLEFORMAT_BEGIN
 90
        5
170
     1
 91
        0
 92
        0
 62
   257
 93
        1
300
CONTENTFORMAT
  1
CONTENTFORMAT_BEGIN
 90
        0
 91
        0
 92
      512
 93
        0
300

 40
0.0
140
1.0
 94
        5
 62
     0
340
652
144
0.18
309
CONTENTFORMAT_END
171
     0
 94
        0
309
TABLEFORMAT_END
  1
CELLSTYLE_BEGIN
 90
        2
 91
        1
300
_HEADER
309
CELLSTYLE_END
300
CELLSTYLE
  1
TABLEFORMAT_BEGIN
 90
        5
170
     1
 91
        0
 92
        0
 62
   257
 93
        1
300
CONTENTFORMAT
  1
CONTENTFORMAT_BEGIN
 90
        0
 91
        0
 92
      512
 93
        0
300

 40
0.0
140
1.0
 94
        2
 62
     0
340
652
144
0.18
309
CONTENTFORMAT_END
171
     0
 94
        0
309
TABLEFORMAT_END
  1
CELLSTYLE_BEGIN
 90
        3
 91
        2
300
_DATA
309
CELLSTYLE_END
  0
XRECORD
  5
8CF
102
{ACAD_REACTORS
330
898
102
}
330
898
100
AcDbXrecord
280
     1
102
ACAD_ROUNDTRIP_PRE2007_TABLESTYLE
 90
      512
 91
        0
  1

 92
      512
 93
        0
  2

 94
      512
 95
        0
  3

  0
XRECORD
  5
8AA
102
{ACAD_REACTORS
330
8A9
102
}
330
8A9
100
AcDbXrecord
280
     1
102
RTVSPost2010Prop28
280
     1
102
RTVSPost2010PropOp28
 70
     1
102
RTVSPost2010Prop29
280
     1
102
RTVSPost2010PropOp29
 70
     1
102
RTVSPost2010Prop30
280
     0
102
RTVSPost2010PropOp30
 70
     1
102
RTVSPost2010Prop31
280
     0
102
RTVSPost2010PropOp31
 70
     1
102
RTVSPost2010Prop32
280
     0
102
RTVSPost2010PropOp32
 70
     1
102
RTVSPost2010Prop33
280
     0
102
RTVSPost2010PropOp33
 70
     1
102
RTVSPost2010Prop34
280
     0
102
RTVSPost2010PropOp34
 70
     1
102
RTVSPost2010Prop35
280
     0
102
RTVSPost2010PropOp35
 70
     1
102
RTVSPost2010Prop36
280
     0
102
RTVSPost2010PropOp36
 70
     1
102
RTVSPost2010Prop37
 90
       50
102
RTVSPost2010PropOp37
 70
     1
102
RTVSPost2010Prop38
140
0.0
102
RTVSPost2010PropOp38
 70
     1
102
RTVSPost2010Prop39
140
1.0
102
RTVSPost2010PropOp39
 70
     1
102
RTVSPost2010Prop40
 90
        0
102
RTVSPost2010PropOp40
 70
     1
102
RTVSPost2010Prop41ColorIndex
 90
       18
102
RTVSPost2010Prop41ColorRGB
 90
        0
102
RTVSPost2010PropOp41
 70
     1
102
RTVSPost2010Prop42
 90
       50
102
RTVSPost2010PropOp42
 70
     1
102
RTVSPost2010Prop43
 90
        3
102
RTVSPost2010PropOp43
 70
     1
102
RTVSPost2010Prop44ColorIndex
 90
        5
102
RTVSPost2010Prop44ColorRGB
 90
      255
102
RTVSPost2010PropOp44
 70
     1
102
RTVSPost2010Prop45
280
     0
102
RTVSPost2010PropOp45
 70
     1
102
RTVSPost2010Prop46
 90
       50
102
RTVSPost2010PropOp46
 70
     1
102
RTVSPost2010Prop47
 90
       50
102
RTVSPost2010PropOp47
 70
     1
102
RTVSPost2010Prop48
 90
       50
102
RTVSPost2010PropOp48
 70
     1
102
RTVSPost2010Prop49
280
     0
102
RTVSPost2010PropOp49
 70
     1
102
RTVSPost2010Prop50
 90
       50
102
RTVSPost2010PropOp50
 70
     1
102
RTVSPost2010Prop51ColorIndex
 90
      256
102
RTVSPost2010Prop51ColorRGB
 90
-16777216
102
RTVSPost2010PropOp51
 70
     0
102
RTVSPost2010Prop52
140
1.0
102
RTVSPost2010PropOp52
 70
     0
102
RTVSPost2010Prop53
 90
        2
102
RTVSPost2010PropOp53
 70
     1
102
RTVSPost2010Prop54
  1
strokes_ogs.tif
102
RTVSPost2010PropOp54
 70
     1
102
RTVSPost2010Prop55
280
     0
102
RTVSPost2010PropOp55
 70
     1
102
RTVSPost2010Prop56
140
1.0
102
RTVSPost2010PropOp56
 70
     1
102
RTVSPost2010Prop57
140
1.0
102
RTVSPost2010PropOp57
 70
     1
102
RTVSPropertyOp0
 70
     1
102
RTVSPropertyOp1
 70
     1
102
RTVSPropertyOp2
 70
     1
102
RTVSPropertyOp3
 70
     1
102
RTVSPropertyOp4
 70
     1
102
RTVSPropertyOp5
 70
     1
102
RTVSPropertyOp6
 70
     1
102
RTVSPropertyOp7
 70
     1
102
RTVSPropertyOp8
 70
     1
102
RTVSPropertyOp9
 70
     1
102
RTVSPropertyOp10
 70
     1
102
RTVSPropertyOp11
 70
     1
102
RTVSPropertyOp12
 70
     1
102
RTVSPropertyOp13
 70
     1
102
RTVSPropertyOp14
 70
     1
102
RTVSPropertyOp15
 70
     1
102
RTVSPropertyOp16
 70
     1
102
RTVSPropertyOp17
 70
     1
102
RTVSPropertyOp18
 70
     1
102
RTVSPropertyOp19
 70
     1
102
RTVSPropertyOp20
 70
     1
102
RTVSPropertyOp21
 70
     1
102
RTVSPropertyOp22
 70
     1
102
RTVSPropertyOp23
 70
     1
102
RTVSPropertyOp24
 70
     1
102
RTVSPropertyOp25
 70
     1
102
RTVSPropertyOp26
 70
     1
102
RTVSPropertyOp27
 70
     1
102
RTVSPropertyOp28
 70
     1
102
RTVSPropertyOp29
 70
     1
102
RTVSPropertyOp30
 70
     1
102
RTVSPropertyOp31
 70
     1
102
RTVSPropertyOp32
 70
     1
102
RTVSPropertyOp33
 70
     1
102
RTVSPropertyOp34
 70
     1
102
RTVSPropertyOp35
 70
     1
102
RTVSPropertyOp36
 70
     1
102
RTVSPropertyOp37
 70
     1
102
RTVSPropertyOp38
 70
     1
102
RTVSPropertyOp39
 70
     1
102
RTVSPropertyOp40
 70
     1
102
RTVSPropertyOp41
 70
     1
102
RTVSPropertyOp42
 70
     1
102
RTVSPropertyOp43
 70
     1
102
RTVSPropertyOp44
 70
     1
102
RTVSPropertyOp45
 70
     1
102
RTVSPropertyOp46
 70
     1
102
RTVSPropertyOp47
 70
     1
102
RTVSPropertyOp48
 70
     1
102
RTVSPropertyOp49
 70
     1
102
RTVSPropertyOp50
 70
     1
102
RTVSPropertyOp51
 70
     0
102
RTVSPropertyOp52
 70
     0
102
RTVSPropertyOp53
 70
     1
102
RTVSPropertyOp54
 70
     1
102
RTVSPropertyOp55
 70
     1
102
RTVSPropertyOp56
 70
     1
102
RTVSPropertyOp57
 70
     1
102
RTVSPropertyOp58
 70
     1
102
RTVSPropertyOp59
 70
     1
102
RTVSPropertyOp60
 70
     1
102
RTVSPropertyOp61
 70
     1
102
RTVSPropertyOp62
 70
     1
  0
XRECORD
  5
8A8
102
{ACAD_REACTORS
330
8A7
102
}
330
8A7
100
AcDbXrecord
280
     1
102
RTVSPost2010Prop28
280
     0
102
RTVSPost2010PropOp28
 70
     1
102
RTVSPost2010Prop29
280
     1
102
RTVSPost2010PropOp29
 70
     1
102
RTVSPost2010Prop30
280
     1
102
RTVSPost2010PropOp30
 70
     1
102
RTVSPost2010Prop31
280
     0
102
RTVSPost2010PropOp31
 70
     1
102
RTVSPost2010Prop32
280
     0
102
RTVSPost2010PropOp32
 70
     1
102
RTVSPost2010Prop33
280
     0
102
RTVSPost2010PropOp33
 70
     1
102
RTVSPost2010Prop34
280
     0
102
RTVSPost2010PropOp34
 70
     1
102
RTVSPost2010Prop35
280
     0
102
RTVSPost2010PropOp35
 70
     1
102
RTVSPost2010Prop36
280
     0
102
RTVSPost2010PropOp36
 70
     1
102
RTVSPost2010Prop37
 90
       50
102
RTVSPost2010PropOp37
 70
     1
102
RTVSPost2010Prop38
140
0.0
102
RTVSPost2010PropOp38
 70
     1
102
RTVSPost2010Prop39
140
1.0
102
RTVSPost2010PropOp39
 70
     1
102
RTVSPost2010Prop40
 90
        0
102
RTVSPost2010PropOp40
 70
     1
102
RTVSPost2010Prop41ColorIndex
 90
       18
102
RTVSPost2010Prop41ColorRGB
 90
        0
102
RTVSPost2010PropOp41
 70
     1
102
RTVSPost2010Prop42
 90
       50
102
RTVSPost2010PropOp42
 70
     1
102
RTVSPost2010Prop43
 90
        3
102
RTVSPost2010PropOp43
 70
     1
102
RTVSPost2010Prop44ColorIndex
 90
        5
102
RTVSPost2010Prop44ColorRGB
 90
      255
102
RTVSPost2010PropOp44
 70
     1
102
RTVSPost2010Prop45
280
     0
102
RTVSPost2010PropOp45
 70
     1
102
RTVSPost2010Prop46
 90
       50
102
RTVSPost2010PropOp46
 70
     1
102
RTVSPost2010Prop47
 90
       50
102
RTVSPost2010PropOp47
 70
     1
102
RTVSPost2010Prop48
 90
       50
102
RTVSPost2010PropOp48
 70
     1
102
RTVSPost2010Prop49
280
     0
102
RTVSPost2010PropOp49
 70
     1
102
RTVSPost2010Prop50
 90
       50
102
RTVSPost2010PropOp50
 70
     1
102
RTVSPost2010Prop51ColorIndex
 90
      256
102
RTVSPost2010Prop51ColorRGB
 90
-16777216
102
RTVSPost2010PropOp51
 70
     0
102
RTVSPost2010Prop52
140
1.0
102
RTVSPost2010PropOp52
 70
     0
102
RTVSPost2010Prop53
 90
        2
102
RTVSPost2010PropOp53
 70
     1
102
RTVSPost2010Prop54
  1
strokes_ogs.tif
102
RTVSPost2010PropOp54
 70
     1
102
RTVSPost2010Prop55
280
     0
102
RTVSPost2010PropOp55
 70
     1
102
RTVSPost2010Prop56
140
1.0
102
RTVSPost2010PropOp56
 70
     1
102
RTVSPost2010Prop57
140
1.0
102
RTVSPost2010PropOp57
 70
     1
102
RTVSPropertyOp0
 70
     1
102
RTVSPropertyOp1
 70
     1
102
RTVSPropertyOp2
 70
     1
102
RTVSPropertyOp3
 70
     1
102
RTVSPropertyOp4
 70
     1
102
RTVSPropertyOp5
 70
     1
102
RTVSPropertyOp6
 70
     1
102
RTVSPropertyOp7
 70
     1
102
RTVSPropertyOp8
 70
     1
102
RTVSPropertyOp9
 70
     1
102
RTVSPropertyOp10
 70
     1
102
RTVSPropertyOp11
 70
     1
102
RTVSPropertyOp12
 70
     1
102
RTVSPropertyOp13
 70
     1
102
RTVSPropertyOp14
 70
     1
102
RTVSPropertyOp15
 70
     1
102
RTVSPropertyOp16
 70
     1
102
RTVSPropertyOp17
 70
     1
102
RTVSPropertyOp18
 70
     1
102
RTVSPropertyOp19
 70
     1
102
RTVSPropertyOp20
 70
     1
102
RTVSPropertyOp21
 70
     1
102
RTVSPropertyOp22
 70
     1
102
RTVSPropertyOp23
 70
     1
102
RTVSPropertyOp24
 70
     1
102
RTVSPropertyOp25
 70
     1
102
RTVSPropertyOp26
 70
     1
102
RTVSPropertyOp27
 70
     1
102
RTVSPropertyOp28
 70
     1
102
RTVSPropertyOp29
 70
     1
102
RTVSPropertyOp30
 70
     1
102
RTVSPropertyOp31
 70
     1
102
RTVSPropertyOp32
 70
     1
102
RTVSPropertyOp33
 70
     1
102
RTVSPropertyOp34
 70
     1
102
RTVSPropertyOp35
 70
     1
102
RTVSPropertyOp36
 70
     1
102
RTVSPropertyOp37
 70
     1
102
RTVSPropertyOp38
 70
     1
102
RTVSPropertyOp39
 70
     1
102
RTVSPropertyOp40
 70
     1
102
RTVSPropertyOp41
 70
     1
102
RTVSPropertyOp42
 70
     1
102
RTVSPropertyOp43
 70
     1
102
RTVSPropertyOp44
 70
     1
102
RTVSPropertyOp45
 70
     1
102
RTVSPropertyOp46
 70
     1
102
RTVSPropertyOp47
 70
     1
102
RTVSPropertyOp48
 70
     1
102
RTVSPropertyOp49
 70
     1
102
RTVSPropertyOp50
 70
     1
102
RTVSPropertyOp51
 70
     0
102
RTVSPropertyOp52
 70
     0
102
RTVSPropertyOp53
 70
     1
102
RTVSPropertyOp54
 70
     1
102
RTVSPropertyOp55
 70
     1
102
RTVSPropertyOp56
 70
     1
102
RTVSPropertyOp57
 70
     1
102
RTVSPropertyOp58
 70
     1
102
RTVSPropertyOp59
 70
     1
102
RTVSPropertyOp60
 70
     1
102
RTVSPropertyOp61
 70
     1
102
RTVSPropertyOp62
 70
     1
  0
XRECORD
  5
8B6
102
{ACAD_REACTORS
330
8B5
102
}
330
8B5
100
AcDbXrecord
280
     1
102
RTVSPost2010Prop28
280
     0
102
RTVSPost2010PropOp28
 70
     1
102
RTVSPost2010Prop29
280
     1
102
RTVSPost2010PropOp29
 70
     1
102
RTVSPost2010Prop30
280
     1
102
RTVSPost2010PropOp30
 70
     1
102
RTVSPost2010Prop31
280
     0
102
RTVSPost2010PropOp31
 70
     1
102
RTVSPost2010Prop32
280
     0
102
RTVSPost2010PropOp32
 70
     1
102
RTVSPost2010Prop33
280
     0
102
RTVSPost2010PropOp33
 70
     1
102
RTVSPost2010Prop34
280
     0
102
RTVSPost2010PropOp34
 70
     1
102
RTVSPost2010Prop35
280
     0
102
RTVSPost2010PropOp35
 70
     1
102
RTVSPost2010Prop36
280
     0
102
RTVSPost2010PropOp36
 70
     1
102
RTVSPost2010Prop37
 90
       50
102
RTVSPost2010PropOp37
 70
     1
102
RTVSPost2010Prop38
140
0.0
102
RTVSPost2010PropOp38
 70
     1
102
RTVSPost2010Prop39
140
1.0
102
RTVSPost2010PropOp39
 70
     1
102
RTVSPost2010Prop40
 90
        0
102
RTVSPost2010PropOp40
 70
     1
102
RTVSPost2010Prop41ColorIndex
 90
       18
102
RTVSPost2010Prop41ColorRGB
 90
        0
102
RTVSPost2010PropOp41
 70
     1
102
RTVSPost2010Prop42
 90
       50
102
RTVSPost2010PropOp42
 70
     1
102
RTVSPost2010Prop43
 90
        3
102
RTVSPost2010PropOp43
 70
     1
102
RTVSPost2010Prop44ColorIndex
 90
        5
102
RTVSPost2010Prop44ColorRGB
 90
      255
102
RTVSPost2010PropOp44
 70
     1
102
RTVSPost2010Prop45
280
     0
102
RTVSPost2010PropOp45
 70
     1
102
RTVSPost2010Prop46
 90
       50
102
RTVSPost2010PropOp46
 70
     1
102
RTVSPost2010Prop47
 90
       50
102
RTVSPost2010PropOp47
 70
     1
102
RTVSPost2010Prop48
 90
       50
102
RTVSPost2010PropOp48
 70
     1
102
RTVSPost2010Prop49
280
     0
102
RTVSPost2010PropOp49
 70
     1
102
RTVSPost2010Prop50
 90
       50
102
RTVSPost2010PropOp50
 70
     1
102
RTVSPost2010Prop51ColorIndex
 90
      256
102
RTVSPost2010Prop51ColorRGB
 90
-16777216
102
RTVSPost2010PropOp51
 70
     0
102
RTVSPost2010Prop52
140
1.0
102
RTVSPost2010PropOp52
 70
     0
102
RTVSPost2010Prop53
 90
        2
102
RTVSPost2010PropOp53
 70
     1
102
RTVSPost2010Prop54
  1
strokes_ogs.tif
102
RTVSPost2010PropOp54
 70
     1
102
RTVSPost2010Prop55
280
     0
102
RTVSPost2010PropOp55
 70
     1
102
RTVSPost2010Prop56
140
1.0
102
RTVSPost2010PropOp56
 70
     1
102
RTVSPost2010Prop57
140
1.0
102
RTVSPost2010PropOp57
 70
     1
102
RTVSPropertyOp0
 70
     1
102
RTVSPropertyOp1
 70
     1
102
RTVSPropertyOp2
 70
     1
102
RTVSPropertyOp3
 70
     1
102
RTVSPropertyOp4
 70
     1
102
RTVSPropertyOp5
 70
     1
102
RTVSPropertyOp6
 70
     1
102
RTVSPropertyOp7
 70
     1
102
RTVSPropertyOp8
 70
     1
102
RTVSPropertyOp9
 70
     1
102
RTVSPropertyOp10
 70
     1
102
RTVSPropertyOp11
 70
     1
102
RTVSPropertyOp12
 70
     1
102
RTVSPropertyOp13
 70
     1
102
RTVSPropertyOp14
 70
     1
102
RTVSPropertyOp15
 70
     1
102
RTVSPropertyOp16
 70
     1
102
RTVSPropertyOp17
 70
     1
102
RTVSPropertyOp18
 70
     1
102
RTVSPropertyOp19
 70
     1
102
RTVSPropertyOp20
 70
     1
102
RTVSPropertyOp21
 70
     1
102
RTVSPropertyOp22
 70
     1
102
RTVSPropertyOp23
 70
     1
102
RTVSPropertyOp24
 70
     1
102
RTVSPropertyOp25
 70
     1
102
RTVSPropertyOp26
 70
     1
102
RTVSPropertyOp27
 70
     1
102
RTVSPropertyOp28
 70
     1
102
RTVSPropertyOp29
 70
     1
102
RTVSPropertyOp30
 70
     1
102
RTVSPropertyOp31
 70
     1
102
RTVSPropertyOp32
 70
     1
102
RTVSPropertyOp33
 70
     1
102
RTVSPropertyOp34
 70
     1
102
RTVSPropertyOp35
 70
     1
102
RTVSPropertyOp36
 70
     1
102
RTVSPropertyOp37
 70
     1
102
RTVSPropertyOp38
 70
     1
102
RTVSPropertyOp39
 70
     1
102
RTVSPropertyOp40
 70
     1
102
RTVSPropertyOp41
 70
     1
102
RTVSPropertyOp42
 70
     1
102
RTVSPropertyOp43
 70
     1
102
RTVSPropertyOp44
 70
     1
102
RTVSPropertyOp45
 70
     1
102
RTVSPropertyOp46
 70
     1
102
RTVSPropertyOp47
 70
     1
102
RTVSPropertyOp48
 70
     1
102
RTVSPropertyOp49
 70
     1
102
RTVSPropertyOp50
 70
     1
102
RTVSPropertyOp51
 70
     0
102
RTVSPropertyOp52
 70
     0
102
RTVSPropertyOp53
 70
     1
102
RTVSPropertyOp54
 70
     1
102
RTVSPropertyOp55
 70
     1
102
RTVSPropertyOp56
 70
     1
102
RTVSPropertyOp57
 70
     1
102
RTVSPropertyOp58
 70
     1
102
RTVSPropertyOp59
 70
     1
102
RTVSPropertyOp60
 70
     1
102
RTVSPropertyOp61
 70
     1
102
RTVSPropertyOp62
 70
     1
  0
XRECORD
  5
8BE
102
{ACAD_REACTORS
330
8BD
102
}
330
8BD
100
AcDbXrecord
280
     1
102
RTVSPost2010Prop28
280
     0
102
RTVSPost2010PropOp28
 70
     1
102
RTVSPost2010Prop29
280
     1
102
RTVSPost2010PropOp29
 70
     1
102
RTVSPost2010Prop30
280
     1
102
RTVSPost2010PropOp30
 70
     1
102
RTVSPost2010Prop31
280
     0
102
RTVSPost2010PropOp31
 70
     1
102
RTVSPost2010Prop32
280
     0
102
RTVSPost2010PropOp32
 70
     1
102
RTVSPost2010Prop33
280
     0
102
RTVSPost2010PropOp33
 70
     1
102
RTVSPost2010Prop34
280
     0
102
RTVSPost2010PropOp34
 70
     1
102
RTVSPost2010Prop35
280
     0
102
RTVSPost2010PropOp35
 70
     1
102
RTVSPost2010Prop36
280
     0
102
RTVSPost2010PropOp36
 70
     1
102
RTVSPost2010Prop37
 90
       50
102
RTVSPost2010PropOp37
 70
     1
102
RTVSPost2010Prop38
140
0.0
102
RTVSPost2010PropOp38
 70
     1
102
RTVSPost2010Prop39
140
1.0
102
RTVSPost2010PropOp39
 70
     1
102
RTVSPost2010Prop40
 90
        0
102
RTVSPost2010PropOp40
 70
     1
102
RTVSPost2010Prop41ColorIndex
 90
       18
102
RTVSPost2010Prop41ColorRGB
 90
        0
102
RTVSPost2010PropOp41
 70
     1
102
RTVSPost2010Prop42
 90
       50
102
RTVSPost2010PropOp42
 70
     1
102
RTVSPost2010Prop43
 90
        3
102
RTVSPost2010PropOp43
 70
     1
102
RTVSPost2010Prop44ColorIndex
 90
        5
102
RTVSPost2010Prop44ColorRGB
 90
      255
102
RTVSPost2010PropOp44
 70
     1
102
RTVSPost2010Prop45
280
     0
102
RTVSPost2010PropOp45
 70
     1
102
RTVSPost2010Prop46
 90
       50
102
RTVSPost2010PropOp46
 70
     1
102
RTVSPost2010Prop47
 90
       50
102
RTVSPost2010PropOp47
 70
     1
102
RTVSPost2010Prop48
 90
       50
102
RTVSPost2010PropOp48
 70
     1
102
RTVSPost2010Prop49
280
     0
102
RTVSPost2010PropOp49
 70
     1
102
RTVSPost2010Prop50
 90
       50
102
RTVSPost2010PropOp50
 70
     1
102
RTVSPost2010Prop51ColorIndex
 90
      256
102
RTVSPost2010Prop51ColorRGB
 90
-16777216
102
RTVSPost2010PropOp51
 70
     0
102
RTVSPost2010Prop52
140
1.0
102
RTVSPost2010PropOp52
 70
     0
102
RTVSPost2010Prop53
 90
        2
102
RTVSPost2010PropOp53
 70
     1
102
RTVSPost2010Prop54
  1
strokes_ogs.tif
102
RTVSPost2010PropOp54
 70
     1
102
RTVSPost2010Prop55
280
     0
102
RTVSPost2010PropOp55
 70
     1
102
RTVSPost2010Prop56
140
1.0
102
RTVSPost2010PropOp56
 70
     1
102
RTVSPost2010Prop57
140
1.0
102
RTVSPost2010PropOp57
 70
     1
102
RTVSPropertyOp0
 70
     1
102
RTVSPropertyOp1
 70
     1
102
RTVSPropertyOp2
 70
     1
102
RTVSPropertyOp3
 70
     1
102
RTVSPropertyOp4
 70
     1
102
RTVSPropertyOp5
 70
     1
102
RTVSPropertyOp6
 70
     1
102
RTVSPropertyOp7
 70
     1
102
RTVSPropertyOp8
 70
     1
102
RTVSPropertyOp9
 70
     1
102
RTVSPropertyOp10
 70
     1
102
RTVSPropertyOp11
 70
     1
102
RTVSPropertyOp12
 70
     1
102
RTVSPropertyOp13
 70
     1
102
RTVSPropertyOp14
 70
     1
102
RTVSPropertyOp15
 70
     1
102
RTVSPropertyOp16
 70
     1
102
RTVSPropertyOp17
 70
     1
102
RTVSPropertyOp18
 70
     1
102
RTVSPropertyOp19
 70
     1
102
RTVSPropertyOp20
 70
     1
102
RTVSPropertyOp21
 70
     1
102
RTVSPropertyOp22
 70
     1
102
RTVSPropertyOp23
 70
     1
102
RTVSPropertyOp24
 70
     1
102
RTVSPropertyOp25
 70
     1
102
RTVSPropertyOp26
 70
     1
102
RTVSPropertyOp27
 70
     1
102
RTVSPropertyOp28
 70
     1
102
RTVSPropertyOp29
 70
     1
102
RTVSPropertyOp30
 70
     1
102
RTVSPropertyOp31
 70
     1
102
RTVSPropertyOp32
 70
     1
102
RTVSPropertyOp33
 70
     1
102
RTVSPropertyOp34
 70
     1
102
RTVSPropertyOp35
 70
     1
102
RTVSPropertyOp36
 70
     1
102
RTVSPropertyOp37
 70
     1
102
RTVSPropertyOp38
 70
     1
102
RTVSPropertyOp39
 70
     1
102
RTVSPropertyOp40
 70
     1
102
RTVSPropertyOp41
 70
     1
102
RTVSPropertyOp42
 70
     1
102
RTVSPropertyOp43
 70
     1
102
RTVSPropertyOp44
 70
     1
102
RTVSPropertyOp45
 70
     1
102
RTVSPropertyOp46
 70
     1
102
RTVSPropertyOp47
 70
     1
102
RTVSPropertyOp48
 70
     1
102
RTVSPropertyOp49
 70
     1
102
RTVSPropertyOp50
 70
     1
102
RTVSPropertyOp51
 70
     0
102
RTVSPropertyOp52
 70
     0
102
RTVSPropertyOp53
 70
     1
102
RTVSPropertyOp54
 70
     1
102
RTVSPropertyOp55
 70
     1
102
RTVSPropertyOp56
 70
     1
102
RTVSPropertyOp57
 70
     1
102
RTVSPropertyOp58
 70
     1
102
RTVSPropertyOp59
 70
     1
102
RTVSPropertyOp60
 70
     1
102
RTVSPropertyOp61
 70
     1
102
RTVSPropertyOp62
 70
     1
  0
XRECORD
  5
8B0
102
{ACAD_REACTORS
330
8AF
102
}
330
8AF
100
AcDbXrecord
280
     1
102
RTVSPost2010Prop28
280
     0
102
RTVSPost2010PropOp28
 70
     1
102
RTVSPost2010Prop29
280
     1
102
RTVSPost2010PropOp29
 70
     1
102
RTVSPost2010Prop30
280
     1
102
RTVSPost2010PropOp30
 70
     1
102
RTVSPost2010Prop31
280
     0
102
RTVSPost2010PropOp31
 70
     1
102
RTVSPost2010Prop32
280
     0
102
RTVSPost2010PropOp32
 70
     1
102
RTVSPost2010Prop33
280
     0
102
RTVSPost2010PropOp33
 70
     1
102
RTVSPost2010Prop34
280
     0
102
RTVSPost2010PropOp34
 70
     1
102
RTVSPost2010Prop35
280
     0
102
RTVSPost2010PropOp35
 70
     1
102
RTVSPost2010Prop36
280
     0
102
RTVSPost2010PropOp36
 70
     1
102
RTVSPost2010Prop37
 90
       50
102
RTVSPost2010PropOp37
 70
     1
102
RTVSPost2010Prop38
140
0.0
102
RTVSPost2010PropOp38
 70
     1
102
RTVSPost2010Prop39
140
1.0
102
RTVSPost2010PropOp39
 70
     1
102
RTVSPost2010Prop40
 90
        0
102
RTVSPost2010PropOp40
 70
     1
102
RTVSPost2010Prop41ColorIndex
 90
       18
102
RTVSPost2010Prop41ColorRGB
 90
        0
102
RTVSPost2010PropOp41
 70
     1
102
RTVSPost2010Prop42
 90
       50
102
RTVSPost2010PropOp42
 70
     1
102
RTVSPost2010Prop43
 90
        3
102
RTVSPost2010PropOp43
 70
     1
102
RTVSPost2010Prop44ColorIndex
 90
        5
102
RTVSPost2010Prop44ColorRGB
 90
      255
102
RTVSPost2010PropOp44
 70
     1
102
RTVSPost2010Prop45
280
     0
102
RTVSPost2010PropOp45
 70
     1
102
RTVSPost2010Prop46
 90
       50
102
RTVSPost2010PropOp46
 70
     1
102
RTVSPost2010Prop47
 90
       50
102
RTVSPost2010PropOp47
 70
     1
102
RTVSPost2010Prop48
 90
       50
102
RTVSPost2010PropOp48
 70
     1
102
RTVSPost2010Prop49
280
     0
102
RTVSPost2010PropOp49
 70
     1
102
RTVSPost2010Prop50
 90
       50
102
RTVSPost2010PropOp50
 70
     1
102
RTVSPost2010Prop51ColorIndex
 90
      256
102
RTVSPost2010Prop51ColorRGB
 90
-16777216
102
RTVSPost2010PropOp51
 70
     0
102
RTVSPost2010Prop52
140
1.0
102
RTVSPost2010PropOp52
 70
     0
102
RTVSPost2010Prop53
 90
        2
102
RTVSPost2010PropOp53
 70
     1
102
RTVSPost2010Prop54
  1
strokes_ogs.tif
102
RTVSPost2010PropOp54
 70
     1
102
RTVSPost2010Prop55
280
     0
102
RTVSPost2010PropOp55
 70
     1
102
RTVSPost2010Prop56
140
1.0
102
RTVSPost2010PropOp56
 70
     1
102
RTVSPost2010Prop57
140
1.0
102
RTVSPost2010PropOp57
 70
     1
102
RTVSPropertyOp0
 70
     1
102
RTVSPropertyOp1
 70
     1
102
RTVSPropertyOp2
 70
     1
102
RTVSPropertyOp3
 70
     1
102
RTVSPropertyOp4
 70
     1
102
RTVSPropertyOp5
 70
     1
102
RTVSPropertyOp6
 70
     1
102
RTVSPropertyOp7
 70
     1
102
RTVSPropertyOp8
 70
     1
102
RTVSPropertyOp9
 70
     1
102
RTVSPropertyOp10
 70
     1
102
RTVSPropertyOp11
 70
     1
102
RTVSPropertyOp12
 70
     1
102
RTVSPropertyOp13
 70
     1
102
RTVSPropertyOp14
 70
     1
102
RTVSPropertyOp15
 70
     1
102
RTVSPropertyOp16
 70
     1
102
RTVSPropertyOp17
 70
     1
102
RTVSPropertyOp18
 70
     1
102
RTVSPropertyOp19
 70
     1
102
RTVSPropertyOp20
 70
     1
102
RTVSPropertyOp21
 70
     1
102
RTVSPropertyOp22
 70
     1
102
RTVSPropertyOp23
 70
     1
102
RTVSPropertyOp24
 70
     1
102
RTVSPropertyOp25
 70
     1
102
RTVSPropertyOp26
 70
     1
102
RTVSPropertyOp27
 70
     1
102
RTVSPropertyOp28
 70
     1
102
RTVSPropertyOp29
 70
     1
102
RTVSPropertyOp30
 70
     1
102
RTVSPropertyOp31
 70
     1
102
RTVSPropertyOp32
 70
     1
102
RTVSPropertyOp33
 70
     1
102
RTVSPropertyOp34
 70
     1
102
RTVSPropertyOp35
 70
     1
102
RTVSPropertyOp36
 70
     1
102
RTVSPropertyOp37
 70
     1
102
RTVSPropertyOp38
 70
     1
102
RTVSPropertyOp39
 70
     1
102
RTVSPropertyOp40
 70
     1
102
RTVSPropertyOp41
 70
     1
102
RTVSPropertyOp42
 70
     1
102
RTVSPropertyOp43
 70
     1
102
RTVSPropertyOp44
 70
     1
102
RTVSPropertyOp45
 70
     1
102
RTVSPropertyOp46
 70
     1
102
RTVSPropertyOp47
 70
     1
102
RTVSPropertyOp48
 70
     1
102
RTVSPropertyOp49
 70
     1
102
RTVSPropertyOp50
 70
     1
102
RTVSPropertyOp51
 70
     0
102
RTVSPropertyOp52
 70
     0
102
RTVSPropertyOp53
 70
     1
102
RTVSPropertyOp54
 70
     1
102
RTVSPropertyOp55
 70
     1
102
RTVSPropertyOp56
 70
     1
102
RTVSPropertyOp57
 70
     1
102
RTVSPropertyOp58
 70
     1
102
RTVSPropertyOp59
 70
     1
102
RTVSPropertyOp60
 70
     1
102
RTVSPropertyOp61
 70
     1
102
RTVSPropertyOp62
 70
     1
  0
XRECORD
  5
8B4
102
{ACAD_REACTORS
330
8B3
102
}
330
8B3
100
AcDbXrecord
280
     1
102
RTVSPost2010Prop28
280
     0
102
RTVSPost2010PropOp28
 70
     1
102
RTVSPost2010Prop29
280
     1
102
RTVSPost2010PropOp29
 70
     1
102
RTVSPost2010Prop30
280
     1
102
RTVSPost2010PropOp30
 70
     1
102
RTVSPost2010Prop31
280
     0
102
RTVSPost2010PropOp31
 70
     1
102
RTVSPost2010Prop32
280
     0
102
RTVSPost2010PropOp32
 70
     1
102
RTVSPost2010Prop33
280
     0
102
RTVSPost2010PropOp33
 70
     1
102
RTVSPost2010Prop34
280
     0
102
RTVSPost2010PropOp34
 70
     1
102
RTVSPost2010Prop35
280
     0
102
RTVSPost2010PropOp35
 70
     1
102
RTVSPost2010Prop36
280
     0
102
RTVSPost2010PropOp36
 70
     1
102
RTVSPost2010Prop37
 90
       50
102
RTVSPost2010PropOp37
 70
     1
102
RTVSPost2010Prop38
140
0.0
102
RTVSPost2010PropOp38
 70
     1
102
RTVSPost2010Prop39
140
1.0
102
RTVSPost2010PropOp39
 70
     1
102
RTVSPost2010Prop40
 90
        0
102
RTVSPost2010PropOp40
 70
     1
102
RTVSPost2010Prop41ColorIndex
 90
       18
102
RTVSPost2010Prop41ColorRGB
 90
        0
102
RTVSPost2010PropOp41
 70
     1
102
RTVSPost2010Prop42
 90
       50
102
RTVSPost2010PropOp42
 70
     1
102
RTVSPost2010Prop43
 90
        3
102
RTVSPost2010PropOp43
 70
     1
102
RTVSPost2010Prop44ColorIndex
 90
        5
102
RTVSPost2010Prop44ColorRGB
 90
      255
102
RTVSPost2010PropOp44
 70
     1
102
RTVSPost2010Prop45
280
     0
102
RTVSPost2010PropOp45
 70
     1
102
RTVSPost2010Prop46
 90
       50
102
RTVSPost2010PropOp46
 70
     1
102
RTVSPost2010Prop47
 90
       50
102
RTVSPost2010PropOp47
 70
     1
102
RTVSPost2010Prop48
 90
       50
102
RTVSPost2010PropOp48
 70
     1
102
RTVSPost2010Prop49
280
     0
102
RTVSPost2010PropOp49
 70
     1
102
RTVSPost2010Prop50
 90
       50
102
RTVSPost2010PropOp50
 70
     1
102
RTVSPost2010Prop51ColorIndex
 90
      256
102
RTVSPost2010Prop51ColorRGB
 90
-16777216
102
RTVSPost2010PropOp51
 70
     0
102
RTVSPost2010Prop52
140
1.0
102
RTVSPost2010PropOp52
 70
     0
102
RTVSPost2010Prop53
 90
        2
102
RTVSPost2010PropOp53
 70
     1
102
RTVSPost2010Prop54
  1
strokes_ogs.tif
102
RTVSPost2010PropOp54
 70
     1
102
RTVSPost2010Prop55
280
     0
102
RTVSPost2010PropOp55
 70
     1
102
RTVSPost2010Prop56
140
1.0
102
RTVSPost2010PropOp56
 70
     1
102
RTVSPost2010Prop57
140
1.0
102
RTVSPost2010PropOp57
 70
     1
102
RTVSPropertyOp0
 70
     1
102
RTVSPropertyOp1
 70
     1
102
RTVSPropertyOp2
 70
     1
102
RTVSPropertyOp3
 70
     1
102
RTVSPropertyOp4
 70
     1
102
RTVSPropertyOp5
 70
     1
102
RTVSPropertyOp6
 70
     1
102
RTVSPropertyOp7
 70
     1
102
RTVSPropertyOp8
 70
     1
102
RTVSPropertyOp9
 70
     1
102
RTVSPropertyOp10
 70
     1
102
RTVSPropertyOp11
 70
     1
102
RTVSPropertyOp12
 70
     1
102
RTVSPropertyOp13
 70
     1
102
RTVSPropertyOp14
 70
     1
102
RTVSPropertyOp15
 70
     1
102
RTVSPropertyOp16
 70
     1
102
RTVSPropertyOp17
 70
     1
102
RTVSPropertyOp18
 70
     1
102
RTVSPropertyOp19
 70
     1
102
RTVSPropertyOp20
 70
     1
102
RTVSPropertyOp21
 70
     1
102
RTVSPropertyOp22
 70
     1
102
RTVSPropertyOp23
 70
     1
102
RTVSPropertyOp24
 70
     1
102
RTVSPropertyOp25
 70
     1
102
RTVSPropertyOp26
 70
     1
102
RTVSPropertyOp27
 70
     1
102
RTVSPropertyOp28
 70
     1
102
RTVSPropertyOp29
 70
     1
102
RTVSPropertyOp30
 70
     1
102
RTVSPropertyOp31
 70
     1
102
RTVSPropertyOp32
 70
     1
102
RTVSPropertyOp33
 70
     1
102
RTVSPropertyOp34
 70
     1
102
RTVSPropertyOp35
 70
     1
102
RTVSPropertyOp36
 70
     1
102
RTVSPropertyOp37
 70
     1
102
RTVSPropertyOp38
 70
     1
102
RTVSPropertyOp39
 70
     1
102
RTVSPropertyOp40
 70
     1
102
RTVSPropertyOp41
 70
     1
102
RTVSPropertyOp42
 70
     1
102
RTVSPropertyOp43
 70
     1
102
RTVSPropertyOp44
 70
     1
102
RTVSPropertyOp45
 70
     1
102
RTVSPropertyOp46
 70
     1
102
RTVSPropertyOp47
 70
     1
102
RTVSPropertyOp48
 70
     1
102
RTVSPropertyOp49
 70
     1
102
RTVSPropertyOp50
 70
     1
102
RTVSPropertyOp51
 70
     0
102
RTVSPropertyOp52
 70
     0
102
RTVSPropertyOp53
 70
     1
102
RTVSPropertyOp54
 70
     1
102
RTVSPropertyOp55
 70
     1
102
RTVSPropertyOp56
 70
     1
102
RTVSPropertyOp57
 70
     1
102
RTVSPropertyOp58
 70
     1
102
RTVSPropertyOp59
 70
     1
102
RTVSPropertyOp60
 70
     1
102
RTVSPropertyOp61
 70
     1
102
RTVSPropertyOp62
 70
     1
  0
XRECORD
  5
8CE
102
{ACAD_REACTORS
330
8CD
102
}
330
8CD
100
AcDbXrecord
280
     1
102
RTVSPost2010Prop28
280
     0
102
RTVSPost2010PropOp28
 70
     1
102
RTVSPost2010Prop29
280
     1
102
RTVSPost2010PropOp29
 70
     1
102
RTVSPost2010Prop30
280
     1
102
RTVSPost2010PropOp30
 70
     1
102
RTVSPost2010Prop31
280
     0
102
RTVSPost2010PropOp31
 70
     1
102
RTVSPost2010Prop32
280
     0
102
RTVSPost2010PropOp32
 70
     1
102
RTVSPost2010Prop33
280
     0
102
RTVSPost2010PropOp33
 70
     1
102
RTVSPost2010Prop34
280
     0
102
RTVSPost2010PropOp34
 70
     1
102
RTVSPost2010Prop35
280
     0
102
RTVSPost2010PropOp35
 70
     1
102
RTVSPost2010Prop36
280
     0
102
RTVSPost2010PropOp36
 70
     1
102
RTVSPost2010Prop37
 90
       50
102
RTVSPost2010PropOp37
 70
     0
102
RTVSPost2010Prop38
140
0.0
102
RTVSPost2010PropOp38
 70
     0
102
RTVSPost2010Prop39
140
1.0
102
RTVSPost2010PropOp39
 70
     0
102
RTVSPost2010Prop40
 90
        0
102
RTVSPost2010PropOp40
 70
     0
102
RTVSPost2010Prop41ColorIndex
 90
       18
102
RTVSPost2010Prop41ColorRGB
 90
        0
102
RTVSPost2010PropOp41
 70
     0
102
RTVSPost2010Prop42
 90
       50
102
RTVSPost2010PropOp42
 70
     0
102
RTVSPost2010Prop43
 90
        3
102
RTVSPost2010PropOp43
 70
     0
102
RTVSPost2010Prop44ColorIndex
 90
        5
102
RTVSPost2010Prop44ColorRGB
 90
      255
102
RTVSPost2010PropOp44
 70
     0
102
RTVSPost2010Prop45
280
     0
102
RTVSPost2010PropOp45
 70
     1
102
RTVSPost2010Prop46
 90
       50
102
RTVSPost2010PropOp46
 70
     0
102
RTVSPost2010Prop47
 90
       50
102
RTVSPost2010PropOp47
 70
     0
102
RTVSPost2010Prop48
 90
       50
102
RTVSPost2010PropOp48
 70
     0
102
RTVSPost2010Prop49
280
     0
102
RTVSPost2010PropOp49
 70
     1
102
RTVSPost2010Prop50
 90
       50
102
RTVSPost2010PropOp50
 70
     0
102
RTVSPost2010Prop51ColorIndex
 90
      256
102
RTVSPost2010Prop51ColorRGB
 90
-16777216
102
RTVSPost2010PropOp51
 70
     0
102
RTVSPost2010Prop52
140
1.0
102
RTVSPost2010PropOp52
 70
     0
102
RTVSPost2010Prop53
 90
        2
102
RTVSPost2010PropOp53
 70
     0
102
RTVSPost2010Prop54
  1
strokes_ogs.tif
102
RTVSPost2010PropOp54
 70
     0
102
RTVSPost2010Prop55
280
     0
102
RTVSPost2010PropOp55
 70
     1
102
RTVSPost2010Prop56
140
1.0
102
RTVSPost2010PropOp56
 70
     0
102
RTVSPost2010Prop57
140
1.0
102
RTVSPost2010PropOp57
 70
     0
102
RTVSPropertyOp0
 70
     0
102
RTVSPropertyOp1
 70
     0
102
RTVSPropertyOp2
 70
     0
102
RTVSPropertyOp3
 70
     0
102
RTVSPropertyOp4
 70
     0
102
RTVSPropertyOp5
 70
     0
102
RTVSPropertyOp6
 70
     0
102
RTVSPropertyOp7
 70
     0
102
RTVSPropertyOp8
 70
     0
102
RTVSPropertyOp9
 70
     0
102
RTVSPropertyOp10
 70
     0
102
RTVSPropertyOp11
 70
     0
102
RTVSPropertyOp12
 70
     0
102
RTVSPropertyOp13
 70
     0
102
RTVSPropertyOp14
 70
     2
102
RTVSPropertyOp15
 70
     0
102
RTVSPropertyOp16
 70
     0
102
RTVSPropertyOp17
 70
     0
102
RTVSPropertyOp18
 70
     0
102
RTVSPropertyOp19
 70
     0
102
RTVSPropertyOp20
 70
     0
102
RTVSPropertyOp21
 70
     0
102
RTVSPropertyOp22
 70
     0
102
RTVSPropertyOp23
 70
     0
102
RTVSPropertyOp24
 70
     0
102
RTVSPropertyOp25
 70
     0
102
RTVSPropertyOp26
 70
     0
102
RTVSPropertyOp27
 70
     0
102
RTVSPropertyOp28
 70
     1
102
RTVSPropertyOp29
 70
     1
102
RTVSPropertyOp30
 70
     1
102
RTVSPropertyOp31
 70
     1
102
RTVSPropertyOp32
 70
     1
102
RTVSPropertyOp33
 70
     1
102
RTVSPropertyOp34
 70
     1
102
RTVSPropertyOp35
 70
     1
102
RTVSPropertyOp36
 70
     1
102
RTVSPropertyOp37
 70
     0
102
RTVSPropertyOp38
 70
     0
102
RTVSPropertyOp39
 70
     0
102
RTVSPropertyOp40
 70
     0
102
RTVSPropertyOp41
 70
     0
102
RTVSPropertyOp42
 70
     0
102
RTVSPropertyOp43
 70
     0
102
RTVSPropertyOp44
 70
     0
102
RTVSPropertyOp45
 70
     1
102
RTVSPropertyOp46
 70
     0
102
RTVSPropertyOp47
 70
     0
102
RTVSPropertyOp48
 70
     0
102
RTVSPropertyOp49
 70
     1
102
RTVSPropertyOp50
 70
     0
102
RTVSPropertyOp51
 70
     0
102
RTVSPropertyOp52
 70
     0
102
RTVSPropertyOp53
 70
     0
102
RTVSPropertyOp54
 70
     0
102
RTVSPropertyOp55
 70
     1
102
RTVSPropertyOp56
 70
     0
102
RTVSPropertyOp57
 70
     0
102
RTVSPropertyOp58
 70
     0
102
RTVSPropertyOp59
 70
     0
102
RTVSPropertyOp60
 70
     0
102
RTVSPropertyOp61
 70
     0
102
RTVSPropertyOp62
 70
     0
  0
XRECORD
  5
8BC
102
{ACAD_REACTORS
330
8BB
102
}
330
8BB
100
AcDbXrecord
280
     1
102
RTVSPost2010Prop28
280
     0
102
RTVSPost2010PropOp28
 70
     1
102
RTVSPost2010Prop29
280
     1
102
RTVSPost2010PropOp29
 70
     1
102
RTVSPost2010Prop30
280
     1
102
RTVSPost2010PropOp30
 70
     1
102
RTVSPost2010Prop31
280
     0
102
RTVSPost2010PropOp31
 70
     1
102
RTVSPost2010Prop32
280
     0
102
RTVSPost2010PropOp32
 70
     1
102
RTVSPost2010Prop33
280
     0
102
RTVSPost2010PropOp33
 70
     1
102
RTVSPost2010Prop34
280
     0
102
RTVSPost2010PropOp34
 70
     1
102
RTVSPost2010Prop35
280
     0
102
RTVSPost2010PropOp35
 70
     1
102
RTVSPost2010Prop36
280
     0
102
RTVSPost2010PropOp36
 70
     1
102
RTVSPost2010Prop37
 90
       50
102
RTVSPost2010PropOp37
 70
     1
102
RTVSPost2010Prop38
140
0.0
102
RTVSPost2010PropOp38
 70
     1
102
RTVSPost2010Prop39
140
1.0
102
RTVSPost2010PropOp39
 70
     1
102
RTVSPost2010Prop40
 90
        0
102
RTVSPost2010PropOp40
 70
     1
102
RTVSPost2010Prop41ColorIndex
 90
       18
102
RTVSPost2010Prop41ColorRGB
 90
        0
102
RTVSPost2010PropOp41
 70
     1
102
RTVSPost2010Prop42
 90
       50
102
RTVSPost2010PropOp42
 70
     1
102
RTVSPost2010Prop43
 90
        3
102
RTVSPost2010PropOp43
 70
     1
102
RTVSPost2010Prop44ColorIndex
 90
        5
102
RTVSPost2010Prop44ColorRGB
 90
      255
102
RTVSPost2010PropOp44
 70
     1
102
RTVSPost2010Prop45
280
     0
102
RTVSPost2010PropOp45
 70
     1
102
RTVSPost2010Prop46
 90
       50
102
RTVSPost2010PropOp46
 70
     1
102
RTVSPost2010Prop47
 90
       50
102
RTVSPost2010PropOp47
 70
     1
102
RTVSPost2010Prop48
 90
       50
102
RTVSPost2010PropOp48
 70
     1
102
RTVSPost2010Prop49
280
     0
102
RTVSPost2010PropOp49
 70
     1
102
RTVSPost2010Prop50
 90
       50
102
RTVSPost2010PropOp50
 70
     1
102
RTVSPost2010Prop51ColorIndex
 90
      256
102
RTVSPost2010Prop51ColorRGB
 90
-16777216
102
RTVSPost2010PropOp51
 70
     0
102
RTVSPost2010Prop52
140
1.0
102
RTVSPost2010PropOp52
 70
     0
102
RTVSPost2010Prop53
 90
        2
102
RTVSPost2010PropOp53
 70
     1
102
RTVSPost2010Prop54
  1
strokes_ogs.tif
102
RTVSPost2010PropOp54
 70
     1
102
RTVSPost2010Prop55
280
     0
102
RTVSPost2010PropOp55
 70
     1
102
RTVSPost2010Prop56
140
1.0
102
RTVSPost2010PropOp56
 70
     1
102
RTVSPost2010Prop57
140
1.0
102
RTVSPost2010PropOp57
 70
     1
102
RTVSPropertyOp0
 70
     1
102
RTVSPropertyOp1
 70
     1
102
RTVSPropertyOp2
 70
     1
102
RTVSPropertyOp3
 70
     1
102
RTVSPropertyOp4
 70
     1
102
RTVSPropertyOp5
 70
     1
102
RTVSPropertyOp6
 70
     1
102
RTVSPropertyOp7
 70
     1
102
RTVSPropertyOp8
 70
     1
102
RTVSPropertyOp9
 70
     1
102
RTVSPropertyOp10
 70
     1
102
RTVSPropertyOp11
 70
     1
102
RTVSPropertyOp12
 70
     1
102
RTVSPropertyOp13
 70
     1
102
RTVSPropertyOp14
 70
     1
102
RTVSPropertyOp15
 70
     1
102
RTVSPropertyOp16
 70
     1
102
RTVSPropertyOp17
 70
     1
102
RTVSPropertyOp18
 70
     1
102
RTVSPropertyOp19
 70
     1
102
RTVSPropertyOp20
 70
     1
102
RTVSPropertyOp21
 70
     1
102
RTVSPropertyOp22
 70
     1
102
RTVSPropertyOp23
 70
     1
102
RTVSPropertyOp24
 70
     1
102
RTVSPropertyOp25
 70
     1
102
RTVSPropertyOp26
 70
     1
102
RTVSPropertyOp27
 70
     1
102
RTVSPropertyOp28
 70
     1
102
RTVSPropertyOp29
 70
     1
102
RTVSPropertyOp30
 70
     1
102
RTVSPropertyOp31
 70
     1
102
RTVSPropertyOp32
 70
     1
102
RTVSPropertyOp33
 70
     1
102
RTVSPropertyOp34
 70
     1
102
RTVSPropertyOp35
 70
     1
102
RTVSPropertyOp36
 70
     1
102
RTVSPropertyOp37
 70
     1
102
RTVSPropertyOp38
 70
     1
102
RTVSPropertyOp39
 70
     1
102
RTVSPropertyOp40
 70
     1
102
RTVSPropertyOp41
 70
     1
102
RTVSPropertyOp42
 70
     1
102
RTVSPropertyOp43
 70
     1
102
RTVSPropertyOp44
 70
     1
102
RTVSPropertyOp45
 70
     1
102
RTVSPropertyOp46
 70
     1
102
RTVSPropertyOp47
 70
     1
102
RTVSPropertyOp48
 70
     1
102
RTVSPropertyOp49
 70
     1
102
RTVSPropertyOp50
 70
     1
102
RTVSPropertyOp51
 70
     0
102
RTVSPropertyOp52
 70
     0
102
RTVSPropertyOp53
 70
     1
102
RTVSPropertyOp54
 70
     1
102
RTVSPropertyOp55
 70
     1
102
RTVSPropertyOp56
 70
     1
102
RTVSPropertyOp57
 70
     1
102
RTVSPropertyOp58
 70
     1
102
RTVSPropertyOp59
 70
     1
102
RTVSPropertyOp60
 70
     1
102
RTVSPropertyOp61
 70
     1
102
RTVSPropertyOp62
 70
     1
  0
XRECORD
  5
8A0
102
{ACAD_REACTORS
330
89F
102
}
330
89F
100
AcDbXrecord
280
     1
102
RTVSPost2010Prop28
280
     0
102
RTVSPost2010PropOp28
 70
     1
102
RTVSPost2010Prop29
280
     1
102
RTVSPost2010PropOp29
 70
     1
102
RTVSPost2010Prop30
280
     1
102
RTVSPost2010PropOp30
 70
     1
102
RTVSPost2010Prop31
280
     0
102
RTVSPost2010PropOp31
 70
     1
102
RTVSPost2010Prop32
280
     0
102
RTVSPost2010PropOp32
 70
     1
102
RTVSPost2010Prop33
280
     0
102
RTVSPost2010PropOp33
 70
     1
102
RTVSPost2010Prop34
280
     0
102
RTVSPost2010PropOp34
 70
     1
102
RTVSPost2010Prop35
280
     0
102
RTVSPost2010PropOp35
 70
     1
102
RTVSPost2010Prop36
280
     0
102
RTVSPost2010PropOp36
 70
     1
102
RTVSPost2010Prop37
 90
       50
102
RTVSPost2010PropOp37
 70
     1
102
RTVSPost2010Prop38
140
0.0
102
RTVSPost2010PropOp38
 70
     1
102
RTVSPost2010Prop39
140
1.0
102
RTVSPost2010PropOp39
 70
     1
102
RTVSPost2010Prop40
 90
        0
102
RTVSPost2010PropOp40
 70
     1
102
RTVSPost2010Prop41ColorIndex
 90
       18
102
RTVSPost2010Prop41ColorRGB
 90
        0
102
RTVSPost2010PropOp41
 70
     1
102
RTVSPost2010Prop42
 90
       50
102
RTVSPost2010PropOp42
 70
     1
102
RTVSPost2010Prop43
 90
        3
102
RTVSPost2010PropOp43
 70
     1
102
RTVSPost2010Prop44ColorIndex
 90
        5
102
RTVSPost2010Prop44ColorRGB
 90
      255
102
RTVSPost2010PropOp44
 70
     1
102
RTVSPost2010Prop45
280
     0
102
RTVSPost2010PropOp45
 70
     1
102
RTVSPost2010Prop46
 90
       50
102
RTVSPost2010PropOp46
 70
     1
102
RTVSPost2010Prop47
 90
       50
102
RTVSPost2010PropOp47
 70
     1
102
RTVSPost2010Prop48
 90
       50
102
RTVSPost2010PropOp48
 70
     1
102
RTVSPost2010Prop49
280
     0
102
RTVSPost2010PropOp49
 70
     1
102
RTVSPost2010Prop50
 90
       50
102
RTVSPost2010PropOp50
 70
     1
102
RTVSPost2010Prop51ColorIndex
 90
      256
102
RTVSPost2010Prop51ColorRGB
 90
-16777216
102
RTVSPost2010PropOp51
 70
     0
102
RTVSPost2010Prop52
140
1.0
102
RTVSPost2010PropOp52
 70
     0
102
RTVSPost2010Prop53
 90
        2
102
RTVSPost2010PropOp53
 70
     1
102
RTVSPost2010Prop54
  1
strokes_ogs.tif
102
RTVSPost2010PropOp54
 70
     1
102
RTVSPost2010Prop55
280
     0
102
RTVSPost2010PropOp55
 70
     1
102
RTVSPost2010Prop56
140
1.0
102
RTVSPost2010PropOp56
 70
     1
102
RTVSPost2010Prop57
140
1.0
102
RTVSPost2010PropOp57
 70
     1
102
RTVSPropertyOp0
 70
     1
102
RTVSPropertyOp1
 70
     1
102
RTVSPropertyOp2
 70
     1
102
RTVSPropertyOp3
 70
     1
102
RTVSPropertyOp4
 70
     1
102
RTVSPropertyOp5
 70
     1
102
RTVSPropertyOp6
 70
     1
102
RTVSPropertyOp7
 70
     1
102
RTVSPropertyOp8
 70
     1
102
RTVSPropertyOp9
 70
     1
102
RTVSPropertyOp10
 70
     1
102
RTVSPropertyOp11
 70
     1
102
RTVSPropertyOp12
 70
     1
102
RTVSPropertyOp13
 70
     1
102
RTVSPropertyOp14
 70
     1
102
RTVSPropertyOp15
 70
     1
102
RTVSPropertyOp16
 70
     1
102
RTVSPropertyOp17
 70
     1
102
RTVSPropertyOp18
 70
     1
102
RTVSPropertyOp19
 70
     1
102
RTVSPropertyOp20
 70
     1
102
RTVSPropertyOp21
 70
     1
102
RTVSPropertyOp22
 70
     1
102
RTVSPropertyOp23
 70
     1
102
RTVSPropertyOp24
 70
     1
102
RTVSPropertyOp25
 70
     1
102
RTVSPropertyOp26
 70
     1
102
RTVSPropertyOp27
 70
     1
102
RTVSPropertyOp28
 70
     1
102
RTVSPropertyOp29
 70
     1
102
RTVSPropertyOp30
 70
     1
102
RTVSPropertyOp31
 70
     1
102
RTVSPropertyOp32
 70
     1
102
RTVSPropertyOp33
 70
     1
102
RTVSPropertyOp34
 70
     1
102
RTVSPropertyOp35
 70
     1
102
RTVSPropertyOp36
 70
     1
102
RTVSPropertyOp37
 70
     1
102
RTVSPropertyOp38
 70
     1
102
RTVSPropertyOp39
 70
     1
102
RTVSPropertyOp40
 70
     1
102
RTVSPropertyOp41
 70
     1
102
RTVSPropertyOp42
 70
     1
102
RTVSPropertyOp43
 70
     1
102
RTVSPropertyOp44
 70
     1
102
RTVSPropertyOp45
 70
     1
102
RTVSPropertyOp46
 70
     1
102
RTVSPropertyOp47
 70
     1
102
RTVSPropertyOp48
 70
     1
102
RTVSPropertyOp49
 70
     1
102
RTVSPropertyOp50
 70
     1
102
RTVSPropertyOp51
 70
     0
102
RTVSPropertyOp52
 70
     0
102
RTVSPropertyOp53
 70
     1
102
RTVSPropertyOp54
 70
     1
102
RTVSPropertyOp55
 70
     1
102
RTVSPropertyOp56
 70
     1
102
RTVSPropertyOp57
 70
     1
102
RTVSPropertyOp58
 70
     1
102
RTVSPropertyOp59
 70
     1
102
RTVSPropertyOp60
 70
     1
102
RTVSPropertyOp61
 70
     1
102
RTVSPropertyOp62
 70
     1
  0
XRECORD
  5
8A2
102
{ACAD_REACTORS
330
8A1
102
}
330
8A1
100
AcDbXrecord
280
     1
102
RTVSPost2010Prop28
280
     0
102
RTVSPost2010PropOp28
 70
     1
102
RTVSPost2010Prop29
280
     1
102
RTVSPost2010PropOp29
 70
     1
102
RTVSPost2010Prop30
280
     1
102
RTVSPost2010PropOp30
 70
     1
102
RTVSPost2010Prop31
280
     0
102
RTVSPost2010PropOp31
 70
     1
102
RTVSPost2010Prop32
280
     0
102
RTVSPost2010PropOp32
 70
     1
102
RTVSPost2010Prop33
280
     0
102
RTVSPost2010PropOp33
 70
     1
102
RTVSPost2010Prop34
280
     0
102
RTVSPost2010PropOp34
 70
     1
102
RTVSPost2010Prop35
280
     0
102
RTVSPost2010PropOp35
 70
     1
102
RTVSPost2010Prop36
280
     0
102
RTVSPost2010PropOp36
 70
     1
102
RTVSPost2010Prop37
 90
       50
102
RTVSPost2010PropOp37
 70
     1
102
RTVSPost2010Prop38
140
0.0
102
RTVSPost2010PropOp38
 70
     1
102
RTVSPost2010Prop39
140
1.0
102
RTVSPost2010PropOp39
 70
     1
102
RTVSPost2010Prop40
 90
        0
102
RTVSPost2010PropOp40
 70
     1
102
RTVSPost2010Prop41ColorIndex
 90
       18
102
RTVSPost2010Prop41ColorRGB
 90
        0
102
RTVSPost2010PropOp41
 70
     1
102
RTVSPost2010Prop42
 90
       50
102
RTVSPost2010PropOp42
 70
     1
102
RTVSPost2010Prop43
 90
        3
102
RTVSPost2010PropOp43
 70
     1
102
RTVSPost2010Prop44ColorIndex
 90
        5
102
RTVSPost2010Prop44ColorRGB
 90
      255
102
RTVSPost2010PropOp44
 70
     1
102
RTVSPost2010Prop45
280
     0
102
RTVSPost2010PropOp45
 70
     1
102
RTVSPost2010Prop46
 90
       50
102
RTVSPost2010PropOp46
 70
     1
102
RTVSPost2010Prop47
 90
       50
102
RTVSPost2010PropOp47
 70
     1
102
RTVSPost2010Prop48
 90
       50
102
RTVSPost2010PropOp48
 70
     1
102
RTVSPost2010Prop49
280
     0
102
RTVSPost2010PropOp49
 70
     1
102
RTVSPost2010Prop50
 90
       50
102
RTVSPost2010PropOp50
 70
     1
102
RTVSPost2010Prop51ColorIndex
 90
      256
102
RTVSPost2010Prop51ColorRGB
 90
-16777216
102
RTVSPost2010PropOp51
 70
     0
102
RTVSPost2010Prop52
140
1.0
102
RTVSPost2010PropOp52
 70
     0
102
RTVSPost2010Prop53
 90
        2
102
RTVSPost2010PropOp53
 70
     1
102
RTVSPost2010Prop54
  1
strokes_ogs.tif
102
RTVSPost2010PropOp54
 70
     1
102
RTVSPost2010Prop55
280
     0
102
RTVSPost2010PropOp55
 70
     1
102
RTVSPost2010Prop56
140
1.0
102
RTVSPost2010PropOp56
 70
     1
102
RTVSPost2010Prop57
140
1.0
102
RTVSPost2010PropOp57
 70
     1
102
RTVSPropertyOp0
 70
     1
102
RTVSPropertyOp1
 70
     1
102
RTVSPropertyOp2
 70
     1
102
RTVSPropertyOp3
 70
     1
102
RTVSPropertyOp4
 70
     1
102
RTVSPropertyOp5
 70
     1
102
RTVSPropertyOp6
 70
     1
102
RTVSPropertyOp7
 70
     1
102
RTVSPropertyOp8
 70
     1
102
RTVSPropertyOp9
 70
     1
102
RTVSPropertyOp10
 70
     1
102
RTVSPropertyOp11
 70
     1
102
RTVSPropertyOp12
 70
     1
102
RTVSPropertyOp13
 70
     1
102
RTVSPropertyOp14
 70
     1
102
RTVSPropertyOp15
 70
     1
102
RTVSPropertyOp16
 70
     1
102
RTVSPropertyOp17
 70
     1
102
RTVSPropertyOp18
 70
     1
102
RTVSPropertyOp19
 70
     1
102
RTVSPropertyOp20
 70
     1
102
RTVSPropertyOp21
 70
     1
102
RTVSPropertyOp22
 70
     1
102
RTVSPropertyOp23
 70
     1
102
RTVSPropertyOp24
 70
     1
102
RTVSPropertyOp25
 70
     1
102
RTVSPropertyOp26
 70
     1
102
RTVSPropertyOp27
 70
     1
102
RTVSPropertyOp28
 70
     1
102
RTVSPropertyOp29
 70
     1
102
RTVSPropertyOp30
 70
     1
102
RTVSPropertyOp31
 70
     1
102
RTVSPropertyOp32
 70
     1
102
RTVSPropertyOp33
 70
     1
102
RTVSPropertyOp34
 70
     1
102
RTVSPropertyOp35
 70
     1
102
RTVSPropertyOp36
 70
     1
102
RTVSPropertyOp37
 70
     1
102
RTVSPropertyOp38
 70
     1
102
RTVSPropertyOp39
 70
     1
102
RTVSPropertyOp40
 70
     1
102
RTVSPropertyOp41
 70
     1
102
RTVSPropertyOp42
 70
     1
102
RTVSPropertyOp43
 70
     1
102
RTVSPropertyOp44
 70
     1
102
RTVSPropertyOp45
 70
     1
102
RTVSPropertyOp46
 70
     1
102
RTVSPropertyOp47
 70
     1
102
RTVSPropertyOp48
 70
     1
102
RTVSPropertyOp49
 70
     1
102
RTVSPropertyOp50
 70
     1
102
RTVSPropertyOp51
 70
     0
102
RTVSPropertyOp52
 70
     0
102
RTVSPropertyOp53
 70
     1
102
RTVSPropertyOp54
 70
     1
102
RTVSPropertyOp55
 70
     1
102
RTVSPropertyOp56
 70
     1
102
RTVSPropertyOp57
 70
     1
102
RTVSPropertyOp58
 70
     1
102
RTVSPropertyOp59
 70
     1
102
RTVSPropertyOp60
 70
     1
102
RTVSPropertyOp61
 70
     1
102
RTVSPropertyOp62
 70
     1
  0
XRECORD
  5
8A4
102
{ACAD_REACTORS
330
8A3
102
}
330
8A3
100
AcDbXrecord
280
     1
102
RTVSPost2010Prop28
280
     0
102
RTVSPost2010PropOp28
 70
     1
102
RTVSPost2010Prop29
280
     1
102
RTVSPost2010PropOp29
 70
     1
102
RTVSPost2010Prop30
280
     1
102
RTVSPost2010PropOp30
 70
     1
102
RTVSPost2010Prop31
280
     0
102
RTVSPost2010PropOp31
 70
     1
102
RTVSPost2010Prop32
280
     0
102
RTVSPost2010PropOp32
 70
     1
102
RTVSPost2010Prop33
280
     0
102
RTVSPost2010PropOp33
 70
     1
102
RTVSPost2010Prop34
280
     0
102
RTVSPost2010PropOp34
 70
     1
102
RTVSPost2010Prop35
280
     0
102
RTVSPost2010PropOp35
 70
     1
102
RTVSPost2010Prop36
280
     0
102
RTVSPost2010PropOp36
 70
     1
102
RTVSPost2010Prop37
 90
       50
102
RTVSPost2010PropOp37
 70
     1
102
RTVSPost2010Prop38
140
0.0
102
RTVSPost2010PropOp38
 70
     1
102
RTVSPost2010Prop39
140
1.0
102
RTVSPost2010PropOp39
 70
     1
102
RTVSPost2010Prop40
 90
        0
102
RTVSPost2010PropOp40
 70
     1
102
RTVSPost2010Prop41ColorIndex
 90
       18
102
RTVSPost2010Prop41ColorRGB
 90
        0
102
RTVSPost2010PropOp41
 70
     1
102
RTVSPost2010Prop42
 90
       50
102
RTVSPost2010PropOp42
 70
     1
102
RTVSPost2010Prop43
 90
        3
102
RTVSPost2010PropOp43
 70
     1
102
RTVSPost2010Prop44ColorIndex
 90
        5
102
RTVSPost2010Prop44ColorRGB
 90
      255
102
RTVSPost2010PropOp44
 70
     1
102
RTVSPost2010Prop45
280
     0
102
RTVSPost2010PropOp45
 70
     1
102
RTVSPost2010Prop46
 90
       50
102
RTVSPost2010PropOp46
 70
     1
102
RTVSPost2010Prop47
 90
       50
102
RTVSPost2010PropOp47
 70
     1
102
RTVSPost2010Prop48
 90
       50
102
RTVSPost2010PropOp48
 70
     1
102
RTVSPost2010Prop49
280
     0
102
RTVSPost2010PropOp49
 70
     1
102
RTVSPost2010Prop50
 90
       50
102
RTVSPost2010PropOp50
 70
     1
102
RTVSPost2010Prop51ColorIndex
 90
      256
102
RTVSPost2010Prop51ColorRGB
 90
-16777216
102
RTVSPost2010PropOp51
 70
     0
102
RTVSPost2010Prop52
140
1.0
102
RTVSPost2010PropOp52
 70
     0
102
RTVSPost2010Prop53
 90
        2
102
RTVSPost2010PropOp53
 70
     1
102
RTVSPost2010Prop54
  1
strokes_ogs.tif
102
RTVSPost2010PropOp54
 70
     1
102
RTVSPost2010Prop55
280
     0
102
RTVSPost2010PropOp55
 70
     1
102
RTVSPost2010Prop56
140
1.0
102
RTVSPost2010PropOp56
 70
     1
102
RTVSPost2010Prop57
140
1.0
102
RTVSPost2010PropOp57
 70
     1
102
RTVSPropertyOp0
 70
     1
102
RTVSPropertyOp1
 70
     1
102
RTVSPropertyOp2
 70
     1
102
RTVSPropertyOp3
 70
     1
102
RTVSPropertyOp4
 70
     1
102
RTVSPropertyOp5
 70
     1
102
RTVSPropertyOp6
 70
     1
102
RTVSPropertyOp7
 70
     1
102
RTVSPropertyOp8
 70
     1
102
RTVSPropertyOp9
 70
     1
102
RTVSPropertyOp10
 70
     1
102
RTVSPropertyOp11
 70
     1
102
RTVSPropertyOp12
 70
     1
102
RTVSPropertyOp13
 70
     1
102
RTVSPropertyOp14
 70
     1
102
RTVSPropertyOp15
 70
     1
102
RTVSPropertyOp16
 70
     1
102
RTVSPropertyOp17
 70
     1
102
RTVSPropertyOp18
 70
     1
102
RTVSPropertyOp19
 70
     1
102
RTVSPropertyOp20
 70
     1
102
RTVSPropertyOp21
 70
     1
102
RTVSPropertyOp22
 70
     1
102
RTVSPropertyOp23
 70
     1
102
RTVSPropertyOp24
 70
     1
102
RTVSPropertyOp25
 70
     1
102
RTVSPropertyOp26
 70
     1
102
RTVSPropertyOp27
 70
     1
102
RTVSPropertyOp28
 70
     1
102
RTVSPropertyOp29
 70
     1
102
RTVSPropertyOp30
 70
     1
102
RTVSPropertyOp31
 70
     1
102
RTVSPropertyOp32
 70
     1
102
RTVSPropertyOp33
 70
     1
102
RTVSPropertyOp34
 70
     1
102
RTVSPropertyOp35
 70
     1
102
RTVSPropertyOp36
 70
     1
102
RTVSPropertyOp37
 70
     1
102
RTVSPropertyOp38
 70
     1
102
RTVSPropertyOp39
 70
     1
102
RTVSPropertyOp40
 70
     1
102
RTVSPropertyOp41
 70
     1
102
RTVSPropertyOp42
 70
     1
102
RTVSPropertyOp43
 70
     1
102
RTVSPropertyOp44
 70
     1
102
RTVSPropertyOp45
 70
     1
102
RTVSPropertyOp46
 70
     1
102
RTVSPropertyOp47
 70
     1
102
RTVSPropertyOp48
 70
     1
102
RTVSPropertyOp49
 70
     1
102
RTVSPropertyOp50
 70
     1
102
RTVSPropertyOp51
 70
     0
102
RTVSPropertyOp52
 70
     0
102
RTVSPropertyOp53
 70
     1
102
RTVSPropertyOp54
 70
     1
102
RTVSPropertyOp55
 70
     1
102
RTVSPropertyOp56
 70
     1
102
RTVSPropertyOp57
 70
     1
102
RTVSPropertyOp58
 70
     1
102
RTVSPropertyOp59
 70
     1
102
RTVSPropertyOp60
 70
     1
102
RTVSPropertyOp61
 70
     1
102
RTVSPropertyOp62
 70
     1
  0
XRECORD
  5
8A6
102
{ACAD_REACTORS
330
8A5
102
}
330
8A5
100
AcDbXrecord
280
     1
102
RTVSPost2010Prop28
280
     0
102
RTVSPost2010PropOp28
 70
     1
102
RTVSPost2010Prop29
280
     1
102
RTVSPost2010PropOp29
 70
     1
102
RTVSPost2010Prop30
280
     1
102
RTVSPost2010PropOp30
 70
     1
102
RTVSPost2010Prop31
280
     0
102
RTVSPost2010PropOp31
 70
     1
102
RTVSPost2010Prop32
280
     0
102
RTVSPost2010PropOp32
 70
     1
102
RTVSPost2010Prop33
280
     0
102
RTVSPost2010PropOp33
 70
     1
102
RTVSPost2010Prop34
280
     0
102
RTVSPost2010PropOp34
 70
     1
102
RTVSPost2010Prop35
280
     0
102
RTVSPost2010PropOp35
 70
     1
102
RTVSPost2010Prop36
280
     0
102
RTVSPost2010PropOp36
 70
     1
102
RTVSPost2010Prop37
 90
       50
102
RTVSPost2010PropOp37
 70
     1
102
RTVSPost2010Prop38
140
0.0
102
RTVSPost2010PropOp38
 70
     1
102
RTVSPost2010Prop39
140
1.0
102
RTVSPost2010PropOp39
 70
     1
102
RTVSPost2010Prop40
 90
        0
102
RTVSPost2010PropOp40
 70
     1
102
RTVSPost2010Prop41ColorIndex
 90
       18
102
RTVSPost2010Prop41ColorRGB
 90
        0
102
RTVSPost2010PropOp41
 70
     1
102
RTVSPost2010Prop42
 90
       50
102
RTVSPost2010PropOp42
 70
     1
102
RTVSPost2010Prop43
 90
        3
102
RTVSPost2010PropOp43
 70
     1
102
RTVSPost2010Prop44ColorIndex
 90
        5
102
RTVSPost2010Prop44ColorRGB
 90
      255
102
RTVSPost2010PropOp44
 70
     1
102
RTVSPost2010Prop45
280
     0
102
RTVSPost2010PropOp45
 70
     1
102
RTVSPost2010Prop46
 90
       50
102
RTVSPost2010PropOp46
 70
     1
102
RTVSPost2010Prop47
 90
       50
102
RTVSPost2010PropOp47
 70
     1
102
RTVSPost2010Prop48
 90
       50
102
RTVSPost2010PropOp48
 70
     1
102
RTVSPost2010Prop49
280
     0
102
RTVSPost2010PropOp49
 70
     1
102
RTVSPost2010Prop50
 90
       50
102
RTVSPost2010PropOp50
 70
     1
102
RTVSPost2010Prop51ColorIndex
 90
      256
102
RTVSPost2010Prop51ColorRGB
 90
-16777216
102
RTVSPost2010PropOp51
 70
     0
102
RTVSPost2010Prop52
140
1.0
102
RTVSPost2010PropOp52
 70
     0
102
RTVSPost2010Prop53
 90
        2
102
RTVSPost2010PropOp53
 70
     1
102
RTVSPost2010Prop54
  1
strokes_ogs.tif
102
RTVSPost2010PropOp54
 70
     1
102
RTVSPost2010Prop55
280
     0
102
RTVSPost2010PropOp55
 70
     1
102
RTVSPost2010Prop56
140
1.0
102
RTVSPost2010PropOp56
 70
     1
102
RTVSPost2010Prop57
140
1.0
102
RTVSPost2010PropOp57
 70
     1
102
RTVSPropertyOp0
 70
     1
102
RTVSPropertyOp1
 70
     1
102
RTVSPropertyOp2
 70
     1
102
RTVSPropertyOp3
 70
     1
102
RTVSPropertyOp4
 70
     1
102
RTVSPropertyOp5
 70
     1
102
RTVSPropertyOp6
 70
     1
102
RTVSPropertyOp7
 70
     1
102
RTVSPropertyOp8
 70
     1
102
RTVSPropertyOp9
 70
     1
102
RTVSPropertyOp10
 70
     1
102
RTVSPropertyOp11
 70
     1
102
RTVSPropertyOp12
 70
     1
102
RTVSPropertyOp13
 70
     1
102
RTVSPropertyOp14
 70
     1
102
RTVSPropertyOp15
 70
     1
102
RTVSPropertyOp16
 70
     1
102
RTVSPropertyOp17
 70
     1
102
RTVSPropertyOp18
 70
     1
102
RTVSPropertyOp19
 70
     1
102
RTVSPropertyOp20
 70
     1
102
RTVSPropertyOp21
 70
     1
102
RTVSPropertyOp22
 70
     1
102
RTVSPropertyOp23
 70
     1
102
RTVSPropertyOp24
 70
     1
102
RTVSPropertyOp25
 70
     1
102
RTVSPropertyOp26
 70
     1
102
RTVSPropertyOp27
 70
     1
102
RTVSPropertyOp28
 70
     1
102
RTVSPropertyOp29
 70
     1
102
RTVSPropertyOp30
 70
     1
102
RTVSPropertyOp31
 70
     1
102
RTVSPropertyOp32
 70
     1
102
RTVSPropertyOp33
 70
     1
102
RTVSPropertyOp34
 70
     1
102
RTVSPropertyOp35
 70
     1
102
RTVSPropertyOp36
 70
     1
102
RTVSPropertyOp37
 70
     1
102
RTVSPropertyOp38
 70
     1
102
RTVSPropertyOp39
 70
     1
102
RTVSPropertyOp40
 70
     1
102
RTVSPropertyOp41
 70
     1
102
RTVSPropertyOp42
 70
     1
102
RTVSPropertyOp43
 70
     1
102
RTVSPropertyOp44
 70
     1
102
RTVSPropertyOp45
 70
     1
102
RTVSPropertyOp46
 70
     1
102
RTVSPropertyOp47
 70
     1
102
RTVSPropertyOp48
 70
     1
102
RTVSPropertyOp49
 70
     1
102
RTVSPropertyOp50
 70
     1
102
RTVSPropertyOp51
 70
     0
102
RTVSPropertyOp52
 70
     0
102
RTVSPropertyOp53
 70
     1
102
RTVSPropertyOp54
 70
     1
102
RTVSPropertyOp55
 70
     1
102
RTVSPropertyOp56
 70
     1
102
RTVSPropertyOp57
 70
     1
102
RTVSPropertyOp58
 70
     1
102
RTVSPropertyOp59
 70
     1
102
RTVSPropertyOp60
 70
     1
102
RTVSPropertyOp61
 70
     1
102
RTVSPropertyOp62
 70
     1
  0
XRECORD
  5
8AE
102
{ACAD_REACTORS
330
8AD
102
}
330
8AD
100
AcDbXrecord
280
     1
102
RTVSPost2010Prop28
280
     0
102
RTVSPost2010PropOp28
 70
     1
102
RTVSPost2010Prop29
280
     1
102
RTVSPost2010PropOp29
 70
     1
102
RTVSPost2010Prop30
280
     1
102
RTVSPost2010PropOp30
 70
     1
102
RTVSPost2010Prop31
280
     0
102
RTVSPost2010PropOp31
 70
     1
102
RTVSPost2010Prop32
280
     0
102
RTVSPost2010PropOp32
 70
     1
102
RTVSPost2010Prop33
280
     0
102
RTVSPost2010PropOp33
 70
     1
102
RTVSPost2010Prop34
280
     0
102
RTVSPost2010PropOp34
 70
     1
102
RTVSPost2010Prop35
280
     0
102
RTVSPost2010PropOp35
 70
     1
102
RTVSPost2010Prop36
280
     0
102
RTVSPost2010PropOp36
 70
     1
102
RTVSPost2010Prop37
 90
       50
102
RTVSPost2010PropOp37
 70
     1
102
RTVSPost2010Prop38
140
0.0
102
RTVSPost2010PropOp38
 70
     1
102
RTVSPost2010Prop39
140
1.0
102
RTVSPost2010PropOp39
 70
     1
102
RTVSPost2010Prop40
 90
        0
102
RTVSPost2010PropOp40
 70
     1
102
RTVSPost2010Prop41ColorIndex
 90
       18
102
RTVSPost2010Prop41ColorRGB
 90
        0
102
RTVSPost2010PropOp41
 70
     1
102
RTVSPost2010Prop42
 90
       50
102
RTVSPost2010PropOp42
 70
     1
102
RTVSPost2010Prop43
 90
        3
102
RTVSPost2010PropOp43
 70
     1
102
RTVSPost2010Prop44ColorIndex
 90
        5
102
RTVSPost2010Prop44ColorRGB
 90
      255
102
RTVSPost2010PropOp44
 70
     1
102
RTVSPost2010Prop45
280
     0
102
RTVSPost2010PropOp45
 70
     1
102
RTVSPost2010Prop46
 90
       50
102
RTVSPost2010PropOp46
 70
     1
102
RTVSPost2010Prop47
 90
       50
102
RTVSPost2010PropOp47
 70
     1
102
RTVSPost2010Prop48
 90
       50
102
RTVSPost2010PropOp48
 70
     1
102
RTVSPost2010Prop49
280
     0
102
RTVSPost2010PropOp49
 70
     1
102
RTVSPost2010Prop50
 90
       50
102
RTVSPost2010PropOp50
 70
     1
102
RTVSPost2010Prop51ColorIndex
 90
      256
102
RTVSPost2010Prop51ColorRGB
 90
-16777216
102
RTVSPost2010PropOp51
 70
     0
102
RTVSPost2010Prop52
140
1.0
102
RTVSPost2010PropOp52
 70
     0
102
RTVSPost2010Prop53
 90
        2
102
RTVSPost2010PropOp53
 70
     1
102
RTVSPost2010Prop54
  1
strokes_ogs.tif
102
RTVSPost2010PropOp54
 70
     1
102
RTVSPost2010Prop55
280
     0
102
RTVSPost2010PropOp55
 70
     1
102
RTVSPost2010Prop56
140
1.0
102
RTVSPost2010PropOp56
 70
     1
102
RTVSPost2010Prop57
140
1.0
102
RTVSPost2010PropOp57
 70
     1
102
RTVSPropertyOp0
 70
     1
102
RTVSPropertyOp1
 70
     1
102
RTVSPropertyOp2
 70
     1
102
RTVSPropertyOp3
 70
     1
102
RTVSPropertyOp4
 70
     1
102
RTVSPropertyOp5
 70
     1
102
RTVSPropertyOp6
 70
     1
102
RTVSPropertyOp7
 70
     1
102
RTVSPropertyOp8
 70
     1
102
RTVSPropertyOp9
 70
     1
102
RTVSPropertyOp10
 70
     1
102
RTVSPropertyOp11
 70
     1
102
RTVSPropertyOp12
 70
     1
102
RTVSPropertyOp13
 70
     1
102
RTVSPropertyOp14
 70
     1
102
RTVSPropertyOp15
 70
     1
102
RTVSPropertyOp16
 70
     1
102
RTVSPropertyOp17
 70
     1
102
RTVSPropertyOp18
 70
     1
102
RTVSPropertyOp19
 70
     1
102
RTVSPropertyOp20
 70
     1
102
RTVSPropertyOp21
 70
     1
102
RTVSPropertyOp22
 70
     1
102
RTVSPropertyOp23
 70
     1
102
RTVSPropertyOp24
 70
     1
102
RTVSPropertyOp25
 70
     1
102
RTVSPropertyOp26
 70
     1
102
RTVSPropertyOp27
 70
     1
102
RTVSPropertyOp28
 70
     1
102
RTVSPropertyOp29
 70
     1
102
RTVSPropertyOp30
 70
     1
102
RTVSPropertyOp31
 70
     1
102
RTVSPropertyOp32
 70
     1
102
RTVSPropertyOp33
 70
     1
102
RTVSPropertyOp34
 70
     1
102
RTVSPropertyOp35
 70
     1
102
RTVSPropertyOp36
 70
     1
102
RTVSPropertyOp37
 70
     1
102
RTVSPropertyOp38
 70
     1
102
RTVSPropertyOp39
 70
     1
102
RTVSPropertyOp40
 70
     1
102
RTVSPropertyOp41
 70
     1
102
RTVSPropertyOp42
 70
     1
102
RTVSPropertyOp43
 70
     1
102
RTVSPropertyOp44
 70
     1
102
RTVSPropertyOp45
 70
     1
102
RTVSPropertyOp46
 70
     1
102
RTVSPropertyOp47
 70
     1
102
RTVSPropertyOp48
 70
     1
102
RTVSPropertyOp49
 70
     1
102
RTVSPropertyOp50
 70
     1
102
RTVSPropertyOp51
 70
     0
102
RTVSPropertyOp52
 70
     0
102
RTVSPropertyOp53
 70
     1
102
RTVSPropertyOp54
 70
     1
102
RTVSPropertyOp55
 70
     1
102
RTVSPropertyOp56
 70
     1
102
RTVSPropertyOp57
 70
     1
102
RTVSPropertyOp58
 70
     1
102
RTVSPropertyOp59
 70
     1
102
RTVSPropertyOp60
 70
     1
102
RTVSPropertyOp61
 70
     1
102
RTVSPropertyOp62
 70
     1
  0
XRECORD
  5
8CA
102
{ACAD_REACTORS
330
8C9
102
}
330
8C9
100
AcDbXrecord
280
     1
102
RTVSPost2010Prop28
280
     0
102
RTVSPost2010PropOp28
 70
     1
102
RTVSPost2010Prop29
280
     1
102
RTVSPost2010PropOp29
 70
     1
102
RTVSPost2010Prop30
280
     1
102
RTVSPost2010PropOp30
 70
     1
102
RTVSPost2010Prop31
280
     0
102
RTVSPost2010PropOp31
 70
     1
102
RTVSPost2010Prop32
280
     0
102
RTVSPost2010PropOp32
 70
     1
102
RTVSPost2010Prop33
280
     0
102
RTVSPost2010PropOp33
 70
     1
102
RTVSPost2010Prop34
280
     0
102
RTVSPost2010PropOp34
 70
     1
102
RTVSPost2010Prop35
280
     0
102
RTVSPost2010PropOp35
 70
     1
102
RTVSPost2010Prop36
280
     0
102
RTVSPost2010PropOp36
 70
     1
102
RTVSPost2010Prop37
 90
       50
102
RTVSPost2010PropOp37
 70
     0
102
RTVSPost2010Prop38
140
0.0
102
RTVSPost2010PropOp38
 70
     0
102
RTVSPost2010Prop39
140
1.0
102
RTVSPost2010PropOp39
 70
     0
102
RTVSPost2010Prop40
 90
        0
102
RTVSPost2010PropOp40
 70
     0
102
RTVSPost2010Prop41ColorIndex
 90
       18
102
RTVSPost2010Prop41ColorRGB
 90
        0
102
RTVSPost2010PropOp41
 70
     0
102
RTVSPost2010Prop42
 90
       50
102
RTVSPost2010PropOp42
 70
     0
102
RTVSPost2010Prop43
 90
        3
102
RTVSPost2010PropOp43
 70
     0
102
RTVSPost2010Prop44ColorIndex
 90
        5
102
RTVSPost2010Prop44ColorRGB
 90
      255
102
RTVSPost2010PropOp44
 70
     0
102
RTVSPost2010Prop45
280
     0
102
RTVSPost2010PropOp45
 70
     1
102
RTVSPost2010Prop46
 90
       50
102
RTVSPost2010PropOp46
 70
     0
102
RTVSPost2010Prop47
 90
       50
102
RTVSPost2010PropOp47
 70
     0
102
RTVSPost2010Prop48
 90
       50
102
RTVSPost2010PropOp48
 70
     0
102
RTVSPost2010Prop49
280
     0
102
RTVSPost2010PropOp49
 70
     1
102
RTVSPost2010Prop50
 90
       50
102
RTVSPost2010PropOp50
 70
     0
102
RTVSPost2010Prop51ColorIndex
 90
      256
102
RTVSPost2010Prop51ColorRGB
 90
-16777216
102
RTVSPost2010PropOp51
 70
     0
102
RTVSPost2010Prop52
140
1.0
102
RTVSPost2010PropOp52
 70
     0
102
RTVSPost2010Prop53
 90
        2
102
RTVSPost2010PropOp53
 70
     0
102
RTVSPost2010Prop54
  1
strokes_ogs.tif
102
RTVSPost2010PropOp54
 70
     0
102
RTVSPost2010Prop55
280
     0
102
RTVSPost2010PropOp55
 70
     1
102
RTVSPost2010Prop56
140
1.0
102
RTVSPost2010PropOp56
 70
     0
102
RTVSPost2010Prop57
140
1.0
102
RTVSPost2010PropOp57
 70
     0
102
RTVSPropertyOp0
 70
     0
102
RTVSPropertyOp1
 70
     0
102
RTVSPropertyOp2
 70
     0
102
RTVSPropertyOp3
 70
     0
102
RTVSPropertyOp4
 70
     0
102
RTVSPropertyOp5
 70
     0
102
RTVSPropertyOp6
 70
     0
102
RTVSPropertyOp7
 70
     0
102
RTVSPropertyOp8
 70
     0
102
RTVSPropertyOp9
 70
     0
102
RTVSPropertyOp10
 70
     0
102
RTVSPropertyOp11
 70
     0
102
RTVSPropertyOp12
 70
     0
102
RTVSPropertyOp13
 70
     0
102
RTVSPropertyOp14
 70
     2
102
RTVSPropertyOp15
 70
     0
102
RTVSPropertyOp16
 70
     0
102
RTVSPropertyOp17
 70
     0
102
RTVSPropertyOp18
 70
     0
102
RTVSPropertyOp19
 70
     0
102
RTVSPropertyOp20
 70
     0
102
RTVSPropertyOp21
 70
     0
102
RTVSPropertyOp22
 70
     0
102
RTVSPropertyOp23
 70
     0
102
RTVSPropertyOp24
 70
     0
102
RTVSPropertyOp25
 70
     0
102
RTVSPropertyOp26
 70
     0
102
RTVSPropertyOp27
 70
     0
102
RTVSPropertyOp28
 70
     1
102
RTVSPropertyOp29
 70
     1
102
RTVSPropertyOp30
 70
     1
102
RTVSPropertyOp31
 70
     1
102
RTVSPropertyOp32
 70
     1
102
RTVSPropertyOp33
 70
     1
102
RTVSPropertyOp34
 70
     1
102
RTVSPropertyOp35
 70
     1
102
RTVSPropertyOp36
 70
     1
102
RTVSPropertyOp37
 70
     0
102
RTVSPropertyOp38
 70
     0
102
RTVSPropertyOp39
 70
     0
102
RTVSPropertyOp40
 70
     0
102
RTVSPropertyOp41
 70
     0
102
RTVSPropertyOp42
 70
     0
102
RTVSPropertyOp43
 70
     0
102
RTVSPropertyOp44
 70
     0
102
RTVSPropertyOp45
 70
     1
102
RTVSPropertyOp46
 70
     0
102
RTVSPropertyOp47
 70
     0
102
RTVSPropertyOp48
 70
     0
102
RTVSPropertyOp49
 70
     1
102
RTVSPropertyOp50
 70
     0
102
RTVSPropertyOp51
 70
     0
102
RTVSPropertyOp52
 70
     0
102
RTVSPropertyOp53
 70
     0
102
RTVSPropertyOp54
 70
     0
102
RTVSPropertyOp55
 70
     1
102
RTVSPropertyOp56
 70
     0
102
RTVSPropertyOp57
 70
     0
102
RTVSPropertyOp58
 70
     0
102
RTVSPropertyOp59
 70
     0
102
RTVSPropertyOp60
 70
     0
102
RTVSPropertyOp61
 70
     0
102
RTVSPropertyOp62
 70
     0
  0
XRECORD
  5
8BA
102
{ACAD_REACTORS
330
8B9
102
}
330
8B9
100
AcDbXrecord
280
     1
102
RTVSPost2010Prop28
280
     0
102
RTVSPost2010PropOp28
 70
     1
102
RTVSPost2010Prop29
280
     1
102
RTVSPost2010PropOp29
 70
     1
102
RTVSPost2010Prop30
280
     1
102
RTVSPost2010PropOp30
 70
     1
102
RTVSPost2010Prop31
280
     0
102
RTVSPost2010PropOp31
 70
     1
102
RTVSPost2010Prop32
280
     0
102
RTVSPost2010PropOp32
 70
     1
102
RTVSPost2010Prop33
280
     0
102
RTVSPost2010PropOp33
 70
     1
102
RTVSPost2010Prop34
280
     0
102
RTVSPost2010PropOp34
 70
     1
102
RTVSPost2010Prop35
280
     0
102
RTVSPost2010PropOp35
 70
     1
102
RTVSPost2010Prop36
280
     0
102
RTVSPost2010PropOp36
 70
     1
102
RTVSPost2010Prop37
 90
       50
102
RTVSPost2010PropOp37
 70
     1
102
RTVSPost2010Prop38
140
0.0
102
RTVSPost2010PropOp38
 70
     1
102
RTVSPost2010Prop39
140
1.0
102
RTVSPost2010PropOp39
 70
     1
102
RTVSPost2010Prop40
 90
        0
102
RTVSPost2010PropOp40
 70
     1
102
RTVSPost2010Prop41ColorIndex
 90
       18
102
RTVSPost2010Prop41ColorRGB
 90
        0
102
RTVSPost2010PropOp41
 70
     1
102
RTVSPost2010Prop42
 90
       50
102
RTVSPost2010PropOp42
 70
     1
102
RTVSPost2010Prop43
 90
        3
102
RTVSPost2010PropOp43
 70
     1
102
RTVSPost2010Prop44ColorIndex
 90
        5
102
RTVSPost2010Prop44ColorRGB
 90
      255
102
RTVSPost2010PropOp44
 70
     1
102
RTVSPost2010Prop45
280
     0
102
RTVSPost2010PropOp45
 70
     1
102
RTVSPost2010Prop46
 90
       50
102
RTVSPost2010PropOp46
 70
     1
102
RTVSPost2010Prop47
 90
       50
102
RTVSPost2010PropOp47
 70
     1
102
RTVSPost2010Prop48
 90
       50
102
RTVSPost2010PropOp48
 70
     1
102
RTVSPost2010Prop49
280
     0
102
RTVSPost2010PropOp49
 70
     1
102
RTVSPost2010Prop50
 90
       50
102
RTVSPost2010PropOp50
 70
     1
102
RTVSPost2010Prop51ColorIndex
 90
      256
102
RTVSPost2010Prop51ColorRGB
 90
-16777216
102
RTVSPost2010PropOp51
 70
     0
102
RTVSPost2010Prop52
140
1.0
102
RTVSPost2010PropOp52
 70
     0
102
RTVSPost2010Prop53
 90
        2
102
RTVSPost2010PropOp53
 70
     1
102
RTVSPost2010Prop54
  1
strokes_ogs.tif
102
RTVSPost2010PropOp54
 70
     1
102
RTVSPost2010Prop55
280
     0
102
RTVSPost2010PropOp55
 70
     1
102
RTVSPost2010Prop56
140
1.0
102
RTVSPost2010PropOp56
 70
     1
102
RTVSPost2010Prop57
140
1.0
102
RTVSPost2010PropOp57
 70
     1
102
RTVSPropertyOp0
 70
     1
102
RTVSPropertyOp1
 70
     1
102
RTVSPropertyOp2
 70
     1
102
RTVSPropertyOp3
 70
     1
102
RTVSPropertyOp4
 70
     1
102
RTVSPropertyOp5
 70
     1
102
RTVSPropertyOp6
 70
     1
102
RTVSPropertyOp7
 70
     1
102
RTVSPropertyOp8
 70
     1
102
RTVSPropertyOp9
 70
     1
102
RTVSPropertyOp10
 70
     1
102
RTVSPropertyOp11
 70
     1
102
RTVSPropertyOp12
 70
     1
102
RTVSPropertyOp13
 70
     1
102
RTVSPropertyOp14
 70
     1
102
RTVSPropertyOp15
 70
     1
102
RTVSPropertyOp16
 70
     1
102
RTVSPropertyOp17
 70
     1
102
RTVSPropertyOp18
 70
     1
102
RTVSPropertyOp19
 70
     1
102
RTVSPropertyOp20
 70
     1
102
RTVSPropertyOp21
 70
     1
102
RTVSPropertyOp22
 70
     1
102
RTVSPropertyOp23
 70
     1
102
RTVSPropertyOp24
 70
     1
102
RTVSPropertyOp25
 70
     1
102
RTVSPropertyOp26
 70
     1
102
RTVSPropertyOp27
 70
     1
102
RTVSPropertyOp28
 70
     1
102
RTVSPropertyOp29
 70
     1
102
RTVSPropertyOp30
 70
     1
102
RTVSPropertyOp31
 70
     1
102
RTVSPropertyOp32
 70
     1
102
RTVSPropertyOp33
 70
     1
102
RTVSPropertyOp34
 70
     1
102
RTVSPropertyOp35
 70
     1
102
RTVSPropertyOp36
 70
     1
102
RTVSPropertyOp37
 70
     1
102
RTVSPropertyOp38
 70
     1
102
RTVSPropertyOp39
 70
     1
102
RTVSPropertyOp40
 70
     1
102
RTVSPropertyOp41
 70
     1
102
RTVSPropertyOp42
 70
     1
102
RTVSPropertyOp43
 70
     1
102
RTVSPropertyOp44
 70
     1
102
RTVSPropertyOp45
 70
     1
102
RTVSPropertyOp46
 70
     1
102
RTVSPropertyOp47
 70
     1
102
RTVSPropertyOp48
 70
     1
102
RTVSPropertyOp49
 70
     1
102
RTVSPropertyOp50
 70
     1
102
RTVSPropertyOp51
 70
     0
102
RTVSPropertyOp52
 70
     0
102
RTVSPropertyOp53
 70
     1
102
RTVSPropertyOp54
 70
     1
102
RTVSPropertyOp55
 70
     1
102
RTVSPropertyOp56
 70
     1
102
RTVSPropertyOp57
 70
     1
102
RTVSPropertyOp58
 70
     1
102
RTVSPropertyOp59
 70
     1
102
RTVSPropertyOp60
 70
     1
102
RTVSPropertyOp61
 70
     1
102
RTVSPropertyOp62
 70
     1
  0
XRECORD
  5
8CC
102
{ACAD_REACTORS
330
8CB
102
}
330
8CB
100
AcDbXrecord
280
     1
102
RTVSPost2010Prop28
280
     0
102
RTVSPost2010PropOp28
 70
     1
102
RTVSPost2010Prop29
280
     1
102
RTVSPost2010PropOp29
 70
     1
102
RTVSPost2010Prop30
280
     1
102
RTVSPost2010PropOp30
 70
     1
102
RTVSPost2010Prop31
280
     0
102
RTVSPost2010PropOp31
 70
     1
102
RTVSPost2010Prop32
280
     0
102
RTVSPost2010PropOp32
 70
     1
102
RTVSPost2010Prop33
280
     0
102
RTVSPost2010PropOp33
 70
     1
102
RTVSPost2010Prop34
280
     0
102
RTVSPost2010PropOp34
 70
     1
102
RTVSPost2010Prop35
280
     0
102
RTVSPost2010PropOp35
 70
     1
102
RTVSPost2010Prop36
280
     0
102
RTVSPost2010PropOp36
 70
     1
102
RTVSPost2010Prop37
 90
       50
102
RTVSPost2010PropOp37
 70
     0
102
RTVSPost2010Prop38
140
0.0
102
RTVSPost2010PropOp38
 70
     0
102
RTVSPost2010Prop39
140
1.0
102
RTVSPost2010PropOp39
 70
     0
102
RTVSPost2010Prop40
 90
        0
102
RTVSPost2010PropOp40
 70
     0
102
RTVSPost2010Prop41ColorIndex
 90
       18
102
RTVSPost2010Prop41ColorRGB
 90
        0
102
RTVSPost2010PropOp41
 70
     0
102
RTVSPost2010Prop42
 90
       50
102
RTVSPost2010PropOp42
 70
     0
102
RTVSPost2010Prop43
 90
        3
102
RTVSPost2010PropOp43
 70
     0
102
RTVSPost2010Prop44ColorIndex
 90
        5
102
RTVSPost2010Prop44ColorRGB
 90
      255
102
RTVSPost2010PropOp44
 70
     0
102
RTVSPost2010Prop45
280
     0
102
RTVSPost2010PropOp45
 70
     1
102
RTVSPost2010Prop46
 90
       50
102
RTVSPost2010PropOp46
 70
     0
102
RTVSPost2010Prop47
 90
       50
102
RTVSPost2010PropOp47
 70
     0
102
RTVSPost2010Prop48
 90
       50
102
RTVSPost2010PropOp48
 70
     0
102
RTVSPost2010Prop49
280
     0
102
RTVSPost2010PropOp49
 70
     1
102
RTVSPost2010Prop50
 90
       50
102
RTVSPost2010PropOp50
 70
     0
102
RTVSPost2010Prop51ColorIndex
 90
      256
102
RTVSPost2010Prop51ColorRGB
 90
-16777216
102
RTVSPost2010PropOp51
 70
     0
102
RTVSPost2010Prop52
140
1.0
102
RTVSPost2010PropOp52
 70
     0
102
RTVSPost2010Prop53
 90
        2
102
RTVSPost2010PropOp53
 70
     0
102
RTVSPost2010Prop54
  1
strokes_ogs.tif
102
RTVSPost2010PropOp54
 70
     0
102
RTVSPost2010Prop55
280
     0
102
RTVSPost2010PropOp55
 70
     1
102
RTVSPost2010Prop56
140
1.0
102
RTVSPost2010PropOp56
 70
     0
102
RTVSPost2010Prop57
140
1.0
102
RTVSPost2010PropOp57
 70
     0
102
RTVSPropertyOp0
 70
     0
102
RTVSPropertyOp1
 70
     0
102
RTVSPropertyOp2
 70
     0
102
RTVSPropertyOp3
 70
     0
102
RTVSPropertyOp4
 70
     0
102
RTVSPropertyOp5
 70
     0
102
RTVSPropertyOp6
 70
     0
102
RTVSPropertyOp7
 70
     0
102
RTVSPropertyOp8
 70
     0
102
RTVSPropertyOp9
 70
     0
102
RTVSPropertyOp10
 70
     0
102
RTVSPropertyOp11
 70
     0
102
RTVSPropertyOp12
 70
     0
102
RTVSPropertyOp13
 70
     0
102
RTVSPropertyOp14
 70
     2
102
RTVSPropertyOp15
 70
     0
102
RTVSPropertyOp16
 70
     0
102
RTVSPropertyOp17
 70
     0
102
RTVSPropertyOp18
 70
     0
102
RTVSPropertyOp19
 70
     0
102
RTVSPropertyOp20
 70
     0
102
RTVSPropertyOp21
 70
     0
102
RTVSPropertyOp22
 70
     0
102
RTVSPropertyOp23
 70
     0
102
RTVSPropertyOp24
 70
     0
102
RTVSPropertyOp25
 70
     0
102
RTVSPropertyOp26
 70
     0
102
RTVSPropertyOp27
 70
     0
102
RTVSPropertyOp28
 70
     1
102
RTVSPropertyOp29
 70
     1
102
RTVSPropertyOp30
 70
     1
102
RTVSPropertyOp31
 70
     1
102
RTVSPropertyOp32
 70
     1
102
RTVSPropertyOp33
 70
     1
102
RTVSPropertyOp34
 70
     1
102
RTVSPropertyOp35
 70
     1
102
RTVSPropertyOp36
 70
     1
102
RTVSPropertyOp37
 70
     0
102
RTVSPropertyOp38
 70
     0
102
RTVSPropertyOp39
 70
     0
102
RTVSPropertyOp40
 70
     0
102
RTVSPropertyOp41
 70
     0
102
RTVSPropertyOp42
 70
     0
102
RTVSPropertyOp43
 70
     0
102
RTVSPropertyOp44
 70
     0
102
RTVSPropertyOp45
 70
     1
102
RTVSPropertyOp46
 70
     0
102
RTVSPropertyOp47
 70
     0
102
RTVSPropertyOp48
 70
     0
102
RTVSPropertyOp49
 70
     1
102
RTVSPropertyOp50
 70
     0
102
RTVSPropertyOp51
 70
     0
102
RTVSPropertyOp52
 70
     0
102
RTVSPropertyOp53
 70
     0
102
RTVSPropertyOp54
 70
     0
102
RTVSPropertyOp55
 70
     1
102
RTVSPropertyOp56
 70
     0
102
RTVSPropertyOp57
 70
     0
102
RTVSPropertyOp58
 70
     0
102
RTVSPropertyOp59
 70
     0
102
RTVSPropertyOp60
 70
     0
102
RTVSPropertyOp61
 70
     0
102
RTVSPropertyOp62
 70
     0
  0
XRECORD
  5
8B2
102
{ACAD_REACTORS
330
8B1
102
}
330
8B1
100
AcDbXrecord
280
     1
102
RTVSPost2010Prop28
280
     0
102
RTVSPost2010PropOp28
 70
     1
102
RTVSPost2010Prop29
280
     1
102
RTVSPost2010PropOp29
 70
     1
102
RTVSPost2010Prop30
280
     1
102
RTVSPost2010PropOp30
 70
     1
102
RTVSPost2010Prop31
280
     0
102
RTVSPost2010PropOp31
 70
     1
102
RTVSPost2010Prop32
280
     0
102
RTVSPost2010PropOp32
 70
     1
102
RTVSPost2010Prop33
280
     0
102
RTVSPost2010PropOp33
 70
     1
102
RTVSPost2010Prop34
280
     0
102
RTVSPost2010PropOp34
 70
     1
102
RTVSPost2010Prop35
280
     0
102
RTVSPost2010PropOp35
 70
     1
102
RTVSPost2010Prop36
280
     0
102
RTVSPost2010PropOp36
 70
     1
102
RTVSPost2010Prop37
 90
       50
102
RTVSPost2010PropOp37
 70
     1
102
RTVSPost2010Prop38
140
0.0
102
RTVSPost2010PropOp38
 70
     1
102
RTVSPost2010Prop39
140
1.0
102
RTVSPost2010PropOp39
 70
     1
102
RTVSPost2010Prop40
 90
        0
102
RTVSPost2010PropOp40
 70
     1
102
RTVSPost2010Prop41ColorIndex
 90
       18
102
RTVSPost2010Prop41ColorRGB
 90
        0
102
RTVSPost2010PropOp41
 70
     1
102
RTVSPost2010Prop42
 90
       50
102
RTVSPost2010PropOp42
 70
     1
102
RTVSPost2010Prop43
 90
        3
102
RTVSPost2010PropOp43
 70
     1
102
RTVSPost2010Prop44ColorIndex
 90
        5
102
RTVSPost2010Prop44ColorRGB
 90
      255
102
RTVSPost2010PropOp44
 70
     1
102
RTVSPost2010Prop45
280
     0
102
RTVSPost2010PropOp45
 70
     1
102
RTVSPost2010Prop46
 90
       50
102
RTVSPost2010PropOp46
 70
     1
102
RTVSPost2010Prop47
 90
       50
102
RTVSPost2010PropOp47
 70
     1
102
RTVSPost2010Prop48
 90
       50
102
RTVSPost2010PropOp48
 70
     1
102
RTVSPost2010Prop49
280
     0
102
RTVSPost2010PropOp49
 70
     1
102
RTVSPost2010Prop50
 90
       50
102
RTVSPost2010PropOp50
 70
     1
102
RTVSPost2010Prop51ColorIndex
 90
      256
102
RTVSPost2010Prop51ColorRGB
 90
-16777216
102
RTVSPost2010PropOp51
 70
     0
102
RTVSPost2010Prop52
140
1.0
102
RTVSPost2010PropOp52
 70
     0
102
RTVSPost2010Prop53
 90
        2
102
RTVSPost2010PropOp53
 70
     1
102
RTVSPost2010Prop54
  1
strokes_ogs.tif
102
RTVSPost2010PropOp54
 70
     1
102
RTVSPost2010Prop55
280
     0
102
RTVSPost2010PropOp55
 70
     1
102
RTVSPost2010Prop56
140
1.0
102
RTVSPost2010PropOp56
 70
     1
102
RTVSPost2010Prop57
140
1.0
102
RTVSPost2010PropOp57
 70
     1
102
RTVSPropertyOp0
 70
     1
102
RTVSPropertyOp1
 70
     1
102
RTVSPropertyOp2
 70
     1
102
RTVSPropertyOp3
 70
     1
102
RTVSPropertyOp4
 70
     1
102
RTVSPropertyOp5
 70
     1
102
RTVSPropertyOp6
 70
     1
102
RTVSPropertyOp7
 70
     1
102
RTVSPropertyOp8
 70
     1
102
RTVSPropertyOp9
 70
     1
102
RTVSPropertyOp10
 70
     1
102
RTVSPropertyOp11
 70
     1
102
RTVSPropertyOp12
 70
     1
102
RTVSPropertyOp13
 70
     1
102
RTVSPropertyOp14
 70
     1
102
RTVSPropertyOp15
 70
     1
102
RTVSPropertyOp16
 70
     1
102
RTVSPropertyOp17
 70
     1
102
RTVSPropertyOp18
 70
     1
102
RTVSPropertyOp19
 70
     1
102
RTVSPropertyOp20
 70
     1
102
RTVSPropertyOp21
 70
     1
102
RTVSPropertyOp22
 70
     1
102
RTVSPropertyOp23
 70
     1
102
RTVSPropertyOp24
 70
     1
102
RTVSPropertyOp25
 70
     1
102
RTVSPropertyOp26
 70
     1
102
RTVSPropertyOp27
 70
     1
102
RTVSPropertyOp28
 70
     1
102
RTVSPropertyOp29
 70
     1
102
RTVSPropertyOp30
 70
     1
102
RTVSPropertyOp31
 70
     1
102
RTVSPropertyOp32
 70
     1
102
RTVSPropertyOp33
 70
     1
102
RTVSPropertyOp34
 70
     1
102
RTVSPropertyOp35
 70
     1
102
RTVSPropertyOp36
 70
     1
102
RTVSPropertyOp37
 70
     1
102
RTVSPropertyOp38
 70
     1
102
RTVSPropertyOp39
 70
     1
102
RTVSPropertyOp40
 70
     1
102
RTVSPropertyOp41
 70
     1
102
RTVSPropertyOp42
 70
     1
102
RTVSPropertyOp43
 70
     1
102
RTVSPropertyOp44
 70
     1
102
RTVSPropertyOp45
 70
     1
102
RTVSPropertyOp46
 70
     1
102
RTVSPropertyOp47
 70
     1
102
RTVSPropertyOp48
 70
     1
102
RTVSPropertyOp49
 70
     1
102
RTVSPropertyOp50
 70
     1
102
RTVSPropertyOp51
 70
     0
102
RTVSPropertyOp52
 70
     0
102
RTVSPropertyOp53
 70
     1
102
RTVSPropertyOp54
 70
     1
102
RTVSPropertyOp55
 70
     1
102
RTVSPropertyOp56
 70
     1
102
RTVSPropertyOp57
 70
     1
102
RTVSPropertyOp58
 70
     1
102
RTVSPropertyOp59
 70
     1
102
RTVSPropertyOp60
 70
     1
102
RTVSPropertyOp61
 70
     1
102
RTVSPropertyOp62
 70
     1
  0
XRECORD
  5
8C8
102
{ACAD_REACTORS
330
8C7
102
}
330
8C7
100
AcDbXrecord
280
     1
102
RTVSPost2010Prop28
280
     0
102
RTVSPost2010PropOp28
 70
     1
102
RTVSPost2010Prop29
280
     1
102
RTVSPost2010PropOp29
 70
     1
102
RTVSPost2010Prop30
280
     1
102
RTVSPost2010PropOp30
 70
     1
102
RTVSPost2010Prop31
280
     0
102
RTVSPost2010PropOp31
 70
     1
102
RTVSPost2010Prop32
280
     0
102
RTVSPost2010PropOp32
 70
     1
102
RTVSPost2010Prop33
280
     0
102
RTVSPost2010PropOp33
 70
     1
102
RTVSPost2010Prop34
280
     0
102
RTVSPost2010PropOp34
 70
     1
102
RTVSPost2010Prop35
280
     0
102
RTVSPost2010PropOp35
 70
     1
102
RTVSPost2010Prop36
280
     0
102
RTVSPost2010PropOp36
 70
     1
102
RTVSPost2010Prop37
 90
       50
102
RTVSPost2010PropOp37
 70
     1
102
RTVSPost2010Prop38
140
0.0
102
RTVSPost2010PropOp38
 70
     1
102
RTVSPost2010Prop39
140
1.0
102
RTVSPost2010PropOp39
 70
     1
102
RTVSPost2010Prop40
 90
        0
102
RTVSPost2010PropOp40
 70
     1
102
RTVSPost2010Prop41ColorIndex
 90
       18
102
RTVSPost2010Prop41ColorRGB
 90
        0
102
RTVSPost2010PropOp41
 70
     1
102
RTVSPost2010Prop42
 90
       50
102
RTVSPost2010PropOp42
 70
     1
102
RTVSPost2010Prop43
 90
        3
102
RTVSPost2010PropOp43
 70
     1
102
RTVSPost2010Prop44ColorIndex
 90
        5
102
RTVSPost2010Prop44ColorRGB
 90
      255
102
RTVSPost2010PropOp44
 70
     1
102
RTVSPost2010Prop45
280
     0
102
RTVSPost2010PropOp45
 70
     1
102
RTVSPost2010Prop46
 90
       50
102
RTVSPost2010PropOp46
 70
     1
102
RTVSPost2010Prop47
 90
       50
102
RTVSPost2010PropOp47
 70
     1
102
RTVSPost2010Prop48
 90
       50
102
RTVSPost2010PropOp48
 70
     1
102
RTVSPost2010Prop49
280
     0
102
RTVSPost2010PropOp49
 70
     1
102
RTVSPost2010Prop50
 90
       50
102
RTVSPost2010PropOp50
 70
     1
102
RTVSPost2010Prop51ColorIndex
 90
      256
102
RTVSPost2010Prop51ColorRGB
 90
-16777216
102
RTVSPost2010PropOp51
 70
     0
102
RTVSPost2010Prop52
140
1.0
102
RTVSPost2010PropOp52
 70
     0
102
RTVSPost2010Prop53
 90
        2
102
RTVSPost2010PropOp53
 70
     1
102
RTVSPost2010Prop54
  1
strokes_ogs.tif
102
RTVSPost2010PropOp54
 70
     1
102
RTVSPost2010Prop55
280
     0
102
RTVSPost2010PropOp55
 70
     1
102
RTVSPost2010Prop56
140
1.0
102
RTVSPost2010PropOp56
 70
     1
102
RTVSPost2010Prop57
140
1.0
102
RTVSPost2010PropOp57
 70
     1
102
RTVSPropertyOp0
 70
     1
102
RTVSPropertyOp1
 70
     1
102
RTVSPropertyOp2
 70
     1
102
RTVSPropertyOp3
 70
     1
102
RTVSPropertyOp4
 70
     1
102
RTVSPropertyOp5
 70
     1
102
RTVSPropertyOp6
 70
     1
102
RTVSPropertyOp7
 70
     1
102
RTVSPropertyOp8
 70
     1
102
RTVSPropertyOp9
 70
     1
102
RTVSPropertyOp10
 70
     1
102
RTVSPropertyOp11
 70
     1
102
RTVSPropertyOp12
 70
     1
102
RTVSPropertyOp13
 70
     1
102
RTVSPropertyOp14
 70
     1
102
RTVSPropertyOp15
 70
     1
102
RTVSPropertyOp16
 70
     1
102
RTVSPropertyOp17
 70
     1
102
RTVSPropertyOp18
 70
     1
102
RTVSPropertyOp19
 70
     1
102
RTVSPropertyOp20
 70
     1
102
RTVSPropertyOp21
 70
     1
102
RTVSPropertyOp22
 70
     1
102
RTVSPropertyOp23
 70
     1
102
RTVSPropertyOp24
 70
     1
102
RTVSPropertyOp25
 70
     1
102
RTVSPropertyOp26
 70
     1
102
RTVSPropertyOp27
 70
     1
102
RTVSPropertyOp28
 70
     1
102
RTVSPropertyOp29
 70
     1
102
RTVSPropertyOp30
 70
     1
102
RTVSPropertyOp31
 70
     1
102
RTVSPropertyOp32
 70
     1
102
RTVSPropertyOp33
 70
     1
102
RTVSPropertyOp34
 70
     1
102
RTVSPropertyOp35
 70
     1
102
RTVSPropertyOp36
 70
     1
102
RTVSPropertyOp37
 70
     1
102
RTVSPropertyOp38
 70
     1
102
RTVSPropertyOp39
 70
     1
102
RTVSPropertyOp40
 70
     1
102
RTVSPropertyOp41
 70
     1
102
RTVSPropertyOp42
 70
     1
102
RTVSPropertyOp43
 70
     1
102
RTVSPropertyOp44
 70
     1
102
RTVSPropertyOp45
 70
     1
102
RTVSPropertyOp46
 70
     1
102
RTVSPropertyOp47
 70
     1
102
RTVSPropertyOp48
 70
     1
102
RTVSPropertyOp49
 70
     1
102
RTVSPropertyOp50
 70
     1
102
RTVSPropertyOp51
 70
     0
102
RTVSPropertyOp52
 70
     0
102
RTVSPropertyOp53
 70
     1
102
RTVSPropertyOp54
 70
     1
102
RTVSPropertyOp55
 70
     1
102
RTVSPropertyOp56
 70
     1
102
RTVSPropertyOp57
 70
     1
102
RTVSPropertyOp58
 70
     1
102
RTVSPropertyOp59
 70
     1
102
RTVSPropertyOp60
 70
     1
102
RTVSPropertyOp61
 70
     1
102
RTVSPropertyOp62
 70
     1
  0
XRECORD
  5
8C6
102
{ACAD_REACTORS
330
8C5
102
}
330
8C5
100
AcDbXrecord
280
     1
102
RTVSPost2010Prop28
280
     0
102
RTVSPost2010PropOp28
 70
     1
102
RTVSPost2010Prop29
280
     1
102
RTVSPost2010PropOp29
 70
     1
102
RTVSPost2010Prop30
280
     1
102
RTVSPost2010PropOp30
 70
     1
102
RTVSPost2010Prop31
280
     0
102
RTVSPost2010PropOp31
 70
     1
102
RTVSPost2010Prop32
280
     0
102
RTVSPost2010PropOp32
 70
     1
102
RTVSPost2010Prop33
280
     0
102
RTVSPost2010PropOp33
 70
     1
102
RTVSPost2010Prop34
280
     0
102
RTVSPost2010PropOp34
 70
     1
102
RTVSPost2010Prop35
280
     0
102
RTVSPost2010PropOp35
 70
     1
102
RTVSPost2010Prop36
280
     0
102
RTVSPost2010PropOp36
 70
     1
102
RTVSPost2010Prop37
 90
       50
102
RTVSPost2010PropOp37
 70
     1
102
RTVSPost2010Prop38
140
0.0
102
RTVSPost2010PropOp38
 70
     1
102
RTVSPost2010Prop39
140
1.0
102
RTVSPost2010PropOp39
 70
     1
102
RTVSPost2010Prop40
 90
        0
102
RTVSPost2010PropOp40
 70
     1
102
RTVSPost2010Prop41ColorIndex
 90
       18
102
RTVSPost2010Prop41ColorRGB
 90
        0
102
RTVSPost2010PropOp41
 70
     1
102
RTVSPost2010Prop42
 90
       50
102
RTVSPost2010PropOp42
 70
     1
102
RTVSPost2010Prop43
 90
        3
102
RTVSPost2010PropOp43
 70
     1
102
RTVSPost2010Prop44ColorIndex
 90
        5
102
RTVSPost2010Prop44ColorRGB
 90
      255
102
RTVSPost2010PropOp44
 70
     1
102
RTVSPost2010Prop45
280
     0
102
RTVSPost2010PropOp45
 70
     1
102
RTVSPost2010Prop46
 90
       50
102
RTVSPost2010PropOp46
 70
     1
102
RTVSPost2010Prop47
 90
       50
102
RTVSPost2010PropOp47
 70
     1
102
RTVSPost2010Prop48
 90
       50
102
RTVSPost2010PropOp48
 70
     1
102
RTVSPost2010Prop49
280
     0
102
RTVSPost2010PropOp49
 70
     1
102
RTVSPost2010Prop50
 90
       50
102
RTVSPost2010PropOp50
 70
     1
102
RTVSPost2010Prop51ColorIndex
 90
      256
102
RTVSPost2010Prop51ColorRGB
 90
-16777216
102
RTVSPost2010PropOp51
 70
     0
102
RTVSPost2010Prop52
140
1.0
102
RTVSPost2010PropOp52
 70
     0
102
RTVSPost2010Prop53
 90
        2
102
RTVSPost2010PropOp53
 70
     1
102
RTVSPost2010Prop54
  1
strokes_ogs.tif
102
RTVSPost2010PropOp54
 70
     1
102
RTVSPost2010Prop55
280
     0
102
RTVSPost2010PropOp55
 70
     1
102
RTVSPost2010Prop56
140
1.0
102
RTVSPost2010PropOp56
 70
     1
102
RTVSPost2010Prop57
140
1.0
102
RTVSPost2010PropOp57
 70
     1
102
RTVSPropertyOp0
 70
     1
102
RTVSPropertyOp1
 70
     1
102
RTVSPropertyOp2
 70
     1
102
RTVSPropertyOp3
 70
     1
102
RTVSPropertyOp4
 70
     1
102
RTVSPropertyOp5
 70
     1
102
RTVSPropertyOp6
 70
     1
102
RTVSPropertyOp7
 70
     1
102
RTVSPropertyOp8
 70
     1
102
RTVSPropertyOp9
 70
     1
102
RTVSPropertyOp10
 70
     1
102
RTVSPropertyOp11
 70
     1
102
RTVSPropertyOp12
 70
     1
102
RTVSPropertyOp13
 70
     1
102
RTVSPropertyOp14
 70
     1
102
RTVSPropertyOp15
 70
     1
102
RTVSPropertyOp16
 70
     1
102
RTVSPropertyOp17
 70
     1
102
RTVSPropertyOp18
 70
     1
102
RTVSPropertyOp19
 70
     1
102
RTVSPropertyOp20
 70
     1
102
RTVSPropertyOp21
 70
     1
102
RTVSPropertyOp22
 70
     1
102
RTVSPropertyOp23
 70
     1
102
RTVSPropertyOp24
 70
     1
102
RTVSPropertyOp25
 70
     1
102
RTVSPropertyOp26
 70
     1
102
RTVSPropertyOp27
 70
     1
102
RTVSPropertyOp28
 70
     1
102
RTVSPropertyOp29
 70
     1
102
RTVSPropertyOp30
 70
     1
102
RTVSPropertyOp31
 70
     1
102
RTVSPropertyOp32
 70
     1
102
RTVSPropertyOp33
 70
     1
102
RTVSPropertyOp34
 70
     1
102
RTVSPropertyOp35
 70
     1
102
RTVSPropertyOp36
 70
     1
102
RTVSPropertyOp37
 70
     1
102
RTVSPropertyOp38
 70
     1
102
RTVSPropertyOp39
 70
     1
102
RTVSPropertyOp40
 70
     1
102
RTVSPropertyOp41
 70
     1
102
RTVSPropertyOp42
 70
     1
102
RTVSPropertyOp43
 70
     1
102
RTVSPropertyOp44
 70
     1
102
RTVSPropertyOp45
 70
     1
102
RTVSPropertyOp46
 70
     1
102
RTVSPropertyOp47
 70
     1
102
RTVSPropertyOp48
 70
     1
102
RTVSPropertyOp49
 70
     1
102
RTVSPropertyOp50
 70
     1
102
RTVSPropertyOp51
 70
     0
102
RTVSPropertyOp52
 70
     0
102
RTVSPropertyOp53
 70
     1
102
RTVSPropertyOp54
 70
     1
102
RTVSPropertyOp55
 70
     1
102
RTVSPropertyOp56
 70
     1
102
RTVSPropertyOp57
 70
     1
102
RTVSPropertyOp58
 70
     1
102
RTVSPropertyOp59
 70
     1
102
RTVSPropertyOp60
 70
     1
102
RTVSPropertyOp61
 70
     1
102
RTVSPropertyOp62
 70
     1
  0
XRECORD
  5
8C0
102
{ACAD_REACTORS
330
8BF
102
}
330
8BF
100
AcDbXrecord
280
     1
102
RTVSPost2010Prop28
280
     0
102
RTVSPost2010PropOp28
 70
     1
102
RTVSPost2010Prop29
280
     1
102
RTVSPost2010PropOp29
 70
     1
102
RTVSPost2010Prop30
280
     1
102
RTVSPost2010PropOp30
 70
     1
102
RTVSPost2010Prop31
280
     0
102
RTVSPost2010PropOp31
 70
     1
102
RTVSPost2010Prop32
280
     0
102
RTVSPost2010PropOp32
 70
     1
102
RTVSPost2010Prop33
280
     0
102
RTVSPost2010PropOp33
 70
     1
102
RTVSPost2010Prop34
280
     0
102
RTVSPost2010PropOp34
 70
     1
102
RTVSPost2010Prop35
280
     0
102
RTVSPost2010PropOp35
 70
     1
102
RTVSPost2010Prop36
280
     0
102
RTVSPost2010PropOp36
 70
     1
102
RTVSPost2010Prop37
 90
       50
102
RTVSPost2010PropOp37
 70
     1
102
RTVSPost2010Prop38
140
0.0
102
RTVSPost2010PropOp38
 70
     1
102
RTVSPost2010Prop39
140
1.0
102
RTVSPost2010PropOp39
 70
     1
102
RTVSPost2010Prop40
 90
        0
102
RTVSPost2010PropOp40
 70
     1
102
RTVSPost2010Prop41ColorIndex
 90
       18
102
RTVSPost2010Prop41ColorRGB
 90
        0
102
RTVSPost2010PropOp41
 70
     1
102
RTVSPost2010Prop42
 90
       50
102
RTVSPost2010PropOp42
 70
     1
102
RTVSPost2010Prop43
 90
        3
102
RTVSPost2010PropOp43
 70
     1
102
RTVSPost2010Prop44ColorIndex
 90
        5
102
RTVSPost2010Prop44ColorRGB
 90
      255
102
RTVSPost2010PropOp44
 70
     1
102
RTVSPost2010Prop45
280
     0
102
RTVSPost2010PropOp45
 70
     1
102
RTVSPost2010Prop46
 90
       50
102
RTVSPost2010PropOp46
 70
     1
102
RTVSPost2010Prop47
 90
       50
102
RTVSPost2010PropOp47
 70
     1
102
RTVSPost2010Prop48
 90
       50
102
RTVSPost2010PropOp48
 70
     1
102
RTVSPost2010Prop49
280
     0
102
RTVSPost2010PropOp49
 70
     1
102
RTVSPost2010Prop50
 90
       50
102
RTVSPost2010PropOp50
 70
     1
102
RTVSPost2010Prop51ColorIndex
 90
      256
102
RTVSPost2010Prop51ColorRGB
 90
-16777216
102
RTVSPost2010PropOp51
 70
     0
102
RTVSPost2010Prop52
140
1.0
102
RTVSPost2010PropOp52
 70
     0
102
RTVSPost2010Prop53
 90
        2
102
RTVSPost2010PropOp53
 70
     1
102
RTVSPost2010Prop54
  1
strokes_ogs.tif
102
RTVSPost2010PropOp54
 70
     1
102
RTVSPost2010Prop55
280
     0
102
RTVSPost2010PropOp55
 70
     1
102
RTVSPost2010Prop56
140
1.0
102
RTVSPost2010PropOp56
 70
     1
102
RTVSPost2010Prop57
140
1.0
102
RTVSPost2010PropOp57
 70
     1
102
RTVSPropertyOp0
 70
     1
102
RTVSPropertyOp1
 70
     1
102
RTVSPropertyOp2
 70
     1
102
RTVSPropertyOp3
 70
     1
102
RTVSPropertyOp4
 70
     1
102
RTVSPropertyOp5
 70
     1
102
RTVSPropertyOp6
 70
     1
102
RTVSPropertyOp7
 70
     1
102
RTVSPropertyOp8
 70
     1
102
RTVSPropertyOp9
 70
     1
102
RTVSPropertyOp10
 70
     1
102
RTVSPropertyOp11
 70
     1
102
RTVSPropertyOp12
 70
     1
102
RTVSPropertyOp13
 70
     1
102
RTVSPropertyOp14
 70
     1
102
RTVSPropertyOp15
 70
     1
102
RTVSPropertyOp16
 70
     1
102
RTVSPropertyOp17
 70
     1
102
RTVSPropertyOp18
 70
     1
102
RTVSPropertyOp19
 70
     1
102
RTVSPropertyOp20
 70
     1
102
RTVSPropertyOp21
 70
     1
102
RTVSPropertyOp22
 70
     1
102
RTVSPropertyOp23
 70
     1
102
RTVSPropertyOp24
 70
     1
102
RTVSPropertyOp25
 70
     1
102
RTVSPropertyOp26
 70
     1
102
RTVSPropertyOp27
 70
     1
102
RTVSPropertyOp28
 70
     1
102
RTVSPropertyOp29
 70
     1
102
RTVSPropertyOp30
 70
     1
102
RTVSPropertyOp31
 70
     1
102
RTVSPropertyOp32
 70
     1
102
RTVSPropertyOp33
 70
     1
102
RTVSPropertyOp34
 70
     1
102
RTVSPropertyOp35
 70
     1
102
RTVSPropertyOp36
 70
     1
102
RTVSPropertyOp37
 70
     1
102
RTVSPropertyOp38
 70
     1
102
RTVSPropertyOp39
 70
     1
102
RTVSPropertyOp40
 70
     1
102
RTVSPropertyOp41
 70
     1
102
RTVSPropertyOp42
 70
     1
102
RTVSPropertyOp43
 70
     1
102
RTVSPropertyOp44
 70
     1
102
RTVSPropertyOp45
 70
     1
102
RTVSPropertyOp46
 70
     1
102
RTVSPropertyOp47
 70
     1
102
RTVSPropertyOp48
 70
     1
102
RTVSPropertyOp49
 70
     1
102
RTVSPropertyOp50
 70
     1
102
RTVSPropertyOp51
 70
     0
102
RTVSPropertyOp52
 70
     0
102
RTVSPropertyOp53
 70
     1
102
RTVSPropertyOp54
 70
     1
102
RTVSPropertyOp55
 70
     1
102
RTVSPropertyOp56
 70
     1
102
RTVSPropertyOp57
 70
     1
102
RTVSPropertyOp58
 70
     1
102
RTVSPropertyOp59
 70
     1
102
RTVSPropertyOp60
 70
     1
102
RTVSPropertyOp61
 70
     1
102
RTVSPropertyOp62
 70
     1
  0
XRECORD
  5
8C2
102
{ACAD_REACTORS
330
8C1
102
}
330
8C1
100
AcDbXrecord
280
     1
102
RTVSPost2010Prop28
280
     0
102
RTVSPost2010PropOp28
 70
     1
102
RTVSPost2010Prop29
280
     1
102
RTVSPost2010PropOp29
 70
     1
102
RTVSPost2010Prop30
280
     1
102
RTVSPost2010PropOp30
 70
     1
102
RTVSPost2010Prop31
280
     0
102
RTVSPost2010PropOp31
 70
     1
102
RTVSPost2010Prop32
280
     0
102
RTVSPost2010PropOp32
 70
     1
102
RTVSPost2010Prop33
280
     0
102
RTVSPost2010PropOp33
 70
     1
102
RTVSPost2010Prop34
280
     0
102
RTVSPost2010PropOp34
 70
     1
102
RTVSPost2010Prop35
280
     0
102
RTVSPost2010PropOp35
 70
     1
102
RTVSPost2010Prop36
280
     0
102
RTVSPost2010PropOp36
 70
     1
102
RTVSPost2010Prop37
 90
       50
102
RTVSPost2010PropOp37
 70
     1
102
RTVSPost2010Prop38
140
0.0
102
RTVSPost2010PropOp38
 70
     1
102
RTVSPost2010Prop39
140
1.0
102
RTVSPost2010PropOp39
 70
     1
102
RTVSPost2010Prop40
 90
        0
102
RTVSPost2010PropOp40
 70
     1
102
RTVSPost2010Prop41ColorIndex
 90
       18
102
RTVSPost2010Prop41ColorRGB
 90
        0
102
RTVSPost2010PropOp41
 70
     1
102
RTVSPost2010Prop42
 90
       50
102
RTVSPost2010PropOp42
 70
     1
102
RTVSPost2010Prop43
 90
        3
102
RTVSPost2010PropOp43
 70
     1
102
RTVSPost2010Prop44ColorIndex
 90
        5
102
RTVSPost2010Prop44ColorRGB
 90
      255
102
RTVSPost2010PropOp44
 70
     1
102
RTVSPost2010Prop45
280
     0
102
RTVSPost2010PropOp45
 70
     1
102
RTVSPost2010Prop46
 90
       50
102
RTVSPost2010PropOp46
 70
     1
102
RTVSPost2010Prop47
 90
       50
102
RTVSPost2010PropOp47
 70
     1
102
RTVSPost2010Prop48
 90
       50
102
RTVSPost2010PropOp48
 70
     1
102
RTVSPost2010Prop49
280
     0
102
RTVSPost2010PropOp49
 70
     1
102
RTVSPost2010Prop50
 90
       50
102
RTVSPost2010PropOp50
 70
     1
102
RTVSPost2010Prop51ColorIndex
 90
      256
102
RTVSPost2010Prop51ColorRGB
 90
-16777216
102
RTVSPost2010PropOp51
 70
     0
102
RTVSPost2010Prop52
140
1.0
102
RTVSPost2010PropOp52
 70
     0
102
RTVSPost2010Prop53
 90
        2
102
RTVSPost2010PropOp53
 70
     1
102
RTVSPost2010Prop54
  1
strokes_ogs.tif
102
RTVSPost2010PropOp54
 70
     1
102
RTVSPost2010Prop55
280
     0
102
RTVSPost2010PropOp55
 70
     1
102
RTVSPost2010Prop56
140
1.0
102
RTVSPost2010PropOp56
 70
     1
102
RTVSPost2010Prop57
140
1.0
102
RTVSPost2010PropOp57
 70
     1
102
RTVSPropertyOp0
 70
     1
102
RTVSPropertyOp1
 70
     1
102
RTVSPropertyOp2
 70
     1
102
RTVSPropertyOp3
 70
     1
102
RTVSPropertyOp4
 70
     1
102
RTVSPropertyOp5
 70
     1
102
RTVSPropertyOp6
 70
     1
102
RTVSPropertyOp7
 70
     1
102
RTVSPropertyOp8
 70
     1
102
RTVSPropertyOp9
 70
     1
102
RTVSPropertyOp10
 70
     1
102
RTVSPropertyOp11
 70
     1
102
RTVSPropertyOp12
 70
     1
102
RTVSPropertyOp13
 70
     1
102
RTVSPropertyOp14
 70
     1
102
RTVSPropertyOp15
 70
     1
102
RTVSPropertyOp16
 70
     1
102
RTVSPropertyOp17
 70
     1
102
RTVSPropertyOp18
 70
     1
102
RTVSPropertyOp19
 70
     1
102
RTVSPropertyOp20
 70
     1
102
RTVSPropertyOp21
 70
     1
102
RTVSPropertyOp22
 70
     1
102
RTVSPropertyOp23
 70
     1
102
RTVSPropertyOp24
 70
     1
102
RTVSPropertyOp25
 70
     1
102
RTVSPropertyOp26
 70
     1
102
RTVSPropertyOp27
 70
     1
102
RTVSPropertyOp28
 70
     1
102
RTVSPropertyOp29
 70
     1
102
RTVSPropertyOp30
 70
     1
102
RTVSPropertyOp31
 70
     1
102
RTVSPropertyOp32
 70
     1
102
RTVSPropertyOp33
 70
     1
102
RTVSPropertyOp34
 70
     1
102
RTVSPropertyOp35
 70
     1
102
RTVSPropertyOp36
 70
     1
102
RTVSPropertyOp37
 70
     1
102
RTVSPropertyOp38
 70
     1
102
RTVSPropertyOp39
 70
     1
102
RTVSPropertyOp40
 70
     1
102
RTVSPropertyOp41
 70
     1
102
RTVSPropertyOp42
 70
     1
102
RTVSPropertyOp43
 70
     1
102
RTVSPropertyOp44
 70
     1
102
RTVSPropertyOp45
 70
     1
102
RTVSPropertyOp46
 70
     1
102
RTVSPropertyOp47
 70
     1
102
RTVSPropertyOp48
 70
     1
102
RTVSPropertyOp49
 70
     1
102
RTVSPropertyOp50
 70
     1
102
RTVSPropertyOp51
 70
     0
102
RTVSPropertyOp52
 70
     0
102
RTVSPropertyOp53
 70
     1
102
RTVSPropertyOp54
 70
     1
102
RTVSPropertyOp55
 70
     1
102
RTVSPropertyOp56
 70
     1
102
RTVSPropertyOp57
 70
     1
102
RTVSPropertyOp58
 70
     1
102
RTVSPropertyOp59
 70
     1
102
RTVSPropertyOp60
 70
     1
102
RTVSPropertyOp61
 70
     1
102
RTVSPropertyOp62
 70
     1
  0
XRECORD
  5
8B8
102
{ACAD_REACTORS
330
8B7
102
}
330
8B7
100
AcDbXrecord
280
     1
102
RTVSPost2010Prop28
280
     0
102
RTVSPost2010PropOp28
 70
     1
102
RTVSPost2010Prop29
280
     1
102
RTVSPost2010PropOp29
 70
     1
102
RTVSPost2010Prop30
280
     1
102
RTVSPost2010PropOp30
 70
     1
102
RTVSPost2010Prop31
280
     0
102
RTVSPost2010PropOp31
 70
     1
102
RTVSPost2010Prop32
280
     0
102
RTVSPost2010PropOp32
 70
     1
102
RTVSPost2010Prop33
280
     0
102
RTVSPost2010PropOp33
 70
     1
102
RTVSPost2010Prop34
280
     0
102
RTVSPost2010PropOp34
 70
     1
102
RTVSPost2010Prop35
280
     0
102
RTVSPost2010PropOp35
 70
     1
102
RTVSPost2010Prop36
280
     0
102
RTVSPost2010PropOp36
 70
     1
102
RTVSPost2010Prop37
 90
       50
102
RTVSPost2010PropOp37
 70
     1
102
RTVSPost2010Prop38
140
0.0
102
RTVSPost2010PropOp38
 70
     1
102
RTVSPost2010Prop39
140
1.0
102
RTVSPost2010PropOp39
 70
     1
102
RTVSPost2010Prop40
 90
        0
102
RTVSPost2010PropOp40
 70
     1
102
RTVSPost2010Prop41ColorIndex
 90
       18
102
RTVSPost2010Prop41ColorRGB
 90
        0
102
RTVSPost2010PropOp41
 70
     1
102
RTVSPost2010Prop42
 90
       50
102
RTVSPost2010PropOp42
 70
     1
102
RTVSPost2010Prop43
 90
        3
102
RTVSPost2010PropOp43
 70
     1
102
RTVSPost2010Prop44ColorIndex
 90
        5
102
RTVSPost2010Prop44ColorRGB
 90
      255
102
RTVSPost2010PropOp44
 70
     1
102
RTVSPost2010Prop45
280
     0
102
RTVSPost2010PropOp45
 70
     1
102
RTVSPost2010Prop46
 90
       50
102
RTVSPost2010PropOp46
 70
     1
102
RTVSPost2010Prop47
 90
       50
102
RTVSPost2010PropOp47
 70
     1
102
RTVSPost2010Prop48
 90
       50
102
RTVSPost2010PropOp48
 70
     1
102
RTVSPost2010Prop49
280
     0
102
RTVSPost2010PropOp49
 70
     1
102
RTVSPost2010Prop50
 90
       50
102
RTVSPost2010PropOp50
 70
     1
102
RTVSPost2010Prop51ColorIndex
 90
      256
102
RTVSPost2010Prop51ColorRGB
 90
-16777216
102
RTVSPost2010PropOp51
 70
     0
102
RTVSPost2010Prop52
140
1.0
102
RTVSPost2010PropOp52
 70
     0
102
RTVSPost2010Prop53
 90
        2
102
RTVSPost2010PropOp53
 70
     1
102
RTVSPost2010Prop54
  1
strokes_ogs.tif
102
RTVSPost2010PropOp54
 70
     1
102
RTVSPost2010Prop55
280
     0
102
RTVSPost2010PropOp55
 70
     1
102
RTVSPost2010Prop56
140
1.0
102
RTVSPost2010PropOp56
 70
     1
102
RTVSPost2010Prop57
140
1.0
102
RTVSPost2010PropOp57
 70
     1
102
RTVSPropertyOp0
 70
     1
102
RTVSPropertyOp1
 70
     1
102
RTVSPropertyOp2
 70
     1
102
RTVSPropertyOp3
 70
     1
102
RTVSPropertyOp4
 70
     1
102
RTVSPropertyOp5
 70
     1
102
RTVSPropertyOp6
 70
     1
102
RTVSPropertyOp7
 70
     1
102
RTVSPropertyOp8
 70
     1
102
RTVSPropertyOp9
 70
     1
102
RTVSPropertyOp10
 70
     1
102
RTVSPropertyOp11
 70
     1
102
RTVSPropertyOp12
 70
     1
102
RTVSPropertyOp13
 70
     1
102
RTVSPropertyOp14
 70
     1
102
RTVSPropertyOp15
 70
     1
102
RTVSPropertyOp16
 70
     1
102
RTVSPropertyOp17
 70
     1
102
RTVSPropertyOp18
 70
     1
102
RTVSPropertyOp19
 70
     1
102
RTVSPropertyOp20
 70
     1
102
RTVSPropertyOp21
 70
     1
102
RTVSPropertyOp22
 70
     1
102
RTVSPropertyOp23
 70
     1
102
RTVSPropertyOp24
 70
     1
102
RTVSPropertyOp25
 70
     1
102
RTVSPropertyOp26
 70
     1
102
RTVSPropertyOp27
 70
     1
102
RTVSPropertyOp28
 70
     1
102
RTVSPropertyOp29
 70
     1
102
RTVSPropertyOp30
 70
     1
102
RTVSPropertyOp31
 70
     1
102
RTVSPropertyOp32
 70
     1
102
RTVSPropertyOp33
 70
     1
102
RTVSPropertyOp34
 70
     1
102
RTVSPropertyOp35
 70
     1
102
RTVSPropertyOp36
 70
     1
102
RTVSPropertyOp37
 70
     1
102
RTVSPropertyOp38
 70
     1
102
RTVSPropertyOp39
 70
     1
102
RTVSPropertyOp40
 70
     1
102
RTVSPropertyOp41
 70
     1
102
RTVSPropertyOp42
 70
     1
102
RTVSPropertyOp43
 70
     1
102
RTVSPropertyOp44
 70
     1
102
RTVSPropertyOp45
 70
     1
102
RTVSPropertyOp46
 70
     1
102
RTVSPropertyOp47
 70
     1
102
RTVSPropertyOp48
 70
     1
102
RTVSPropertyOp49
 70
     1
102
RTVSPropertyOp50
 70
     1
102
RTVSPropertyOp51
 70
     0
102
RTVSPropertyOp52
 70
     0
102
RTVSPropertyOp53
 70
     1
102
RTVSPropertyOp54
 70
     1
102
RTVSPropertyOp55
 70
     1
102
RTVSPropertyOp56
 70
     1
102
RTVSPropertyOp57
 70
     1
102
RTVSPropertyOp58
 70
     1
102
RTVSPropertyOp59
 70
     1
102
RTVSPropertyOp60
 70
     1
102
RTVSPropertyOp61
 70
     1
102
RTVSPropertyOp62
 70
     1
  0
XRECORD
  5
8AC
102
{ACAD_REACTORS
330
8AB
102
}
330
8AB
100
AcDbXrecord
280
     1
102
RTVSPost2010Prop28
280
     0
102
RTVSPost2010PropOp28
 70
     1
102
RTVSPost2010Prop29
280
     1
102
RTVSPost2010PropOp29
 70
     1
102
RTVSPost2010Prop30
280
     1
102
RTVSPost2010PropOp30
 70
     1
102
RTVSPost2010Prop31
280
     0
102
RTVSPost2010PropOp31
 70
     1
102
RTVSPost2010Prop32
280
     0
102
RTVSPost2010PropOp32
 70
     1
102
RTVSPost2010Prop33
280
     0
102
RTVSPost2010PropOp33
 70
     1
102
RTVSPost2010Prop34
280
     0
102
RTVSPost2010PropOp34
 70
     1
102
RTVSPost2010Prop35
280
     0
102
RTVSPost2010PropOp35
 70
     1
102
RTVSPost2010Prop36
280
     0
102
RTVSPost2010PropOp36
 70
     1
102
RTVSPost2010Prop37
 90
       50
102
RTVSPost2010PropOp37
 70
     1
102
RTVSPost2010Prop38
140
0.0
102
RTVSPost2010PropOp38
 70
     1
102
RTVSPost2010Prop39
140
1.0
102
RTVSPost2010PropOp39
 70
     1
102
RTVSPost2010Prop40
 90
        0
102
RTVSPost2010PropOp40
 70
     1
102
RTVSPost2010Prop41ColorIndex
 90
       18
102
RTVSPost2010Prop41ColorRGB
 90
        0
102
RTVSPost2010PropOp41
 70
     1
102
RTVSPost2010Prop42
 90
       50
102
RTVSPost2010PropOp42
 70
     1
102
RTVSPost2010Prop43
 90
        3
102
RTVSPost2010PropOp43
 70
     1
102
RTVSPost2010Prop44ColorIndex
 90
        5
102
RTVSPost2010Prop44ColorRGB
 90
      255
102
RTVSPost2010PropOp44
 70
     1
102
RTVSPost2010Prop45
280
     0
102
RTVSPost2010PropOp45
 70
     1
102
RTVSPost2010Prop46
 90
       50
102
RTVSPost2010PropOp46
 70
     1
102
RTVSPost2010Prop47
 90
       50
102
RTVSPost2010PropOp47
 70
     1
102
RTVSPost2010Prop48
 90
       50
102
RTVSPost2010PropOp48
 70
     1
102
RTVSPost2010Prop49
280
     0
102
RTVSPost2010PropOp49
 70
     1
102
RTVSPost2010Prop50
 90
       50
102
RTVSPost2010PropOp50
 70
     1
102
RTVSPost2010Prop51ColorIndex
 90
      256
102
RTVSPost2010Prop51ColorRGB
 90
-16777216
102
RTVSPost2010PropOp51
 70
     0
102
RTVSPost2010Prop52
140
1.0
102
RTVSPost2010PropOp52
 70
     0
102
RTVSPost2010Prop53
 90
        2
102
RTVSPost2010PropOp53
 70
     1
102
RTVSPost2010Prop54
  1
strokes_ogs.tif
102
RTVSPost2010PropOp54
 70
     1
102
RTVSPost2010Prop55
280
     0
102
RTVSPost2010PropOp55
 70
     1
102
RTVSPost2010Prop56
140
1.0
102
RTVSPost2010PropOp56
 70
     1
102
RTVSPost2010Prop57
140
1.0
102
RTVSPost2010PropOp57
 70
     1
102
RTVSPropertyOp0
 70
     1
102
RTVSPropertyOp1
 70
     1
102
RTVSPropertyOp2
 70
     1
102
RTVSPropertyOp3
 70
     1
102
RTVSPropertyOp4
 70
     1
102
RTVSPropertyOp5
 70
     1
102
RTVSPropertyOp6
 70
     1
102
RTVSPropertyOp7
 70
     1
102
RTVSPropertyOp8
 70
     1
102
RTVSPropertyOp9
 70
     1
102
RTVSPropertyOp10
 70
     1
102
RTVSPropertyOp11
 70
     1
102
RTVSPropertyOp12
 70
     1
102
RTVSPropertyOp13
 70
     1
102
RTVSPropertyOp14
 70
     1
102
RTVSPropertyOp15
 70
     1
102
RTVSPropertyOp16
 70
     1
102
RTVSPropertyOp17
 70
     1
102
RTVSPropertyOp18
 70
     1
102
RTVSPropertyOp19
 70
     1
102
RTVSPropertyOp20
 70
     1
102
RTVSPropertyOp21
 70
     1
102
RTVSPropertyOp22
 70
     1
102
RTVSPropertyOp23
 70
     1
102
RTVSPropertyOp24
 70
     1
102
RTVSPropertyOp25
 70
     1
102
RTVSPropertyOp26
 70
     1
102
RTVSPropertyOp27
 70
     1
102
RTVSPropertyOp28
 70
     1
102
RTVSPropertyOp29
 70
     1
102
RTVSPropertyOp30
 70
     1
102
RTVSPropertyOp31
 70
     1
102
RTVSPropertyOp32
 70
     1
102
RTVSPropertyOp33
 70
     1
102
RTVSPropertyOp34
 70
     1
102
RTVSPropertyOp35
 70
     1
102
RTVSPropertyOp36
 70
     1
102
RTVSPropertyOp37
 70
     1
102
RTVSPropertyOp38
 70
     1
102
RTVSPropertyOp39
 70
     1
102
RTVSPropertyOp40
 70
     1
102
RTVSPropertyOp41
 70
     1
102
RTVSPropertyOp42
 70
     1
102
RTVSPropertyOp43
 70
     1
102
RTVSPropertyOp44
 70
     1
102
RTVSPropertyOp45
 70
     1
102
RTVSPropertyOp46
 70
     1
102
RTVSPropertyOp47
 70
     1
102
RTVSPropertyOp48
 70
     1
102
RTVSPropertyOp49
 70
     1
102
RTVSPropertyOp50
 70
     1
102
RTVSPropertyOp51
 70
     0
102
RTVSPropertyOp52
 70
     0
102
RTVSPropertyOp53
 70
     1
102
RTVSPropertyOp54
 70
     1
102
RTVSPropertyOp55
 70
     1
102
RTVSPropertyOp56
 70
     1
102
RTVSPropertyOp57
 70
     1
102
RTVSPropertyOp58
 70
     1
102
RTVSPropertyOp59
 70
     1
102
RTVSPropertyOp60
 70
     1
102
RTVSPropertyOp61
 70
     1
102
RTVSPropertyOp62
 70
     1
  0
XRECORD
  5
8C4
102
{ACAD_REACTORS
330
8C3
102
}
330
8C3
100
AcDbXrecord
280
     1
102
RTVSPost2010Prop28
280
     0
102
RTVSPost2010PropOp28
 70
     1
102
RTVSPost2010Prop29
280
     1
102
RTVSPost2010PropOp29
 70
     1
102
RTVSPost2010Prop30
280
     1
102
RTVSPost2010PropOp30
 70
     1
102
RTVSPost2010Prop31
280
     0
102
RTVSPost2010PropOp31
 70
     1
102
RTVSPost2010Prop32
280
     0
102
RTVSPost2010PropOp32
 70
     1
102
RTVSPost2010Prop33
280
     0
102
RTVSPost2010PropOp33
 70
     1
102
RTVSPost2010Prop34
280
     0
102
RTVSPost2010PropOp34
 70
     1
102
RTVSPost2010Prop35
280
     0
102
RTVSPost2010PropOp35
 70
     1
102
RTVSPost2010Prop36
280
     0
102
RTVSPost2010PropOp36
 70
     1
102
RTVSPost2010Prop37
 90
       50
102
RTVSPost2010PropOp37
 70
     1
102
RTVSPost2010Prop38
140
0.0
102
RTVSPost2010PropOp38
 70
     1
102
RTVSPost2010Prop39
140
1.0
102
RTVSPost2010PropOp39
 70
     1
102
RTVSPost2010Prop40
 90
        0
102
RTVSPost2010PropOp40
 70
     1
102
RTVSPost2010Prop41ColorIndex
 90
       18
102
RTVSPost2010Prop41ColorRGB
 90
        0
102
RTVSPost2010PropOp41
 70
     1
102
RTVSPost2010Prop42
 90
       50
102
RTVSPost2010PropOp42
 70
     1
102
RTVSPost2010Prop43
 90
        3
102
RTVSPost2010PropOp43
 70
     1
102
RTVSPost2010Prop44ColorIndex
 90
        5
102
RTVSPost2010Prop44ColorRGB
 90
      255
102
RTVSPost2010PropOp44
 70
     1
102
RTVSPost2010Prop45
280
     0
102
RTVSPost2010PropOp45
 70
     1
102
RTVSPost2010Prop46
 90
       50
102
RTVSPost2010PropOp46
 70
     1
102
RTVSPost2010Prop47
 90
       50
102
RTVSPost2010PropOp47
 70
     1
102
RTVSPost2010Prop48
 90
       50
102
RTVSPost2010PropOp48
 70
     1
102
RTVSPost2010Prop49
280
     0
102
RTVSPost2010PropOp49
 70
     1
102
RTVSPost2010Prop50
 90
       50
102
RTVSPost2010PropOp50
 70
     1
102
RTVSPost2010Prop51ColorIndex
 90
      256
102
RTVSPost2010Prop51ColorRGB
 90
-16777216
102
RTVSPost2010PropOp51
 70
     0
102
RTVSPost2010Prop52
140
1.0
102
RTVSPost2010PropOp52
 70
     0
102
RTVSPost2010Prop53
 90
        2
102
RTVSPost2010PropOp53
 70
     1
102
RTVSPost2010Prop54
  1
strokes_ogs.tif
102
RTVSPost2010PropOp54
 70
     1
102
RTVSPost2010Prop55
280
     0
102
RTVSPost2010PropOp55
 70
     1
102
RTVSPost2010Prop56
140
1.0
102
RTVSPost2010PropOp56
 70
     1
102
RTVSPost2010Prop57
140
1.0
102
RTVSPost2010PropOp57
 70
     1
102
RTVSPropertyOp0
 70
     1
102
RTVSPropertyOp1
 70
     1
102
RTVSPropertyOp2
 70
     1
102
RTVSPropertyOp3
 70
     1
102
RTVSPropertyOp4
 70
     1
102
RTVSPropertyOp5
 70
     1
102
RTVSPropertyOp6
 70
     1
102
RTVSPropertyOp7
 70
     1
102
RTVSPropertyOp8
 70
     1
102
RTVSPropertyOp9
 70
     1
102
RTVSPropertyOp10
 70
     1
102
RTVSPropertyOp11
 70
     1
102
RTVSPropertyOp12
 70
     1
102
RTVSPropertyOp13
 70
     1
102
RTVSPropertyOp14
 70
     1
102
RTVSPropertyOp15
 70
     1
102
RTVSPropertyOp16
 70
     1
102
RTVSPropertyOp17
 70
     1
102
RTVSPropertyOp18
 70
     1
102
RTVSPropertyOp19
 70
     1
102
RTVSPropertyOp20
 70
     1
102
RTVSPropertyOp21
 70
     1
102
RTVSPropertyOp22
 70
     1
102
RTVSPropertyOp23
 70
     1
102
RTVSPropertyOp24
 70
     1
102
RTVSPropertyOp25
 70
     1
102
RTVSPropertyOp26
 70
     1
102
RTVSPropertyOp27
 70
     1
102
RTVSPropertyOp28
 70
     1
102
RTVSPropertyOp29
 70
     1
102
RTVSPropertyOp30
 70
     1
102
RTVSPropertyOp31
 70
     1
102
RTVSPropertyOp32
 70
     1
102
RTVSPropertyOp33
 70
     1
102
RTVSPropertyOp34
 70
     1
102
RTVSPropertyOp35
 70
     1
102
RTVSPropertyOp36
 70
     1
102
RTVSPropertyOp37
 70
     1
102
RTVSPropertyOp38
 70
     1
102
RTVSPropertyOp39
 70
     1
102
RTVSPropertyOp40
 70
     1
102
RTVSPropertyOp41
 70
     1
102
RTVSPropertyOp42
 70
     1
102
RTVSPropertyOp43
 70
     1
102
RTVSPropertyOp44
 70
     1
102
RTVSPropertyOp45
 70
     1
102
RTVSPropertyOp46
 70
     1
102
RTVSPropertyOp47
 70
     1
102
RTVSPropertyOp48
 70
     1
102
RTVSPropertyOp49
 70
     1
102
RTVSPropertyOp50
 70
     1
102
RTVSPropertyOp51
 70
     0
102
RTVSPropertyOp52
 70
     0
102
RTVSPropertyOp53
 70
     1
102
RTVSPropertyOp54
 70
     1
102
RTVSPropertyOp55
 70
     1
102
RTVSPropertyOp56
 70
     1
102
RTVSPropertyOp57
 70
     1
102
RTVSPropertyOp58
 70
     1
102
RTVSPropertyOp59
 70
     1
102
RTVSPropertyOp60
 70
     1
102
RTVSPropertyOp61
 70
     1
102
RTVSPropertyOp62
 70
     1
  0
ENDSEC
  0
EOF
