  0
SECTION
  2
HEADER
  9
$ACADVER
  1
AC1015
  9
$ACADMAINTVER
 70
    20
  9
$DWGCODEPAGE
  3
ANSI_932
  9
$INSBASE
 10
0.0
 20
0.0
 30
0.0
  9
$EXTMIN
 10
9.99995
 20
9.999999999999998
 30
0.0
  9
$EXTMAX
 10
461.0286249999998
 20
537.3499759999998
 30
0.0
  9
$LIMMIN
 10
0.0
 20
0.0
  9
$LIMMAX
 10
792.0
 20
546.0
  9
$ORTHOMODE
 70
     1
  9
$REGENMODE
 70
     1
  9
$FILLMODE
 70
     1
  9
$QTEXTMODE
 70
     0
  9
$MIRRTEXT
 70
     1
  9
$LTSCALE
 40
20.0
  9
$ATTMODE
 70
     1
  9
$TEXTSIZE
 40
5.0
  9
$TRACEWID
 40
1.0
  9
$TEXTSTYLE
  7
STANDARD
  9
$CLAYER
  8
0
  9
$CELTYPE
  6
BYLAYER
  9
$CECOLOR
 62
   256
  9
$CELTSCALE
 40
1.0
  9
$DISPSILH
 70
     0
  9
$DIMSCALE
 40
1.0
  9
$DIMASZ
 40
3.0
  9
$DIMEXO
 40
1.0
  9
$DIMDLI
 40
10.0
  9
$DIMRND
 40
0.0
  9
$DIMDLE
 40
0.0
  9
$DIMEXE
 40
1.0
  9
$DIMTP
 40
0.0
  9
$DIMTM
 40
0.0
  9
$DIMTXT
 40
3.2
  9
$DIMCEN
 40
0.0
  9
$DIMTSZ
 40
0.0
  9
$DIMTOL
 70
     0
  9
$DIMLIM
 70
     0
  9
$DIMTIH
 70
     0
  9
$DIMTOH
 70
     0
  9
$DIMSE1
 70
     0
  9
$DIMSE2
 70
     0
  9
$DIMTAD
 70
     3
  9
$DIMZIN
 70
     8
  9
$DIMBLK
  1

  9
$DIMASO
 70
     1
  9
$DIMSHO
 70
     1
  9
$DIMPOST
  1

  9
$DIMAPOST
  1

  9
$DIMALT
 70
     0
  9
$DIMALTD
 70
     2
  9
$DIMALTF
 40
25.4
  9
$DIMLFAC
 40
1.0
  9
$DIMTOFL
 70
     1
  9
$DIMTVP
 40
0.0
  9
$DIMTIX
 70
     0
  9
$DIMSOXD
 70
     0
  9
$DIMSAH
 70
     1
  9
$DIMBLK1
  1

  9
$DIMBLK2
  1

  9
$DIMSTYLE
  2
STANDARD
  9
$DIMCLRD
 70
     0
  9
$DIMCLRE
 70
     0
  9
$DIMCLRT
 70
     0
  9
$DIMTFAC
 40
1.0
  9
$DIMGAP
 40
1.0
  9
$DIMJUST
 70
     0
  9
$DIMSD1
 70
     0
  9
$DIMSD2
 70
     0
  9
$DIMTOLJ
 70
     1
  9
$DIMTZIN
 70
     0
  9
$DIMALTZ
 70
     0
  9
$DIMALTTZ
 70
     0
  9
$DIMUPT
 70
     0
  9
$DIMDEC
 70
     4
  9
$DIMTDEC
 70
     4
  9
$DIMALTU
 70
     2
  9
$DIMALTTD
 70
     2
  9
$DIMTXSTY
  7
STANDARD
  9
$DIMAUNIT
 70
     0
  9
$DIMADEC
 70
     0
  9
$DIMALTRND
 40
0.0
  9
$DIMAZIN
 70
     0
  9
$DIMDSEP
 70
    46
  9
$DIMATFIT
 70
     3
  9
$DIMFRAC
 70
     0
  9
$DIMLDRBLK
  1

  9
$DIMLUNIT
 70
     2
  9
$DIMLWD
 70
    -2
  9
$DIMLWE
 70
    -2
  9
$DIMTMOVE
 70
     0
  9
$LUNITS
 70
     2
  9
$LUPREC
 70
     4
  9
$SKETCHINC
 40
1.0
  9
$FILLETRAD
 40
2.9
  9
$AUNITS
 70
     0
  9
$AUPREC
 70
     2
  9
$MENU
  1
.
  9
$ELEVATION
 40
0.0
  9
$PELEVATION
 40
0.0
  9
$THICKNESS
 40
0.0
  9
$LIMCHECK
 70
     0
  9
$CHAMFERA
 40
10.0
  9
$CHAMFERB
 40
10.0
  9
$CHAMFERC
 40
0.0
  9
$CHAMFERD
 40
0.0
  9
$SKPOLY
 70
     0
  9
$TDCREATE
 40
2451065.507775926
  9
$TDUCREATE
 40
2451065.132775926
  9
$TDUPDATE
 40
2457192.622752315
  9
$TDUUPDATE
 40
2457192.247752315
  9
$TDINDWG
 40
0.0216210995
  9
$TDUSRTIMER
 40
0.0216206019
  9
$USRTIMER
 70
     1
  9
$ANGBASE
 50
0.0
  9
$ANGDIR
 70
     0
  9
$PDMODE
 70
     0
  9
$PDSIZE
 40
0.0
  9
$PLINEWID
 40
0.0
  9
$SPLFRAME
 70
     0
  9
$SPLINETYPE
 70
     6
  9
$SPLINESEGS
 70
     8
  9
$HANDSEED
  5
A98A
  9
$SURFTAB1
 70
     6
  9
$SURFTAB2
 70
     6
  9
$SURFTYPE
 70
     6
  9
$SURFU
 70
     6
  9
$SURFV
 70
     6
  9
$UCSBASE
  2

  9
$UCSNAME
  2

  9
$UCSORG
 10
0.0
 20
0.0
 30
0.0
  9
$UCSXDIR
 10
1.0
 20
0.0
 30
0.0
  9
$UCSYDIR
 10
0.0
 20
1.0
 30
0.0
  9
$UCSORTHOREF
  2

  9
$UCSORTHOVIEW
 70
     0
  9
$UCSORGTOP
 10
0.0
 20
0.0
 30
0.0
  9
$UCSORGBOTTOM
 10
0.0
 20
0.0
 30
0.0
  9
$UCSORGLEFT
 10
0.0
 20
0.0
 30
0.0
  9
$UCSORGRIGHT
 10
0.0
 20
0.0
 30
0.0
  9
$UCSORGFRONT
 10
0.0
 20
0.0
 30
0.0
  9
$UCSORGBACK
 10
0.0
 20
0.0
 30
0.0
  9
$PUCSBASE
  2

  9
$PUCSNAME
  2

  9
$PUCSORG
 10
0.0
 20
0.0
 30
0.0
  9
$PUCSXDIR
 10
1.0
 20
0.0
 30
0.0
  9
$PUCSYDIR
 10
0.0
 20
1.0
 30
0.0
  9
$PUCSORTHOREF
  2

  9
$PUCSORTHOVIEW
 70
     0
  9
$PUCSORGTOP
 10
0.0
 20
0.0
 30
0.0
  9
$PUCSORGBOTTOM
 10
0.0
 20
0.0
 30
0.0
  9
$PUCSORGLEFT
 10
0.0
 20
0.0
 30
0.0
  9
$PUCSORGRIGHT
 10
0.0
 20
0.0
 30
0.0
  9
$PUCSORGFRONT
 10
0.0
 20
0.0
 30
0.0
  9
$PUCSORGBACK
 10
0.0
 20
0.0
 30
0.0
  9
$USERI1
 70
     0
  9
$USERI2
 70
     0
  9
$USERI3
 70
     0
  9
$USERI4
 70
     0
  9
$USERI5
 70
     0
  9
$USERR1
 40
0.0
  9
$USERR2
 40
0.0
  9
$USERR3
 40
0.0
  9
$USERR4
 40
0.0
  9
$USERR5
 40
0.0
  9
$WORLDVIEW
 70
     1
  9
$SHADEDGE
 70
     3
  9
$SHADEDIF
 70
    70
  9
$TILEMODE
 70
     1
  9
$MAXACTVP
 70
    16
  9
$PINSBASE
 10
0.0
 20
0.0
 30
0.0
  9
$PLIMCHECK
 70
     0
  9
$PEXTMIN
 10
1.000000000000000E+20
 20
1.000000000000000E+20
 30
1.000000000000000E+20
  9
$PEXTMAX
 10
-1.000000000000000E+20
 20
-1.000000000000000E+20
 30
-1.000000000000000E+20
  9
$PLIMMIN
 10
0.0
 20
0.0
  9
$PLIMMAX
 10
420.0
 20
297.0
  9
$UNITMODE
 70
     0
  9
$VISRETAIN
 70
     0
  9
$PLINEGEN
 70
     0
  9
$PSLTSCALE
 70
     0
  9
$TREEDEPTH
 70
  3020
  9
$CMLSTYLE
  2
STANDARD
  9
$CMLJUST
 70
     0
  9
$CMLSCALE
 40
1.0
  9
$PROXYGRAPHICS
 70
     1
  9
$MEASUREMENT
 70
     0
  9
$CELWEIGHT
370
    -1
  9
$ENDCAPS
280
     0
  9
$JOINSTYLE
280
     0
  9
$LWDISPLAY
290
     0
  9
$INSUNITS
 70
     0
  9
$HYPERLINKBASE
  1

  9
$STYLESHEET
  1

  9
$XEDIT
290
     1
  9
$CEPSNTYPE
380
     0
  9
$PSTYLEMODE
290
     1
  9
$FINGERPRINTGUID
  2
{A95402A5-EAA3-4485-B30D-A8C1A4A83FD4}
  9
$VERSIONGUID
  2
{3E92B6E4-0687-4C71-BD53-4385B5867905}
  9
$EXTNAMES
290
     1
  9
$PSVPSCALE
 40
0.0
  9
$OLESTARTUP
290
     0
  0
ENDSEC
  0
SECTION
  2
CLASSES
  0
CLASS
  1
ACDBDICTIONARYWDFLT
  2
AcDbDictionaryWithDefault
  3
ObjectDBX Classes
 90
        0
280
     0
281
     0
  0
CLASS
  1
ACDBPLACEHOLDER
  2
AcDbPlaceHolder
  3
ObjectDBX Classes
 90
        0
280
     0
281
     0
  0
CLASS
  1
LAYOUT
  2
AcDbLayout
  3
ObjectDBX Classes
 90
        0
280
     0
281
     0
  0
CLASS
  1
DICTIONARYVAR
  2
AcDbDictionaryVar
  3
ObjectDBX Classes
 90
        0
280
     0
281
     0
  0
CLASS
  1
MATERIAL
  2
AcDbMaterial
  3
ObjectDBX Classes
 90
     1153
280
     0
281
     0
  0
CLASS
  1
VISUALSTYLE
  2
AcDbVisualStyle
  3
ObjectDBX Classes
 90
     4095
280
     0
281
     0
  0
CLASS
  1
TABLESTYLE
  2
AcDbTableStyle
  3
ObjectDBX Classes
 90
     4095
280
     0
281
     0
  0
CLASS
  1
SCALE
  2
AcDbScale
  3
ObjectDBX Classes
 90
     1153
280
     0
281
     0
  0
CLASS
  1
MLEADERSTYLE
  2
AcDbMLeaderStyle
  3
ACDB_MLEADERSTYLE_CLASS
 90
     4095
280
     0
281
     0
  0
CLASS
  1
ACDBSECTIONVIEWSTYLE
  2
AcDbSectionViewStyle
  3
ObjectDBX Classes
 90
     1025
280
     0
281
     0
  0
CLASS
  1
ACDBDETAILVIEWSTYLE
  2
AcDbDetailViewStyle
  3
ObjectDBX Classes
 90
     1025
280
     0
281
     0
  0
CLASS
  1
CELLSTYLEMAP
  2
AcDbCellStyleMap
  3
ObjectDBX Classes
 90
     1152
280
     0
281
     0
  0
ENDSEC
  0
SECTION
  2
TABLES
  0
TABLE
  2
VPORT
  5
A3A4
330
0
100
AcDbSymbolTable
 70
     1
  0
VPORT
  5
A8D5
330
A3A4
100
AcDbSymbolTableRecord
100
AcDbViewportTableRecord
  2
*ACTIVE
 70
     0
 10
0.0
 20
0.0
 11
1.0
 21
1.0
 12
452.5636393578316
 22
273.666505178281
 13
0.0
 23
0.0
 14
10.0
 24
10.0
 15
10.0
 25
10.0
 16
0.0
 26
0.0
 36
1.0
 17
0.0
 27
0.0
 37
0.0
 40
531.4728729674977
 41
1.899603698811096
 42
50.0
 43
0.0
 44
0.0
 50
0.0
 51
0.0
 71
     0
 72
   100
 73
     1
 74
     0
 75
     0
 76
     0
 77
     0
 78
     0
281
     0
 65
     1
110
0.0
120
0.0
130
0.0
111
1.0
121
0.0
131
0.0
112
0.0
122
1.0
132
0.0
 79
     0
146
0.0
1001
ACAD_NAV_VCDISPLAY
1070
     3
  0
ENDTAB
  0
TABLE
  2
LTYPE
  5
A3A1
330
0
100
AcDbSymbolTable
 70
     4
  0
LTYPE
  5
A3AF
330
A3A1
100
AcDbSymbolTableRecord
100
AcDbLinetypeTableRecord
  2
BYBLOCK
 70
     0
  3

 72
    65
 73
     0
 40
0.0
  0
LTYPE
  5
A3B0
330
A3A1
100
AcDbSymbolTableRecord
100
AcDbLinetypeTableRecord
  2
BYLAYER
 70
     0
  3

 72
    65
 73
     0
 40
0.0
  0
LTYPE
  5
A3B1
330
A3A1
100
AcDbSymbolTableRecord
100
AcDbLinetypeTableRecord
  2
CONTINUOUS
 70
     0
  3
Solid line
 72
    65
 73
     0
 40
0.0
  0
LTYPE
  5
A3BF
330
A3A1
100
AcDbSymbolTableRecord
100
AcDbLinetypeTableRecord
  2
DASHED
 70
     0
  3
__ __ __ __ __ __ __ __ __ __ __ __ __ __ __ __
 72
    65
 73
     2
 40
0.75
 49
0.5
 74
     0
 49
-0.25
 74
     0
  0
LTYPE
  5
A3C0
330
A3A1
100
AcDbSymbolTableRecord
100
AcDbLinetypeTableRecord
  2
CENTER
 70
     0
  3
____ _ ____ _ ____ _ ____ _ ____ _ ____ _ ____ 
 72
    65
 73
     4
 40
2.0
 49
1.25
 74
     0
 49
-0.25
 74
     0
 49
0.25
 74
     0
 49
-0.25
 74
     0
  0
LTYPE
  5
A3C1
330
A3A1
100
AcDbSymbolTableRecord
100
AcDbLinetypeTableRecord
  2
PHANTOM
 70
     0
  3
______  __  __  ______  __  __  ______  __  __ 
 72
    65
 73
     6
 40
2.5
 49
1.25
 74
     0
 49
-0.25
 74
     0
 49
0.25
 74
     0
 49
-0.25
 74
     0
 49
0.25
 74
     0
 49
-0.25
 74
     0
  0
ENDTAB
  0
TABLE
  2
LAYER
  5
A39E
330
0
100
AcDbSymbolTable
 70
     8
  0
LAYER
  5
A3AC
102
{ACAD_XDICTIONARY
360
A92E
102
}
330
A39E
100
AcDbSymbolTableRecord
100
AcDbLayerTableRecord
  2
0
 70
     0
 62
     7
  6
CONTINUOUS
370
    -3
390
A8DC
  0
LAYER
  5
A3C2
102
{ACAD_XDICTIONARY
360
A930
102
}
330
A39E
100
AcDbSymbolTableRecord
100
AcDbLayerTableRecord
  2
4
 70
     0
 62
     1
  6
CENTER
370
    -3
390
A8DC
  0
LAYER
  5
A3C3
102
{ACAD_XDICTIONARY
360
A932
102
}
330
A39E
100
AcDbSymbolTableRecord
100
AcDbLayerTableRecord
  2
5
 70
     0
 62
     6
  6
PHANTOM
370
    -3
390
A8DC
  0
LAYER
  5
A3C4
102
{ACAD_XDICTIONARY
360
A934
102
}
330
A39E
100
AcDbSymbolTableRecord
100
AcDbLayerTableRecord
  2
1
 70
     0
 62
     7
  6
CONTINUOUS
370
    -3
390
A8DC
  0
LAYER
  5
A3C5
102
{ACAD_XDICTIONARY
360
A936
102
}
330
A39E
100
AcDbSymbolTableRecord
100
AcDbLayerTableRecord
  2
2
 70
     0
 62
     4
  6
CONTINUOUS
370
    -3
390
A8DC
  0
LAYER
  5
A3C6
102
{ACAD_XDICTIONARY
360
A938
102
}
330
A39E
100
AcDbSymbolTableRecord
100
AcDbLayerTableRecord
  2
3
 70
     0
 62
     2
  6
DASHED
370
    -3
390
A8DC
  0
LAYER
  5
A3C7
102
{ACAD_XDICTIONARY
360
A93A
102
}
330
A39E
100
AcDbSymbolTableRecord
100
AcDbLayerTableRecord
  2
6
 70
     0
 62
     5
  6
CONTINUOUS
370
    -3
390
A8DC
  0
LAYER
  5
A3C8
102
{ACAD_XDICTIONARY
360
A93C
102
}
330
A39E
100
AcDbSymbolTableRecord
100
AcDbLayerTableRecord
  2
7
 70
     0
 62
     3
  6
CONTINUOUS
370
    -3
390
A8DC
  0
ENDTAB
  0
TABLE
  2
STYLE
  5
A39F
330
0
100
AcDbSymbolTable
 70
     1
  0
STYLE
  5
A3AD
330
A39F
100
AcDbSymbolTableRecord
100
AcDbTextStyleTableRecord
  2
STANDARD
 70
     0
 40
0.0
 41
1.0
 50
0.0
 71
     0
 42
5.0
  3
txt
  4

  0
ENDTAB
  0
TABLE
  2
VIEW
  5
A3A2
330
0
100
AcDbSymbolTable
 70
     0
  0
ENDTAB
  0
TABLE
  2
UCS
  5
A3A3
330
0
100
AcDbSymbolTable
 70
     0
  0
ENDTAB
  0
TABLE
  2
APPID
  5
A3A5
330
0
100
AcDbSymbolTable
 70
     3
  0
APPID
  5
A3AE
330
A3A5
100
AcDbSymbolTableRecord
100
AcDbRegAppTableRecord
  2
ACAD
 70
     0
  0
APPID
  5
A948
330
A3A5
100
AcDbSymbolTableRecord
100
AcDbRegAppTableRecord
  2
ACAD_NAV_VCDISPLAY
 70
     0
  0
APPID
  5
A981
330
A3A5
100
AcDbSymbolTableRecord
100
AcDbRegAppTableRecord
  2
ACAD_MLEADERVER
 70
     0
  0
ENDTAB
  0
TABLE
  2
DIMSTYLE
  5
A3A6
330
0
100
AcDbSymbolTable
 70
     1
100
AcDbDimStyleTable
 71
     0
  0
DIMSTYLE
105
A3CA
330
A3A6
100
AcDbSymbolTableRecord
100
AcDbDimStyleTableRecord
  2
STANDARD
 70
     0
 41
3.0
 42
1.0
 43
10.0
 44
1.0
 73
     0
 74
     0
 77
     3
 78
     8
140
3.2
141
0.0
147
1.0
172
     1
173
     1
284
     8
285
     8
286
     8
340
A3AD
  0
ENDTAB
  0
TABLE
  2
BLOCK_RECORD
  5
A39D
330
0
100
AcDbSymbolTable
 70
     0
  0
BLOCK_RECORD
  5
A3BA
102
{ACAD_XDICTIONARY
360
A661
102
}
330
A39D
100
AcDbSymbolTableRecord
100
AcDbBlockTableRecord
  2
*MODEL_SPACE
340
A92A
  0
BLOCK_RECORD
  5
A3B6
102
{ACAD_XDICTIONARY
360
A65F
102
}
330
A39D
100
AcDbSymbolTableRecord
100
AcDbBlockTableRecord
  2
*PAPER_SPACE
340
A92B
  0
ENDTAB
  0
ENDSEC
  0
SECTION
  2
BLOCKS
  0
BLOCK
  5
A3BB
330
A3BA
100
AcDbEntity
  8
0
100
AcDbBlockBegin
  2
*MODEL_SPACE
 70
     0
 10
0.0
 20
0.0
 30
0.0
  3
*MODEL_SPACE
  1

  0
ENDBLK
  5
A3BC
330
A3BA
100
AcDbEntity
  8
0
100
AcDbBlockEnd
  0
BLOCK
  5
A3B7
330
A3B6
100
AcDbEntity
 67
     1
  8
0
100
AcDbBlockBegin
  2
*PAPER_SPACE
 70
     0
 10
0.0
 20
0.0
 30
0.0
  3
*PAPER_SPACE
  1

  0
ENDBLK
  5
A3B8
330
A3B6
100
AcDbEntity
 67
     1
  8
0
100
AcDbBlockEnd
  0
ENDSEC
  0
SECTION
  2
ENTITIES
  0
LINE
  5
A3D2
330
A3BA
100
AcDbEntity
  8
1
  6
Continuous
100
AcDbLine
 10
188.0
 20
173.0
 30
0.0
 11
178.0
 21
173.0
 31
0.0
  0
LINE
  5
A3D3
330
A3BA
100
AcDbEntity
  8
1
  6
Continuous
100
AcDbLine
 10
188.0
 20
323.0
 30
0.0
 11
178.0
 21
323.0
 31
0.0
  0
LINE
  5
A3D4
330
A3BA
100
AcDbEntity
  8
4
  6
CENTER
 48
0.2
100
AcDbLine
 10
198.1038969999999
 20
395.0
 30
0.0
 11
164.971375
 21
395.0
 31
0.0
  0
LINE
  5
A3D5
330
A3BA
100
AcDbEntity
  8
1
  6
Continuous
100
AcDbLine
 10
186.5
 20
405.0
 30
0.0
 11
179.1999969999999
 21
405.0
 31
0.0
  0
LINE
  5
A3D6
330
A3BA
100
AcDbEntity
  8
1
  6
Continuous
100
AcDbLine
 10
170.300003
 20
169.0
 30
0.0
 11
170.300003
 21
199.0
 31
0.0
  0
LINE
  5
A3D7
330
A3BA
100
AcDbEntity
  8
1
  6
Continuous
100
AcDbLine
 10
200.3000029999999
 20
171.0
 30
0.0
 11
200.3000029999999
 21
197.0
 31
0.0
  0
LINE
  5
A3D8
330
A3BA
100
AcDbEntity
  8
1
  6
Continuous
100
AcDbLine
 10
198.300003
 20
169.0
 30
0.0
 11
170.300003
 21
169.0
 31
0.0
  0
LINE
  5
A3D9
330
A3BA
100
AcDbEntity
  8
1
  6
Continuous
100
AcDbLine
 10
198.300003
 20
199.0
 30
0.0
 11
188.0
 21
199.0
 31
0.0
  0
LINE
  5
A3DA
330
A3BA
100
AcDbEntity
  8
4
  6
CENTER
 48
0.2
100
AcDbLine
 10
192.300003
 20
169.699997
 30
0.0
 11
192.300003
 21
180.3000029999997
 31
0.0
  0
LINE
  5
A3DB
330
A3BA
100
AcDbEntity
  8
4
  6
CENTER
 48
0.2
100
AcDbLine
 10
197.600006
 20
175.0
 30
0.0
 11
187.0
 21
175.0
 31
0.0
  0
LINE
  5
A3DC
330
A3BA
100
AcDbEntity
  8
4
  6
CENTER
 48
0.2
100
AcDbLine
 10
192.300003
 20
187.6999969999999
 30
0.0
 11
192.300003
 21
198.300003
 31
0.0
  0
LINE
  5
A3DD
330
A3BA
100
AcDbEntity
  8
4
  6
CENTER
 48
0.2
100
AcDbLine
 10
197.600006
 20
193.0
 30
0.0
 11
187.0
 21
193.0
 31
0.0
  0
LINE
  5
A3DE
330
A3BA
100
AcDbEntity
  8
1
  6
Continuous
100
AcDbLine
 10
178.0
 20
199.0
 30
0.0
 11
170.300003
 21
199.0
 31
0.0
  0
LINE
  5
A3DF
330
A3BA
100
AcDbEntity
  8
1
  6
Continuous
100
AcDbLine
 10
191.0
 20
177.5
 30
0.0
 11
191.0
 21
190.5
 31
0.0
  0
LINE
  5
A3E0
330
A3BA
100
AcDbEntity
  8
1
  6
Continuous
100
AcDbLine
 10
190.0
 20
191.5
 30
0.0
 11
188.0
 21
191.5
 31
0.0
  0
LINE
  5
A3E1
330
A3BA
100
AcDbEntity
  8
1
  6
Continuous
100
AcDbLine
 10
190.0
 20
176.5
 30
0.0
 11
188.0
 21
176.5
 31
0.0
  0
LINE
  5
A3E2
330
A3BA
100
AcDbEntity
  8
1
  6
Continuous
100
AcDbLine
 10
191.0
 20
177.5
 30
0.0
 11
190.0
 21
176.5
 31
0.0
  0
LINE
  5
A3E3
330
A3BA
100
AcDbEntity
  8
1
  6
Continuous
100
AcDbLine
 10
191.0
 20
190.5
 30
0.0
 11
190.0
 21
191.5
 31
0.0
  0
LINE
  5
A3E4
330
A3BA
100
AcDbEntity
  8
1
  6
Continuous
100
AcDbLine
 10
190.0
 20
176.5
 30
0.0
 11
190.0
 21
191.5
 31
0.0
  0
LINE
  5
A3E5
330
A3BA
100
AcDbEntity
  8
1
  6
Continuous
100
AcDbLine
 10
172.0999969999999
 20
181.0
 30
0.0
 11
172.0999969999999
 21
183.4999999999998
 31
0.0
  0
LINE
  5
A3E6
330
A3BA
100
AcDbEntity
  8
1
  6
Continuous
100
AcDbLine
 10
178.0
 20
192.850006
 30
0.0
 11
176.3999939999999
 21
192.850006
 31
0.0
  0
LINE
  5
A3E7
330
A3BA
100
AcDbEntity
  8
1
  6
Continuous
100
AcDbLine
 10
178.0
 20
175.1499939999999
 30
0.0
 11
176.3999939999999
 21
175.1499939999999
 31
0.0
  0
LINE
  5
A3E8
330
A3BA
100
AcDbEntity
  8
1
  6
Continuous
100
AcDbLine
 10
173.3999999999999
 20
169.0
 30
0.0
 11
173.3999999999999
 21
199.0
 31
0.0
  0
LINE
  5
A3E9
330
A3BA
100
AcDbEntity
  8
1
  6
Continuous
100
AcDbLine
 10
188.4999999999998
 20
402.5
 30
0.0
 11
186.5
 21
402.5
 31
0.0
  0
LINE
  5
A3EA
330
A3BA
100
AcDbEntity
  8
1
  6
Continuous
100
AcDbLine
 10
188.4999999999998
 20
387.5
 30
0.0
 11
186.5
 21
387.5
 31
0.0
  0
LINE
  5
A3EB
330
A3BA
100
AcDbEntity
  8
1
  6
Continuous
100
AcDbLine
 10
189.4999999999997
 20
388.5
 30
0.0
 11
189.4999999999997
 21
401.4999999999998
 31
0.0
  0
LINE
  5
A3EC
330
A3BA
100
AcDbEntity
  8
1
  6
Continuous
100
AcDbLine
 10
189.4999999999997
 20
388.5
 30
0.0
 11
188.4999999999998
 21
387.5
 31
0.0
  0
LINE
  5
A3ED
330
A3BA
100
AcDbEntity
  8
1
  6
Continuous
100
AcDbLine
 10
189.4999999999997
 20
401.4999999999998
 30
0.0
 11
188.4999999999998
 21
402.5
 31
0.0
  0
LINE
  5
A3EE
330
A3BA
100
AcDbEntity
  8
1
  6
Continuous
100
AcDbLine
 10
188.4999999999998
 20
387.5
 30
0.0
 11
188.4999999999998
 21
402.5
 31
0.0
  0
LINE
  5
A3EF
330
A3BA
100
AcDbEntity
  8
1
  6
Continuous
100
AcDbLine
 10
177.500006
 20
387.0
 30
0.0
 11
177.500006
 21
405.1000000000001
 31
0.0
  0
LINE
  5
A3F0
330
A3BA
100
AcDbEntity
  8
1
  6
Continuous
100
AcDbLine
 10
179.1999969999999
 20
403.850006
 30
0.0
 11
177.600006
 21
403.850006
 31
0.0
  0
LINE
  5
A3F1
330
A3BA
100
AcDbEntity
  8
1
  6
Continuous
100
AcDbLine
 10
179.1999969999999
 20
386.1499939999998
 30
0.0
 11
177.600006
 21
386.1499939999998
 31
0.0
  0
LINE
  5
A3F2
330
A3BA
100
AcDbEntity
  8
1
  6
Continuous
100
AcDbLine
 10
174.5999969999999
 20
387.0
 30
0.0
 11
174.5999969999999
 21
405.1000059999998
 31
0.0
  0
LINE
  5
A3F3
330
A3BA
100
AcDbEntity
  8
1
  6
Continuous
100
AcDbLine
 10
201.5
 20
423.0
 30
0.0
 11
174.3999939999999
 21
423.0
 31
0.0
  0
LINE
  5
A3F4
330
A3BA
100
AcDbEntity
  8
1
  6
Continuous
100
AcDbLine
 10
174.600006
 20
408.0
 30
0.0
 11
174.3999939999999
 21
408.0
 31
0.0
  0
LINE
  5
A3F5
330
A3BA
100
AcDbEntity
  8
1
  6
Continuous
100
AcDbLine
 10
171.5
 20
408.0000059999997
 30
0.0
 11
171.5
 21
420.1000059999998
 31
0.0
  0
LINE
  5
A3F6
330
A3BA
100
AcDbEntity
  8
1
  6
Continuous
100
AcDbLine
 10
174.5999969999999
 20
405.1000059999998
 30
0.0
 11
174.3999999999999
 21
405.1000059999998
 31
0.0
  0
LINE
  5
A3F7
330
A3BA
100
AcDbEntity
  8
1
  6
Continuous
100
AcDbLine
 10
201.5
 20
420.1000059999998
 30
0.0
 11
174.3999939999999
 21
420.1000059999998
 31
0.0
  0
LINE
  5
A3F8
330
A3BA
100
AcDbEntity
  8
4
  6
CENTER
 48
0.2
100
AcDbLine
 10
179.3999939999999
 20
414.0
 30
0.0
 11
166.350006
 21
414.0
 31
0.0
  0
LINE
  5
A3F9
330
A3BA
100
AcDbEntity
  8
4
  6
CENTER
 48
0.2
100
AcDbLine
 10
193.5
 20
415.100006
 30
0.0
 11
193.5
 21
428.0
 31
0.0
  0
LINE
  5
A3FA
330
A3BA
100
AcDbEntity
  8
1
  6
Continuous
100
AcDbLine
 10
341.0
 20
169.0
 30
0.0
 11
320.0
 21
169.0
 31
0.0
  0
LINE
  5
A3FB
330
A3BA
100
AcDbEntity
  8
1
  6
Continuous
100
AcDbLine
 10
341.0
 20
199.0
 30
0.0
 11
324.0
 21
199.0
 31
0.0
  0
LINE
  5
A3FC
330
A3BA
100
AcDbEntity
  8
4
  6
CENTER
100
AcDbLine
 10
313.0
 20
164.0
 30
0.0
 11
313.0
 21
428.0
 31
0.0
  0
LINE
  5
A3FD
330
A3BA
100
AcDbEntity
  8
1
  6
Continuous
100
AcDbLine
 10
324.0
 20
173.0
 30
0.0
 11
302.0
 21
173.0
 31
0.0
  0
LINE
  5
A3FE
330
A3BA
100
AcDbEntity
  8
1
  6
Continuous
100
AcDbLine
 10
341.0
 20
169.0
 30
0.0
 11
341.0
 21
199.0
 31
0.0
  0
LINE
  5
A3FF
330
A3BA
100
AcDbEntity
  8
4
  6
CENTER
 48
0.2
100
AcDbLine
 10
351.0
 20
184.0
 30
0.0
 11
298.0
 21
184.0
 31
0.0
  0
LINE
  5
A400
330
A3BA
100
AcDbEntity
  8
1
  6
Continuous
100
AcDbLine
 10
177.500006
 20
387.0
 30
0.0
 11
174.5999969999999
 21
387.0
 31
0.0
  0
LINE
  5
A401
330
A3BA
100
AcDbEntity
  8
1
  6
Continuous
100
AcDbLine
 10
338.100006
 20
169.0
 30
0.0
 11
338.100006
 21
199.0
 31
0.0
  0
LINE
  5
A402
330
A3BA
100
AcDbEntity
  8
4
  6
CENTER
 48
0.2
100
AcDbLine
 10
332.0
 20
169.699997
 30
0.0
 11
332.0
 21
180.3000029999997
 31
0.0
  0
LINE
  5
A403
330
A3BA
100
AcDbEntity
  8
4
  6
CENTER
 48
0.2
100
AcDbLine
 10
343.0
 20
175.0
 30
0.0
 11
326.700012
 21
175.0
 31
0.0
  0
LINE
  5
A404
330
A3BA
100
AcDbEntity
  8
4
  6
CENTER
 48
0.2
100
AcDbLine
 10
332.0
 20
187.6999969999999
 30
0.0
 11
332.0
 21
198.300003
 31
0.0
  0
LINE
  5
A405
330
A3BA
100
AcDbEntity
  8
4
  6
CENTER
 48
0.2
100
AcDbLine
 10
343.0
 20
193.0
 30
0.0
 11
326.700012
 21
193.0
 31
0.0
  0
LINE
  5
A406
330
A3BA
100
AcDbEntity
  8
1
  6
Continuous
100
AcDbLine
 10
328.0
 20
423.0
 30
0.0
 11
298.0
 21
423.0
 31
0.0
  0
LINE
  5
A407
330
A3BA
100
AcDbEntity
  8
1
  6
Continuous
100
AcDbLine
 10
328.0
 20
420.1000059999998
 30
0.0
 11
298.0
 21
420.1000059999998
 31
0.0
  0
LINE
  5
A408
330
A3BA
100
AcDbEntity
  8
1
  6
Continuous
100
AcDbLine
 10
328.0
 20
408.0
 30
0.0
 11
298.0
 21
408.0
 31
0.0
  0
LINE
  5
A409
330
A3BA
100
AcDbEntity
  8
1
  6
Continuous
100
AcDbLine
 10
328.0
 20
402.0
 30
0.0
 11
328.0
 21
423.0
 31
0.0
  0
LINE
  5
A40A
330
A3BA
100
AcDbEntity
  8
1
  6
Continuous
100
AcDbLine
 10
298.0
 20
402.0
 30
0.0
 11
298.0
 21
423.0
 31
0.0
  0
LINE
  5
A40B
330
A3BA
100
AcDbEntity
  8
1
  6
Continuous
100
AcDbLine
 10
322.5
 20
405.0
 30
0.0
 11
303.5
 21
405.0
 31
0.0
  0
LINE
  5
A40C
330
A3BA
100
AcDbEntity
  8
4
  6
CENTER
 48
0.2
100
AcDbLine
 10
304.0
 20
409.350006
 30
0.0
 11
304.0
 21
428.0
 31
0.0
  0
LINE
  5
A40D
330
A3BA
100
AcDbEntity
  8
4
  6
CENTER
 48
0.2
100
AcDbLine
 10
308.6499939999999
 20
414.0
 30
0.0
 11
299.350006
 21
414.0
 31
0.0
  0
LINE
  5
A40E
330
A3BA
100
AcDbEntity
  8
4
  6
CENTER
 48
0.2
100
AcDbLine
 10
322.0
 20
409.350006
 30
0.0
 11
322.0
 21
428.0
 31
0.0
  0
LINE
  5
A40F
330
A3BA
100
AcDbEntity
  8
4
  6
CENTER
 48
0.2
100
AcDbLine
 10
326.649994
 20
414.0
 30
0.0
 11
317.350006
 21
414.0
 31
0.0
  0
LINE
  5
A410
330
A3BA
100
AcDbEntity
  8
4
  6
CENTER
 48
0.2
100
AcDbLine
 10
325.4999999999999
 20
395.0
 30
0.0
 11
300.4999999999999
 21
395.0
 31
0.0
  0
LINE
  5
A411
330
A3BA
100
AcDbEntity
  8
1
  6
Continuous
100
AcDbLine
 10
326.0
 20
169.0
 30
0.0
 11
326.0
 21
199.0
 31
0.0
  0
LINE
  5
A412
330
A3BA
100
AcDbEntity
  8
1
  6
Continuous
100
AcDbLine
 10
25.0
 20
199.0
 30
0.0
 11
46.0
 21
199.0
 31
0.0
  0
LINE
  5
A413
330
A3BA
100
AcDbEntity
  8
1
  6
Continuous
100
AcDbLine
 10
25.0
 20
169.0
 30
0.0
 11
46.0
 21
169.0
 31
0.0
  0
LINE
  5
A414
330
A3BA
100
AcDbEntity
  8
4
  6
CENTER
100
AcDbLine
 10
53.0
 20
164.0
 30
0.0
 11
53.0
 21
428.0
 31
0.0
  0
LINE
  5
A415
330
A3BA
100
AcDbEntity
  8
4
  6
CENTER
 48
0.2
100
AcDbLine
 10
34.0
 20
169.699997
 30
0.0
 11
34.0
 21
180.3000029999997
 31
0.0
  0
LINE
  5
A416
330
A3BA
100
AcDbEntity
  8
1
  6
Continuous
100
AcDbLine
 10
25.0
 20
169.0
 30
0.0
 11
25.0
 21
199.0
 31
0.0
  0
LINE
  5
A417
330
A3BA
100
AcDbEntity
  8
4
  6
CENTER
 48
0.2
100
AcDbLine
 10
20.0
 20
184.0
 30
0.0
 11
66.0
 21
184.0
 31
0.0
  0
LINE
  5
A418
330
A3BA
100
AcDbEntity
  8
4
  6
CENTER
 48
0.2
100
AcDbLine
 10
20.0
 20
175.0
 30
0.0
 11
39.299999
 21
175.0
 31
0.0
  0
LINE
  5
A419
330
A3BA
100
AcDbEntity
  8
4
  6
CENTER
 48
0.2
100
AcDbLine
 10
34.0
 20
187.6999969999999
 30
0.0
 11
34.0
 21
198.300003
 31
0.0
  0
LINE
  5
A41A
330
A3BA
100
AcDbEntity
  8
4
  6
CENTER
 48
0.2
100
AcDbLine
 10
20.0
 20
193.0
 30
0.0
 11
39.299999
 21
193.0
 31
0.0
  0
LINE
  5
A41B
330
A3BA
100
AcDbEntity
  8
1
  6
Continuous
100
AcDbLine
 10
199.5
 20
490.0
 30
0.0
 11
171.5
 21
490.0
 31
0.0
  0
LINE
  5
A41C
330
A3BA
100
AcDbEntity
  8
1
  6
Continuous
100
AcDbLine
 10
199.5
 20
520.0
 30
0.0
 11
171.5
 21
520.0
 31
0.0
  0
LINE
  5
A41D
330
A3BA
100
AcDbEntity
  8
1
  6
Continuous
100
AcDbLine
 10
324.0
 20
323.0
 30
0.0
 11
302.0
 21
323.0
 31
0.0
  0
LINE
  5
A41E
330
A3BA
100
AcDbEntity
  8
1
  6
Continuous
100
AcDbLine
 10
172.0999969999999
 20
184.4999999999997
 30
0.0
 11
172.8499969999999
 21
184.0
 31
0.0
  0
LINE
  5
A41F
330
A3BA
100
AcDbEntity
  8
1
  6
Continuous
100
AcDbLine
 10
172.8500119999999
 20
184.0
 30
0.0
 11
172.0999969999999
 21
183.4999999999998
 31
0.0
  0
LINE
  5
A420
330
A3BA
100
AcDbEntity
  8
1
  6
Continuous
100
AcDbLine
 10
172.0999969999999
 20
184.4999999999997
 30
0.0
 11
172.0999969999999
 21
187.0
 31
0.0
  0
LINE
  5
A421
330
A3BA
100
AcDbEntity
  8
1
  6
Continuous
100
AcDbLine
 10
201.5
 20
420.1000059999998
 30
0.0
 11
201.5
 21
423.0
 31
0.0
  0
LINE
  5
A422
330
A3BA
100
AcDbEntity
  8
1
  6
Continuous
100
AcDbLine
 10
173.0999969999999
 20
395.5
 30
0.0
 11
173.0999969999999
 21
398.0
 31
0.0
  0
LINE
  5
A423
330
A3BA
100
AcDbEntity
  8
1
  6
Continuous
100
AcDbLine
 10
173.0999969999999
 20
392.0
 30
0.0
 11
173.0999969999999
 21
394.5
 31
0.0
  0
LINE
  5
A424
330
A3BA
100
AcDbEntity
  8
1
  6
Continuous
100
AcDbLine
 10
173.0999969999999
 20
395.5
 30
0.0
 11
173.8499969999999
 21
395.0
 31
0.0
  0
LINE
  5
A425
330
A3BA
100
AcDbEntity
  8
1
  6
Continuous
100
AcDbLine
 10
173.8500119999999
 20
395.0
 30
0.0
 11
173.1000119999999
 21
394.5
 31
0.0
  0
LINE
  5
A426
330
A3BA
100
AcDbEntity
  8
1
  6
Continuous
100
AcDbLine
 10
55.958038
 20
183.4999999999998
 30
0.0
 11
53.5
 21
183.4999999999998
 31
0.0
  0
LINE
  5
A427
330
A3BA
100
AcDbEntity
  8
1
  6
Continuous
100
AcDbLine
 10
55.958038
 20
184.4999999999997
 30
0.0
 11
53.5
 21
184.4999999999997
 31
0.0
  0
LINE
  5
A428
330
A3BA
100
AcDbEntity
  8
1
  6
Continuous
100
AcDbLine
 10
53.5
 20
181.041962
 30
0.0
 11
53.5
 21
183.4999999999998
 31
0.0
  0
LINE
  5
A429
330
A3BA
100
AcDbEntity
  8
1
  6
Continuous
100
AcDbLine
 10
52.5
 20
181.041962
 30
0.0
 11
52.5
 21
183.4999999999998
 31
0.0
  0
LINE
  5
A42A
330
A3BA
100
AcDbEntity
  8
1
  6
Continuous
100
AcDbLine
 10
53.5
 20
184.4999999999997
 30
0.0
 11
53.5
 21
186.958038
 31
0.0
  0
LINE
  5
A42B
330
A3BA
100
AcDbEntity
  8
1
  6
Continuous
100
AcDbLine
 10
52.5
 20
184.4999999999997
 30
0.0
 11
52.5
 21
186.958038
 31
0.0
  0
LINE
  5
A42C
330
A3BA
100
AcDbEntity
  8
1
  6
Continuous
100
AcDbLine
 10
52.5
 20
183.4999999999998
 30
0.0
 11
50.04196199999999
 21
183.4999999999998
 31
0.0
  0
LINE
  5
A42D
330
A3BA
100
AcDbEntity
  8
1
  6
Continuous
100
AcDbLine
 10
52.5
 20
184.4999999999997
 30
0.0
 11
50.04196199999999
 21
184.4999999999997
 31
0.0
  0
LINE
  5
A42E
330
A3BA
100
AcDbEntity
  8
1
  6
Continuous
100
AcDbLine
 10
42.900002
 20
169.0
 30
0.0
 11
42.900002
 21
199.0
 31
0.0
  0
LINE
  5
A42F
330
A3BA
100
AcDbEntity
  8
1
  6
Continuous
100
AcDbLine
 10
174.5999969999999
 20
392.0
 30
0.0
 11
173.0999969999999
 21
392.0
 31
0.0
  0
LINE
  5
A430
330
A3BA
100
AcDbEntity
  8
1
  6
Continuous
100
AcDbLine
 10
174.5999969999999
 20
398.0
 30
0.0
 11
173.0999969999999
 21
398.0
 31
0.0
  0
LINE
  5
A431
330
A3BA
100
AcDbEntity
  8
1
  6
Continuous
100
AcDbLine
 10
173.3999999999999
 20
181.0
 30
0.0
 11
172.0999969999999
 21
181.0
 31
0.0
  0
LINE
  5
A432
330
A3BA
100
AcDbEntity
  8
1
  6
Continuous
100
AcDbLine
 10
173.3999999999999
 20
187.0
 30
0.0
 11
172.0999969999999
 21
187.0
 31
0.0
  0
LINE
  5
A433
330
A3BA
100
AcDbEntity
  8
1
  6
Continuous
100
AcDbLine
 10
68.0
 20
423.0
 30
0.0
 11
68.0
 21
402.0
 31
0.0
  0
LINE
  5
A434
330
A3BA
100
AcDbEntity
  8
1
  6
Continuous
100
AcDbLine
 10
38.0
 20
423.0
 30
0.0
 11
38.0
 21
402.0
 31
0.0
  0
LINE
  5
A435
330
A3BA
100
AcDbEntity
  8
4
  6
CENTER
 48
0.2
100
AcDbLine
 10
39.34999799999999
 20
414.0
 30
0.0
 11
48.650002
 21
414.0
 31
0.0
  0
LINE
  5
A436
330
A3BA
100
AcDbEntity
  8
1
  6
Continuous
100
AcDbLine
 10
38.0
 20
423.0
 30
0.0
 11
68.0
 21
423.0
 31
0.0
  0
LINE
  5
A437
330
A3BA
100
AcDbEntity
  8
4
  6
CENTER
 48
0.2
100
AcDbLine
 10
44.0
 20
428.0
 30
0.0
 11
44.0
 21
409.350006
 31
0.0
  0
LINE
  5
A438
330
A3BA
100
AcDbEntity
  8
4
  6
CENTER
 48
0.2
100
AcDbLine
 10
57.349998
 20
414.0
 30
0.0
 11
66.650002
 21
414.0
 31
0.0
  0
LINE
  5
A439
330
A3BA
100
AcDbEntity
  8
4
  6
CENTER
 48
0.2
100
AcDbLine
 10
62.0
 20
428.0
 30
0.0
 11
62.0
 21
409.350006
 31
0.0
  0
LINE
  5
A43A
330
A3BA
100
AcDbEntity
  8
1
  6
Continuous
100
AcDbLine
 10
52.5
 20
392.041962
 30
0.0
 11
52.5
 21
394.5
 31
0.0
  0
LINE
  5
A43B
330
A3BA
100
AcDbEntity
  8
1
  6
Continuous
100
AcDbLine
 10
53.5
 20
392.041962
 30
0.0
 11
53.5
 21
394.5
 31
0.0
  0
LINE
  5
A43C
330
A3BA
100
AcDbEntity
  8
1
  6
Continuous
100
AcDbLine
 10
50.04196199999999
 20
394.5
 30
0.0
 11
52.5
 21
394.5
 31
0.0
  0
LINE
  5
A43D
330
A3BA
100
AcDbEntity
  8
1
  6
Continuous
100
AcDbLine
 10
50.04196199999999
 20
395.5
 30
0.0
 11
52.5
 21
395.5
 31
0.0
  0
LINE
  5
A43E
330
A3BA
100
AcDbEntity
  8
1
  6
Continuous
100
AcDbLine
 10
53.5
 20
394.5
 30
0.0
 11
55.958038
 21
394.5
 31
0.0
  0
LINE
  5
A43F
330
A3BA
100
AcDbEntity
  8
1
  6
Continuous
100
AcDbLine
 10
53.5
 20
395.5
 30
0.0
 11
55.958038
 21
395.5
 31
0.0
  0
LINE
  5
A440
330
A3BA
100
AcDbEntity
  8
1
  6
Continuous
100
AcDbLine
 10
52.5
 20
395.5
 30
0.0
 11
52.5
 21
397.9580379999999
 31
0.0
  0
LINE
  5
A441
330
A3BA
100
AcDbEntity
  8
1
  6
Continuous
100
AcDbLine
 10
53.5
 20
395.5
 30
0.0
 11
53.5
 21
397.9580379999999
 31
0.0
  0
LINE
  5
A442
330
A3BA
100
AcDbEntity
  8
1
  6
Continuous
100
AcDbLine
 10
38.0
 20
405.1000059999998
 30
0.0
 11
68.0
 21
405.1000059999998
 31
0.0
  0
LINE
  5
A443
330
A3BA
100
AcDbEntity
  8
4
  6
CENTER
 48
0.2
100
AcDbLine
 10
58.25
 20
395.0
 30
0.0
 11
47.75
 21
395.0
 31
0.0
  0
LINE
  5
A444
330
A3BA
100
AcDbEntity
  8
1
  6
Continuous
100
AcDbLine
 10
201.5
 20
492.0
 30
0.0
 11
201.5
 21
518.0
 31
0.0
  0
LINE
  5
A445
330
A3BA
100
AcDbEntity
  8
1
  6
Continuous
100
AcDbLine
 10
171.5
 20
490.0
 30
0.0
 11
171.5
 21
520.0
 31
0.0
  0
LINE
  5
A446
330
A3BA
100
AcDbEntity
  8
4
  6
CENTER
 48
0.2
100
AcDbLine
 10
206.3500059999999
 20
505.0
 30
0.0
 11
166.5
 21
505.0
 31
0.0
  0
LINE
  5
A447
330
A3BA
100
AcDbEntity
  8
4
  6
CENTER
 48
0.2
100
AcDbLine
 10
188.199997
 20
496.0
 30
0.0
 11
198.800003
 21
496.0
 31
0.0
  0
LINE
  5
A448
330
A3BA
100
AcDbEntity
  8
4
  6
CENTER
 48
0.2
100
AcDbLine
 10
193.5
 20
490.700012
 30
0.0
 11
193.5
 21
501.2999879999998
 31
0.0
  0
LINE
  5
A449
330
A3BA
100
AcDbEntity
  8
4
  6
CENTER
 48
0.2
100
AcDbLine
 10
188.199997
 20
514.0
 30
0.0
 11
198.800003
 21
514.0
 31
0.0
  0
LINE
  5
A44A
330
A3BA
100
AcDbEntity
  8
4
  6
CENTER
 48
0.2
100
AcDbLine
 10
193.5
 20
508.7000119999998
 30
0.0
 11
193.5
 21
519.299988
 31
0.0
  0
LINE
  5
A44B
330
A3BA
100
AcDbEntity
  8
1
  6
Continuous
100
AcDbLine
 10
200.3000029999999
 20
530.0999759999998
 30
0.0
 11
200.3000029999999
 21
533.0
 31
0.0
  0
LINE
  5
A44C
330
A3BA
100
AcDbEntity
  8
1
  6
Continuous
100
AcDbLine
 10
170.300003
 20
518.0
 30
0.0
 11
170.300003
 21
530.0999759999998
 31
0.0
  0
LINE
  5
A44D
330
A3BA
100
AcDbEntity
  8
1
  6
Continuous
100
AcDbLine
 10
200.3000029999999
 20
533.0
 30
0.0
 11
173.1999969999999
 21
533.0
 31
0.0
  0
LINE
  5
A44E
330
A3BA
100
AcDbEntity
  8
1
  6
Continuous
100
AcDbLine
 10
200.3000029999999
 20
530.0999759999998
 30
0.0
 11
173.1999969999999
 21
530.0999759999998
 31
0.0
  0
LINE
  5
A44F
330
A3BA
100
AcDbEntity
  8
4
  6
CENTER
 48
0.2
100
AcDbLine
 10
177.550003
 20
524.0
 30
0.0
 11
165.9499969999999
 21
524.0
 31
0.0
  0
LINE
  5
A450
330
A3BA
100
AcDbEntity
  8
1
  6
Continuous
100
AcDbLine
 10
171.5
 20
84.0
 30
0.0
 11
171.5
 21
58.640076
 31
0.0
  0
LINE
  5
A451
330
A3BA
100
AcDbEntity
  8
4
  6
CENTER
 48
0.2
100
AcDbLine
 10
192.300003
 20
48.25
 30
0.0
 11
192.300003
 21
36.650002
 31
0.0
  0
LINE
  5
A452
330
A3BA
100
AcDbEntity
  8
1
  6
Continuous
100
AcDbLine
 10
173.3999999999999
 20
56.0
 30
0.0
 11
173.1999969999999
 21
56.0
 31
0.0
  0
LINE
  5
A453
330
A3BA
100
AcDbEntity
  8
1
  6
Continuous
100
AcDbLine
 10
176.3999939999999
 20
77.849998
 30
0.0
 11
176.3999939999999
 21
60.150002
 31
0.0
  0
LINE
  5
A454
330
A3BA
100
AcDbEntity
  8
1
  6
Continuous
100
AcDbLine
 10
178.0
 20
78.800003
 30
0.0
 11
178.0
 21
59.200001
 31
0.0
  0
LINE
  5
A455
330
A3BA
100
AcDbEntity
  8
1
  6
Continuous
100
AcDbLine
 10
173.3999999999999
 20
58.900002
 30
0.0
 11
173.1999969999999
 21
58.900002
 31
0.0
  0
LINE
  5
A456
330
A3BA
100
AcDbEntity
  8
1
  6
Continuous
100
AcDbLine
 10
191.0
 20
75.5
 30
0.0
 11
191.0
 21
62.5
 31
0.0
  0
LINE
  5
A457
330
A3BA
100
AcDbEntity
  8
1
  6
Continuous
100
AcDbLine
 10
170.300003
 20
56.0
 30
0.0
 11
170.300003
 21
43.900002
 31
0.0
  0
LINE
  5
A458
330
A3BA
100
AcDbEntity
  8
4
  6
CENTER
 48
0.2
100
AcDbLine
 10
177.550003
 20
50.0
 30
0.0
 11
165.9499969999999
 21
50.0
 31
0.0
  0
LINE
  5
A459
330
A3BA
100
AcDbEntity
  8
1
  6
Continuous
100
AcDbLine
 10
200.3000029999999
 20
43.900002
 30
0.0
 11
173.1999969999999
 21
43.900002
 31
0.0
  0
LINE
  5
A45A
330
A3BA
100
AcDbEntity
  8
1
  6
Continuous
100
AcDbLine
 10
200.3000029999999
 20
41.0
 30
0.0
 11
173.1999969999999
 21
41.0
 31
0.0
  0
LINE
  5
A45B
330
A3BA
100
AcDbEntity
  8
1
  6
Continuous
100
AcDbLine
 10
200.3000029999999
 20
43.900002
 30
0.0
 11
200.3000029999999
 21
41.0
 31
0.0
  0
LINE
  5
A45C
330
A3BA
100
AcDbEntity
  8
1
  6
Continuous
100
AcDbLine
 10
178.0
 20
60.150002
 30
0.0
 11
176.3999939999999
 21
60.150002
 31
0.0
  0
LINE
  5
A45D
330
A3BA
100
AcDbEntity
  8
1
  6
Continuous
100
AcDbLine
 10
172.1000119999999
 20
68.5
 30
0.0
 11
172.8499969999999
 21
69.0
 31
0.0
  0
LINE
  5
A45E
330
A3BA
100
AcDbEntity
  8
1
  6
Continuous
100
AcDbLine
 10
176.2999939999999
 20
77.0
 30
0.0
 11
173.3999999999999
 21
77.0
 31
0.0
  0
LINE
  5
A45F
330
A3BA
100
AcDbEntity
  8
1
  6
Continuous
100
AcDbLine
 10
173.3999999999999
 20
77.0
 30
0.0
 11
173.3999999999999
 21
58.900002
 31
0.0
  0
LINE
  5
A460
330
A3BA
100
AcDbEntity
  8
1
  6
Continuous
100
AcDbLine
 10
190.0
 20
76.5
 30
0.0
 11
190.0
 21
61.5
 31
0.0
  0
LINE
  5
A461
330
A3BA
100
AcDbEntity
  8
1
  6
Continuous
100
AcDbLine
 10
178.0
 20
77.849998
 30
0.0
 11
176.3999939999999
 21
77.849998
 31
0.0
  0
LINE
  5
A462
330
A3BA
100
AcDbEntity
  8
1
  6
Continuous
100
AcDbLine
 10
190.0
 20
61.5
 30
0.0
 11
188.0
 21
61.5
 31
0.0
  0
LINE
  5
A463
330
A3BA
100
AcDbEntity
  8
1
  6
Continuous
100
AcDbLine
 10
190.0
 20
76.5
 30
0.0
 11
188.0
 21
76.5
 31
0.0
  0
LINE
  5
A464
330
A3BA
100
AcDbEntity
  8
1
  6
Continuous
100
AcDbLine
 10
191.0
 20
62.5
 30
0.0
 11
190.0
 21
61.5
 31
0.0
  0
LINE
  5
A465
330
A3BA
100
AcDbEntity
  8
1
  6
Continuous
100
AcDbLine
 10
191.0
 20
75.5
 30
0.0
 11
190.0
 21
76.5
 31
0.0
  0
LINE
  5
A466
330
A3BA
100
AcDbEntity
  8
1
  6
Continuous
100
AcDbLine
 10
173.3999999999999
 20
66.0
 30
0.0
 11
172.0999969999999
 21
66.0
 31
0.0
  0
LINE
  5
A467
330
A3BA
100
AcDbEntity
  8
1
  6
Continuous
100
AcDbLine
 10
173.3999999999999
 20
72.0
 30
0.0
 11
172.0999969999999
 21
72.0
 31
0.0
  0
LINE
  5
A468
330
A3BA
100
AcDbEntity
  8
1
  6
Continuous
100
AcDbLine
 10
172.8499969999999
 20
69.0
 30
0.0
 11
172.0999969999999
 21
69.5
 31
0.0
  0
LINE
  5
A469
330
A3BA
100
AcDbEntity
  8
1
  6
Continuous
100
AcDbLine
 10
199.5
 20
84.0
 30
0.0
 11
171.5
 21
84.0
 31
0.0
  0
LINE
  5
A46A
330
A3BA
100
AcDbEntity
  8
1
  6
Continuous
100
AcDbLine
 10
199.5
 20
54.0
 30
0.0
 11
173.1999969999999
 21
54.0
 31
0.0
  0
LINE
  5
A46B
330
A3BA
100
AcDbEntity
  8
4
  6
CENTER
 48
0.2
100
AcDbLine
 10
206.3500059999999
 20
69.0
 30
0.0
 11
166.5
 21
69.0
 31
0.0
  0
LINE
  5
A46C
330
A3BA
100
AcDbEntity
  8
1
  6
Continuous
100
AcDbLine
 10
201.5
 20
82.0
 30
0.0
 11
201.5
 21
56.0
 31
0.0
  0
LINE
  5
A46D
330
A3BA
100
AcDbEntity
  8
4
  6
CENTER
 48
0.2
100
AcDbLine
 10
192.399994
 20
525.75
 30
0.0
 11
192.399994
 21
537.3499759999998
 31
0.0
  0
LINE
  5
A46E
330
A3BA
100
AcDbEntity
  8
4
  6
CENTER
 48
0.2
100
AcDbLine
 10
447.0
 20
307.0
 30
0.0
 11
439.0
 21
307.0
 31
0.0
  0
LINE
  5
A46F
330
A3BA
100
AcDbEntity
  8
4
  6
CENTER
 48
0.2
100
AcDbLine
 10
447.0
 20
317.0
 30
0.0
 11
439.0
 21
317.0
 31
0.0
  0
LINE
  5
A470
330
A3BA
100
AcDbEntity
  8
4
  6
CENTER
100
AcDbLine
 10
183.0
 20
164.0
 30
0.0
 11
183.0
 21
428.0
 31
0.0
  0
LINE
  5
A471
330
A3BA
100
AcDbEntity
  8
4
  6
CENTER
 48
0.2
100
AcDbLine
 10
183.0
 20
49.0
 30
0.0
 11
183.0
 21
89.0
 31
0.0
  0
LINE
  5
A472
330
A3BA
100
AcDbEntity
  8
1
  6
Continuous
100
AcDbLine
 10
173.1999969999999
 20
520.0
 30
0.0
 11
173.1999969999999
 21
530.0999759999998
 31
0.0
  0
LINE
  5
A473
330
A3BA
100
AcDbEntity
  8
1
  6
Continuous
100
AcDbLine
 10
176.2999939999999
 20
169.0
 30
0.0
 11
176.2999939999999
 21
199.0
 31
0.0
  0
LINE
  5
A474
330
A3BA
100
AcDbEntity
  8
1
  6
Continuous
100
AcDbLine
 10
174.3999939999999
 20
408.0
 30
0.0
 11
174.3999939999999
 21
420.1000059999998
 31
0.0
  0
LINE
  5
A475
330
A3BA
100
AcDbEntity
  8
1
  6
Continuous
100
AcDbLine
 10
427.700012
 20
169.0
 30
0.0
 11
455.700012
 21
169.0
 31
0.0
  0
LINE
  5
A476
330
A3BA
100
AcDbEntity
  8
1
  6
Continuous
100
AcDbLine
 10
455.700012
 20
169.0
 30
0.0
 11
455.700012
 21
199.0
 31
0.0
  0
LINE
  5
A477
330
A3BA
100
AcDbEntity
  8
1
  6
Continuous
100
AcDbLine
 10
427.700012
 20
199.0
 30
0.0
 11
455.700012
 21
199.0
 31
0.0
  0
LINE
  5
A478
330
A3BA
100
AcDbEntity
  8
4
  6
CENTER
 48
0.2
100
AcDbLine
 10
433.7000119999998
 20
169.699997
 30
0.0
 11
433.7000119999998
 21
180.3000029999997
 31
0.0
  0
LINE
  5
A479
330
A3BA
100
AcDbEntity
  8
4
  6
CENTER
 48
0.2
100
AcDbLine
 10
433.7000119999998
 20
187.6999969999999
 30
0.0
 11
433.7000119999998
 21
198.300003
 31
0.0
  0
LINE
  5
A47A
330
A3BA
100
AcDbEntity
  8
1
  6
Continuous
100
AcDbLine
 10
425.7000119999998
 20
171.0
 30
0.0
 11
425.7000119999998
 21
197.0
 31
0.0
  0
LINE
  5
A47B
330
A3BA
100
AcDbEntity
  8
4
  6
CENTER
 48
0.2
100
AcDbLine
 10
428.399994
 20
193.0
 30
0.0
 11
439.0
 21
193.0
 31
0.0
  0
LINE
  5
A47C
330
A3BA
100
AcDbEntity
  8
4
  6
CENTER
 48
0.2
100
AcDbLine
 10
428.399994
 20
175.0
 30
0.0
 11
439.0
 21
175.0
 31
0.0
  0
LINE
  5
A47D
330
A3BA
100
AcDbEntity
  8
1
  6
Continuous
100
AcDbLine
 10
438.0
 20
323.0
 30
0.0
 11
448.0
 21
323.0
 31
0.0
  0
LINE
  5
A47E
330
A3BA
100
AcDbEntity
  8
4
  6
CENTER
 48
0.2
100
AcDbLine
 10
420.700012
 20
184.0
 30
0.0
 11
460.700012
 21
184.0
 31
0.0
  0
LINE
  5
A47F
330
A3BA
100
AcDbEntity
  8
4
  6
CENTER
 48
0.2
100
AcDbLine
 10
432.0
 20
295.5
 30
0.0
 11
454.0
 21
295.5
 31
0.0
  0
LINE
  5
A480
330
A3BA
100
AcDbEntity
  8
4
  6
CENTER
 48
0.2
100
AcDbLine
 10
460.700012
 20
175.0
 30
0.0
 11
447.7999879999998
 21
175.0
 31
0.0
  0
LINE
  5
A481
330
A3BA
100
AcDbEntity
  8
4
  6
CENTER
 48
0.2
100
AcDbLine
 10
460.700012
 20
193.0
 30
0.0
 11
447.7999879999998
 21
193.0
 31
0.0
  0
LINE
  5
A482
330
A3BA
100
AcDbEntity
  8
4
  6
CENTER
 48
0.2
100
AcDbLine
 10
180.75
 20
193.0
 30
0.0
 11
169.1499939999999
 21
193.0
 31
0.0
  0
LINE
  5
A483
330
A3BA
100
AcDbEntity
  8
1
  6
Continuous
100
AcDbLine
 10
173.1999969999999
 20
56.0
 30
0.0
 11
173.1999969999999
 21
43.900002
 31
0.0
  0
LINE
  5
A484
330
A3BA
100
AcDbEntity
  8
4
  6
CENTER
 48
0.2
100
AcDbLine
 10
188.199997
 20
60.0
 30
0.0
 11
198.800003
 21
60.0
 31
0.0
  0
LINE
  5
A485
330
A3BA
100
AcDbEntity
  8
4
  6
CENTER
 48
0.2
100
AcDbLine
 10
193.5
 20
54.700001
 30
0.0
 11
193.5
 21
65.30000300000001
 31
0.0
  0
LINE
  5
A486
330
A3BA
100
AcDbEntity
  8
4
  6
CENTER
 48
0.2
100
AcDbLine
 10
188.199997
 20
78.0
 30
0.0
 11
198.800003
 21
78.0
 31
0.0
  0
LINE
  5
A487
330
A3BA
100
AcDbEntity
  8
4
  6
CENTER
 48
0.2
100
AcDbLine
 10
193.5
 20
72.69999699999998
 30
0.0
 11
193.5
 21
83.300003
 31
0.0
  0
LINE
  5
A488
330
A3BA
100
AcDbEntity
  8
1
  6
Continuous
100
AcDbLine
 10
42.0
 20
323.0
 30
0.0
 11
64.0
 21
323.0
 31
0.0
  0
LINE
  5
A489
330
A3BA
100
AcDbEntity
  8
1
  6
Continuous
100
AcDbLine
 10
42.0
 20
309.0
 30
0.0
 11
42.0
 21
309.0
 31
0.0
  0
LINE
  5
A48A
330
A3BA
100
AcDbEntity
  8
1
  6
Continuous
100
AcDbLine
 10
42.0
 20
305.0
 30
0.0
 11
42.0
 21
305.0
 31
0.0
  0
LINE
  5
A48B
330
A3BA
100
AcDbEntity
  8
1
  6
Continuous
100
AcDbLine
 10
42.0
 20
319.0
 30
0.0
 11
42.0
 21
319.0
 31
0.0
  0
LINE
  5
A48C
330
A3BA
100
AcDbEntity
  8
1
  6
Continuous
100
AcDbLine
 10
42.0
 20
315.0
 30
0.0
 11
42.0
 21
315.0
 31
0.0
  0
LINE
  5
A48D
330
A3BA
100
AcDbEntity
  8
4
  6
CENTER
 48
0.1
100
AcDbLine
 10
39.5
 20
317.0
 30
0.0
 11
43.5
 21
317.0
 31
0.0
  0
LINE
  5
A48E
330
A3BA
100
AcDbEntity
  8
4
  6
CENTER
 48
0.1
100
AcDbLine
 10
39.5
 20
307.0
 30
0.0
 11
43.5
 21
307.0
 31
0.0
  0
LINE
  5
A48F
330
A3BA
100
AcDbEntity
  8
1
  6
Continuous
100
AcDbLine
 10
324.0
 20
173.0
 30
0.0
 11
324.0
 21
323.0
 31
0.0
  0
LINE
  5
A490
330
A3BA
100
AcDbEntity
  8
1
  6
Continuous
100
AcDbLine
 10
302.0
 20
173.0
 30
0.0
 11
302.0
 21
323.0
 31
0.0
  0
LINE
  5
A491
330
A3BA
100
AcDbEntity
  8
1
  6
Continuous
100
AcDbLine
 10
303.5
 20
323.0
 30
0.0
 11
303.5
 21
405.0
 31
0.0
  0
LINE
  5
A492
330
A3BA
100
AcDbEntity
  8
1
  6
Continuous
100
AcDbLine
 10
322.5
 20
323.0
 30
0.0
 11
322.5
 21
405.0
 31
0.0
  0
LINE
  5
A493
330
A3BA
100
AcDbEntity
  8
1
  6
Continuous
100
AcDbLine
 10
188.0
 20
173.0
 30
0.0
 11
188.0
 21
323.0
 31
0.0
  0
LINE
  5
A494
330
A3BA
100
AcDbEntity
  8
1
  6
Continuous
100
AcDbLine
 10
178.0
 20
173.0
 30
0.0
 11
178.0
 21
323.0
 31
0.0
  0
LINE
  5
A495
330
A3BA
100
AcDbEntity
  8
1
  6
Continuous
100
AcDbLine
 10
180.6999969999999
 20
280.0
 30
0.0
 11
180.6999969999999
 21
303.0
 31
0.0
  0
LINE
  5
A496
330
A3BA
100
AcDbEntity
  8
1
  6
Continuous
100
AcDbLine
 10
184.3999939999999
 20
280.0
 30
0.0
 11
184.3999939999999
 21
303.0
 31
0.0
  0
LINE
  5
A497
330
A3BA
100
AcDbEntity
  8
1
  6
Continuous
100
AcDbLine
 10
183.3999939999999
 20
304.0
 30
0.0
 11
181.6999969999999
 21
304.0
 31
0.0
  0
LINE
  5
A498
330
A3BA
100
AcDbEntity
  8
1
  6
Continuous
100
AcDbLine
 10
183.3999939999999
 20
279.0
 30
0.0
 11
181.6999969999999
 21
279.0
 31
0.0
  0
LINE
  5
A499
330
A3BA
100
AcDbEntity
  8
4
  6
CENTER
 48
0.2
100
AcDbLine
 10
205.300003
 20
184.0
 30
0.0
 11
165.300003
 21
184.0
 31
0.0
  0
LINE
  5
A49A
330
A3BA
100
AcDbEntity
  8
4
  6
CENTER
 48
0.2
100
AcDbLine
 10
180.75
 20
175.0
 30
0.0
 11
169.1499939999999
 21
175.0
 31
0.0
  0
LINE
  5
A49B
330
A3BA
100
AcDbEntity
  8
1
  6
Continuous
100
AcDbLine
 10
42.0
 20
199.0
 30
0.0
 11
42.0
 21
323.0
 31
0.0
  0
LINE
  5
A49C
330
A3BA
100
AcDbEntity
  8
1
  6
Continuous
100
AcDbLine
 10
64.0
 20
173.0
 30
0.0
 11
64.0
 21
323.0
 31
0.0
  0
LINE
  5
A49D
330
A3BA
100
AcDbEntity
  8
1
  6
Continuous
100
AcDbLine
 10
448.0
 20
199.0
 30
0.0
 11
448.0
 21
323.0
 31
0.0
  0
LINE
  5
A49E
330
A3BA
100
AcDbEntity
  8
1
  6
Continuous
100
AcDbLine
 10
438.0
 20
199.0
 30
0.0
 11
438.0
 21
323.0
 31
0.0
  0
LINE
  5
A49F
330
A3BA
100
AcDbEntity
  8
1
  6
Continuous
100
AcDbLine
 10
179.1999969999999
 20
323.0
 30
0.0
 11
179.1999969999999
 21
405.0
 31
0.0
  0
LINE
  5
A4A0
330
A3BA
100
AcDbEntity
  8
1
  6
Continuous
100
AcDbLine
 10
186.5
 20
323.0
 30
0.0
 11
186.5
 21
405.0
 31
0.0
  0
LINE
  5
A4A1
330
A3BA
100
AcDbEntity
  8
1
  6
Continuous
100
AcDbLine
 10
43.5
 20
323.0
 30
0.0
 11
43.5
 21
390.3918149999999
 31
0.0
  0
LINE
  5
A4A2
330
A3BA
100
AcDbEntity
  8
1
  6
Continuous
100
AcDbLine
 10
62.5
 20
323.0
 30
0.0
 11
62.5
 21
390.3918149999999
 31
0.0
  0
LINE
  5
A4A3
330
A3BA
100
AcDbEntity
  8
4
  6
CENTER
 48
0.2
100
AcDbLine
 10
193.1521149999999
 20
295.5
 30
0.0
 11
172.6358799999999
 21
295.5
 31
0.0
  0
LINE
  5
A4A4
330
A3BA
100
AcDbEntity
  8
1
  6
Continuous
100
AcDbLine
 10
183.8999939999999
 20
282.0
 30
0.0
 11
183.8999939999999
 21
303.8660279999998
 31
0.0
  0
LINE
  5
A4A5
330
A3BA
100
AcDbEntity
  8
1
  6
Continuous
100
AcDbLine
 10
184.3999939999999
 20
293.5
 30
0.0
 11
184.1492
 21
293.5
 31
0.0
  0
LINE
  5
A4A6
330
A3BA
100
AcDbEntity
  8
1
  6
Continuous
100
AcDbLine
 10
184.3999939999999
 20
297.5
 30
0.0
 11
184.1492
 21
297.5
 31
0.0
  0
LINE
  5
A4A7
330
A3BA
100
AcDbEntity
  8
1
  6
Continuous
100
AcDbLine
 10
184.3999939999999
 20
282.0
 30
0.0
 11
180.6999969999999
 21
282.0
 31
0.0
  0
LINE
  5
A4A8
330
A3BA
100
AcDbEntity
  8
1
  6
Continuous
100
AcDbLine
 10
183.3999939999999
 20
287.7999879999998
 30
0.0
 11
181.199997
 21
287.7999879999998
 31
0.0
  0
LINE
  5
A4A9
330
A3BA
100
AcDbEntity
  8
1
  6
Continuous
100
AcDbLine
 10
183.3999939999999
 20
285.0
 30
0.0
 11
181.199997
 21
285.0
 31
0.0
  0
LINE
  5
A4AA
330
A3BA
100
AcDbEntity
  8
1
  6
Continuous
100
AcDbLine
 10
184.045959
 20
293.5
 30
0.0
 11
183.8999939999999
 21
293.5
 31
0.0
  0
LINE
  5
A4AB
330
A3BA
100
AcDbEntity
  8
1
  6
Continuous
100
AcDbLine
 10
184.045959
 20
297.5
 30
0.0
 11
183.8999939999999
 21
297.5
 31
0.0
  0
LINE
  5
A4AC
330
A3BA
100
AcDbEntity
  8
1
  6
Continuous
100
AcDbLine
 10
183.3999939999999
 20
286.5
 30
0.0
 11
181.199997
 21
286.5
 31
0.0
  0
LINE
  5
A4AD
330
A3BA
100
AcDbEntity
  8
1
  6
Continuous
100
AcDbLine
 10
183.3999939999999
 20
289.2999879999998
 30
0.0
 11
181.199997
 21
289.2999879999998
 31
0.0
  0
LINE
  5
A4AE
330
A3BA
100
AcDbEntity
  8
5
  6
PHANTOM
 48
0.1
100
AcDbLine
 10
183.3999939999999
 20
294.0
 30
0.0
 11
181.6999969999999
 21
294.0
 31
0.0
  0
LINE
  5
A4AF
330
A3BA
100
AcDbEntity
  8
5
  6
PHANTOM
 48
0.1
100
AcDbLine
 10
183.3999939999999
 20
302.4999999999999
 30
0.0
 11
181.6999969999999
 21
302.4999999999999
 31
0.0
  0
LINE
  5
A4B0
330
A3BA
100
AcDbEntity
  8
4
  6
CENTER
 48
0.2
100
AcDbLine
 10
193.1521149999999
 20
299.0
 30
0.0
 11
172.6358799999999
 21
299.0
 31
0.0
  0
LINE
  5
A4B1
330
A3BA
100
AcDbEntity
  8
5
  6
PHANTOM
 48
0.1
100
AcDbLine
 10
183.3999939999999
 20
295.5
 30
0.0
 11
181.6999969999999
 21
295.5
 31
0.0
  0
LINE
  5
A4B2
330
A3BA
100
AcDbEntity
  8
5
  6
PHANTOM
 48
0.1
100
AcDbLine
 10
183.3999939999999
 20
300.0
 30
0.0
 11
181.6999969999999
 21
300.0
 31
0.0
  0
LINE
  5
A4B3
330
A3BA
100
AcDbEntity
  8
5
  6
PHANTOM
 48
0.1
100
AcDbLine
 10
183.3999939999999
 20
298.0
 30
0.0
 11
181.6999969999999
 21
298.0
 31
0.0
  0
LINE
  5
A4B4
330
A3BA
100
AcDbEntity
  8
5
  6
PHANTOM
 48
0.2
100
AcDbLine
 10
184.3999939999999
 20
285.5
 30
0.0
 11
180.6999969999999
 21
285.5
 31
0.0
  0
LINE
  5
A4B5
330
A3BA
100
AcDbEntity
  8
1
  6
Continuous
100
AcDbLine
 10
302.0
 20
287.7999879999998
 30
0.0
 11
301.2999879999998
 21
287.7999879999998
 31
0.0
  0
LINE
  5
A4B6
330
A3BA
100
AcDbEntity
  8
4
  6
CENTER
 48
0.2
100
AcDbLine
 10
329.0
 20
295.5
 30
0.0
 11
297.0
 21
295.5
 31
0.0
  0
LINE
  5
A4B7
330
A3BA
100
AcDbEntity
  8
1
  6
Continuous
100
AcDbLine
 10
302.0
 20
294.7999879999998
 30
0.0
 11
299.9187319999998
 21
289.884888
 31
0.0
  0
LINE
  5
A4B8
330
A3BA
100
AcDbEntity
  8
5
  6
PHANTOM
 48
0.1
100
AcDbLine
 10
302.0
 20
294.0
 30
0.0
 11
297.5
 21
294.0
 31
0.0
  0
LINE
  5
A4B9
330
A3BA
100
AcDbEntity
  8
5
  6
PHANTOM
 48
0.1
100
AcDbLine
 10
302.0
 20
304.0
 30
0.0
 11
297.5
 21
304.0
 31
0.0
  0
LINE
  5
A4BA
330
A3BA
100
AcDbEntity
  8
4
  6
CENTER
 48
0.2
100
AcDbLine
 10
329.0
 20
299.0
 30
0.0
 11
291.0
 21
299.0
 31
0.0
  0
LINE
  5
A4BB
330
A3BA
100
AcDbEntity
  8
5
  6
PHANTOM
 48
0.1
100
AcDbLine
 10
296.8479919999998
 20
296.850861
 30
0.0
 11
299.4346919999998
 21
298.099426
 31
0.0
  0
LINE
  5
A4BC
330
A3BA
100
AcDbEntity
  8
5
  6
PHANTOM
 48
0.1
100
AcDbLine
 10
296.847961
 20
301.149109
 30
0.0
 11
299.4346919999998
 21
299.900574
 31
0.0
  0
LINE
  5
A4BD
330
A3BA
100
AcDbEntity
  8
4
  6
CENTER
 48
0.2
100
AcDbLine
 10
37.0
 20
299.0
 30
0.0
 11
75.0
 21
299.0
 31
0.0
  0
LINE
  5
A4BE
330
A3BA
100
AcDbEntity
  8
5
  6
PHANTOM
 48
0.1
100
AcDbLine
 10
64.0
 20
304.0
 30
0.0
 11
68.5
 21
304.0
 31
0.0
  0
LINE
  5
A4BF
330
A3BA
100
AcDbEntity
  8
1
  6
Continuous
100
AcDbLine
 10
63.99998899999999
 20
294.800018
 30
0.0
 11
66.08126099999998
 21
289.884888
 31
0.0
  0
LINE
  5
A4C0
330
A3BA
100
AcDbEntity
  8
5
  6
PHANTOM
 48
0.1
100
AcDbLine
 10
64.0
 20
294.0
 30
0.0
 11
68.5
 21
294.0
 31
0.0
  0
LINE
  5
A4C1
330
A3BA
100
AcDbEntity
  8
4
  6
CENTER
 48
0.2
100
AcDbLine
 10
37.0
 20
295.5
 30
0.0
 11
69.0
 21
295.5
 31
0.0
  0
LINE
  5
A4C2
330
A3BA
100
AcDbEntity
  8
5
  6
PHANTOM
 48
0.1
100
AcDbLine
 10
69.15203100000001
 20
296.850861
 30
0.0
 11
66.56531499999998
 21
298.099426
 31
0.0
  0
LINE
  5
A4C3
330
A3BA
100
AcDbEntity
  8
5
  6
PHANTOM
 48
0.1
100
AcDbLine
 10
69.15203100000001
 20
301.1491389999998
 30
0.0
 11
66.565308
 21
299.900574
 31
0.0
  0
LINE
  5
A4C4
330
A3BA
100
AcDbEntity
  8
1
  6
Continuous
100
AcDbLine
 10
64.0
 20
287.7999879999998
 30
0.0
 11
64.69999699999999
 21
287.7999879999998
 31
0.0
  0
LINE
  5
A4C5
330
A3BA
100
AcDbEntity
  8
4
  6
CENTER
 48
0.1
100
AcDbLine
 10
326.5
 20
307.0
 30
0.0
 11
322.5
 21
307.0
 31
0.0
  0
LINE
  5
A4C6
330
A3BA
100
AcDbEntity
  8
4
  6
CENTER
 48
0.1
100
AcDbLine
 10
326.5
 20
317.0
 30
0.0
 11
322.5
 21
317.0
 31
0.0
  0
LINE
  5
A4C7
330
A3BA
100
AcDbEntity
  8
1
  6
Continuous
100
AcDbLine
 10
324.0
 20
315.0
 30
0.0
 11
324.0
 21
315.0
 31
0.0
  0
LINE
  5
A4C8
330
A3BA
100
AcDbEntity
  8
1
  6
Continuous
100
AcDbLine
 10
324.0
 20
319.0
 30
0.0
 11
324.0
 21
319.0
 31
0.0
  0
LINE
  5
A4C9
330
A3BA
100
AcDbEntity
  8
1
  6
Continuous
100
AcDbLine
 10
324.0
 20
305.0
 30
0.0
 11
324.0
 21
305.0
 31
0.0
  0
LINE
  5
A4CA
330
A3BA
100
AcDbEntity
  8
1
  6
Continuous
100
AcDbLine
 10
324.0
 20
309.0
 30
0.0
 11
324.0
 21
309.0
 31
0.0
  0
LINE
  5
A4CB
330
A3BA
100
AcDbEntity
  8
4
  6
CENTER
 48
0.2
100
AcDbLine
 10
183.0
 20
485.0
 30
0.0
 11
183.0
 21
525.0
 31
0.0
  0
LINE
  5
A4CC
330
A3BA
100
AcDbEntity
  8
1
  6
Continuous
100
AcDbLine
 10
172.0999969999999
 20
66.0
 30
0.0
 11
172.0999969999999
 21
68.5
 31
0.0
  0
LINE
  5
A4CD
330
A3BA
100
AcDbEntity
  8
1
  6
Continuous
100
AcDbLine
 10
188.0
 20
59.200001
 30
0.0
 11
188.0
 21
78.800003
 31
0.0
  0
LINE
  5
A4CE
330
A3BA
100
AcDbEntity
  8
1
  6
Continuous
100
AcDbLine
 10
186.800003
 20
58.0
 30
0.0
 11
179.1999969999999
 21
58.0
 31
0.0
  0
LINE
  5
A4CF
330
A3BA
100
AcDbEntity
  8
1
  6
Continuous
100
AcDbLine
 10
186.800003
 20
80.0
 30
0.0
 11
179.1999969999999
 21
80.0
 31
0.0
  0
LINE
  5
A4D0
330
A3BA
100
AcDbEntity
  8
1
  6
Continuous
100
AcDbLine
 10
186.800003
 20
59.200001
 30
0.0
 11
186.800003
 21
78.800003
 31
0.0
  0
LINE
  5
A4D1
330
A3BA
100
AcDbEntity
  8
1
  6
Continuous
100
AcDbLine
 10
186.800003
 20
59.200001
 30
0.0
 11
179.1999969999999
 21
59.200001
 31
0.0
  0
LINE
  5
A4D2
330
A3BA
100
AcDbEntity
  8
1
  6
Continuous
100
AcDbLine
 10
179.1999969999999
 20
59.200001
 30
0.0
 11
179.1999969999999
 21
78.800003
 31
0.0
  0
LINE
  5
A4D3
330
A3BA
100
AcDbEntity
  8
1
  6
Continuous
100
AcDbLine
 10
186.800003
 20
78.800003
 30
0.0
 11
179.1999969999999
 21
78.800003
 31
0.0
  0
LINE
  5
A4D4
330
A3BA
100
AcDbEntity
  8
1
  6
Continuous
100
AcDbLine
 10
172.0999969999999
 20
69.5
 30
0.0
 11
172.0999969999999
 21
72.0
 31
0.0
  0
LINE
  5
A4D5
330
A3BA
100
AcDbEntity
  8
1
  6
Continuous
100
AcDbLine
 10
186.800003
 20
65.0
 30
0.0
 11
179.1999969999999
 21
65.0
 31
0.0
  0
LINE
  5
A4D6
330
A3BA
100
AcDbEntity
  8
1
  6
Continuous
100
AcDbLine
 10
186.800003
 20
73.0
 30
0.0
 11
179.1999969999999
 21
73.0
 31
0.0
  0
LINE
  5
A4D7
330
A3BA
100
AcDbEntity
  8
1
  6
Continuous
100
AcDbLine
 10
186.5
 20
59.5
 30
0.0
 11
186.5
 21
65.0
 31
0.0
  0
LINE
  5
A4D8
330
A3BA
100
AcDbEntity
  8
1
  6
Continuous
100
AcDbLine
 10
183.8999939999999
 20
59.200001
 30
0.0
 11
183.8999939999999
 21
65.0
 31
0.0
  0
LINE
  5
A4D9
330
A3BA
100
AcDbEntity
  8
1
  6
Continuous
100
AcDbLine
 10
184.8999939999999
 20
78.5
 30
0.0
 11
180.800003
 21
78.5
 31
0.0
  0
LINE
  5
A4DA
330
A3BA
100
AcDbEntity
  8
1
  6
Continuous
100
AcDbLine
 10
186.5
 20
59.5
 30
0.0
 11
184.8999939999999
 21
59.5
 31
0.0
  0
LINE
  5
A4DB
330
A3BA
100
AcDbEntity
  8
1
  6
Continuous
100
AcDbLine
 10
184.8999939999999
 20
59.5
 30
0.0
 11
184.8999939999999
 21
65.0
 31
0.0
  0
LINE
  5
A4DC
330
A3BA
100
AcDbEntity
  8
1
  6
Continuous
100
AcDbLine
 10
180.800003
 20
59.200001
 30
0.0
 11
180.800003
 21
65.0
 31
0.0
  0
LINE
  5
A4DD
330
A3BA
100
AcDbEntity
  8
1
  6
Continuous
100
AcDbLine
 10
180.800003
 20
59.5
 30
0.0
 11
179.1999969999999
 21
59.5
 31
0.0
  0
LINE
  5
A4DE
330
A3BA
100
AcDbEntity
  8
1
  6
Continuous
100
AcDbLine
 10
184.8999939999999
 20
76.900002
 30
0.0
 11
180.800003
 21
76.900002
 31
0.0
  0
LINE
  5
A4DF
330
A3BA
100
AcDbEntity
  8
1
  6
Continuous
100
AcDbLine
 10
184.8999939999999
 20
73.0
 30
0.0
 11
184.8999939999999
 21
76.900002
 31
0.0
  0
LINE
  5
A4E0
330
A3BA
100
AcDbEntity
  8
1
  6
Continuous
100
AcDbLine
 10
186.5
 20
73.0
 30
0.0
 11
186.5
 21
76.900002
 31
0.0
  0
LINE
  5
A4E1
330
A3BA
100
AcDbEntity
  8
1
  6
Continuous
100
AcDbLine
 10
180.800003
 20
73.0
 30
0.0
 11
180.800003
 21
76.900002
 31
0.0
  0
LINE
  5
A4E2
330
A3BA
100
AcDbEntity
  8
1
  6
Continuous
100
AcDbLine
 10
183.8999939999999
 20
73.0
 30
0.0
 11
183.8999939999999
 21
76.900002
 31
0.0
  0
LINE
  5
A4E3
330
A3BA
100
AcDbEntity
  8
1
  6
Continuous
100
AcDbLine
 10
184.3000029999998
 20
59.200001
 30
0.0
 11
184.3000029999998
 21
65.0
 31
0.0
  0
LINE
  5
A4E4
330
A3BA
100
AcDbEntity
  8
1
  6
Continuous
100
AcDbLine
 10
183.8999939999999
 20
82.19999699999998
 30
0.0
 11
180.800003
 21
82.19999699999998
 31
0.0
  0
LINE
  5
A4E5
330
A3BA
100
AcDbEntity
  8
1
  6
Continuous
100
AcDbLine
 10
180.800003
 20
80.0
 30
0.0
 11
180.800003
 21
82.19999699999998
 31
0.0
  0
LINE
  5
A4E6
330
A3BA
100
AcDbEntity
  8
1
  6
Continuous
100
AcDbLine
 10
183.8999939999999
 20
80.0
 30
0.0
 11
183.8999939999999
 21
82.19999699999998
 31
0.0
  0
LINE
  5
A4E7
330
A3BA
100
AcDbEntity
  8
1
  6
Continuous
100
AcDbLine
 10
183.3999939999999
 20
80.69999699999998
 30
0.0
 11
181.3000029999997
 21
80.69999699999998
 31
0.0
  0
LINE
  5
A4E8
330
A3BA
100
AcDbEntity
  8
1
  6
Continuous
100
AcDbLine
 10
177.500006
 20
54.0
 30
0.0
 11
177.500006
 21
60.150002
 31
0.0
  0
LINE
  5
A4E9
330
A3BA
100
AcDbEntity
  8
1
  6
Continuous
100
AcDbLine
 10
174.699997
 20
54.0
 30
0.0
 11
174.699997
 21
56.259926
 31
0.0
  0
LINE
  5
A4EA
330
A3BA
100
AcDbEntity
  8
1
  6
Continuous
100
AcDbLine
 10
174.699997
 20
77.0
 30
0.0
 11
174.699997
 21
84.0
 31
0.0
  0
LINE
  5
A4EB
330
A3BA
100
AcDbEntity
  8
1
  6
Continuous
100
AcDbLine
 10
177.500006
 20
77.849998
 30
0.0
 11
177.500006
 21
84.0
 31
0.0
  0
LINE
  5
A4EC
330
A3BA
100
AcDbEntity
  8
1
  6
Continuous
100
AcDbLine
 10
452.8999879999998
 20
392.0
 30
0.0
 11
452.8999879999998
 21
394.5
 31
0.0
  0
LINE
  5
A4ED
330
A3BA
100
AcDbEntity
  8
4
  6
CENTER
 48
0.2
100
AcDbLine
 10
432.5
 20
415.100006
 30
0.0
 11
432.5
 21
428.0
 31
0.0
  0
LINE
  5
A4EE
330
A3BA
100
AcDbEntity
  8
1
  6
Continuous
100
AcDbLine
 10
451.399994
 20
407.9999999999998
 30
0.0
 11
451.6000059999998
 21
408.0
 31
0.0
  0
LINE
  5
A4EF
330
A3BA
100
AcDbEntity
  8
4
  6
CENTER
100
AcDbLine
 10
443.0
 20
164.0
 30
0.0
 11
443.0
 21
428.0
 31
0.0
  0
LINE
  5
A4F0
330
A3BA
100
AcDbEntity
  8
1
  6
Continuous
100
AcDbLine
 10
448.499994
 20
387.0
 30
0.0
 11
448.499994
 21
405.1
 31
0.0
  0
LINE
  5
A4F1
330
A3BA
100
AcDbEntity
  8
4
  6
CENTER
 48
0.2
100
AcDbLine
 10
427.8961179999998
 20
395.0
 30
0.0
 11
461.0286249999998
 21
395.0
 31
0.0
  0
LINE
  5
A4F2
330
A3BA
100
AcDbEntity
  8
1
  6
Continuous
100
AcDbLine
 10
451.3999879999998
 20
405.1000059999998
 30
0.0
 11
451.5999999999998
 21
405.1000059999998
 31
0.0
  0
LINE
  5
A4F3
330
A3BA
100
AcDbEntity
  8
1
  6
Continuous
100
AcDbLine
 10
436.5
 20
388.5
 30
0.0
 11
436.5
 21
401.4999999999998
 31
0.0
  0
LINE
  5
A4F4
330
A3BA
100
AcDbEntity
  8
1
  6
Continuous
100
AcDbLine
 10
454.4999999999998
 20
408.0000059999997
 30
0.0
 11
454.4999999999998
 21
420.1000059999998
 31
0.0
  0
LINE
  5
A4F5
330
A3BA
100
AcDbEntity
  8
4
  6
CENTER
 48
0.2
100
AcDbLine
 10
446.6000059999998
 20
414.0
 30
0.0
 11
459.649994
 21
414.0
 31
0.0
  0
LINE
  5
A4F6
330
A3BA
100
AcDbEntity
  8
1
  6
Continuous
100
AcDbLine
 10
424.5
 20
420.1000059999998
 30
0.0
 11
451.6000059999998
 21
420.1000059999998
 31
0.0
  0
LINE
  5
A4F7
330
A3BA
100
AcDbEntity
  8
1
  6
Continuous
100
AcDbLine
 10
424.5
 20
423.0
 30
0.0
 11
451.6000059999998
 21
423.0
 31
0.0
  0
LINE
  5
A4F8
330
A3BA
100
AcDbEntity
  8
1
  6
Continuous
100
AcDbLine
 10
424.5
 20
420.1000059999998
 30
0.0
 11
424.5
 21
423.0
 31
0.0
  0
LINE
  5
A4F9
330
A3BA
100
AcDbEntity
  8
1
  6
Continuous
100
AcDbLine
 10
446.7999879999998
 20
403.850006
 30
0.0
 11
448.399994
 21
403.850006
 31
0.0
  0
LINE
  5
A4FA
330
A3BA
100
AcDbEntity
  8
1
  6
Continuous
100
AcDbLine
 10
452.8999879999998
 20
395.5
 30
0.0
 11
452.1500179999998
 21
395.0
 31
0.0
  0
LINE
  5
A4FB
330
A3BA
100
AcDbEntity
  8
1
  6
Continuous
100
AcDbLine
 10
448.499994
 20
387.0
 30
0.0
 11
451.3999879999998
 21
387.0
 31
0.0
  0
LINE
  5
A4FC
330
A3BA
100
AcDbEntity
  8
1
  6
Continuous
100
AcDbLine
 10
452.8999879999998
 20
395.5
 30
0.0
 11
452.8999879999998
 21
398.0
 31
0.0
  0
LINE
  5
A4FD
330
A3BA
100
AcDbEntity
  8
1
  6
Continuous
100
AcDbLine
 10
451.3999879999998
 20
387.0
 30
0.0
 11
451.3999879999998
 21
405.1000059999998
 31
0.0
  0
LINE
  5
A4FE
330
A3BA
100
AcDbEntity
  8
1
  6
Continuous
100
AcDbLine
 10
437.5
 20
387.5
 30
0.0
 11
437.5
 21
402.5
 31
0.0
  0
LINE
  5
A4FF
330
A3BA
100
AcDbEntity
  8
1
  6
Continuous
100
AcDbLine
 10
446.7999879999998
 20
386.1499939999998
 30
0.0
 11
448.399994
 21
386.1499939999998
 31
0.0
  0
LINE
  5
A500
330
A3BA
100
AcDbEntity
  8
1
  6
Continuous
100
AcDbLine
 10
437.5
 20
402.5
 30
0.0
 11
439.5
 21
402.5
 31
0.0
  0
LINE
  5
A501
330
A3BA
100
AcDbEntity
  8
1
  6
Continuous
100
AcDbLine
 10
437.5
 20
387.5
 30
0.0
 11
439.5
 21
387.5
 31
0.0
  0
LINE
  5
A502
330
A3BA
100
AcDbEntity
  8
1
  6
Continuous
100
AcDbLine
 10
436.5
 20
401.4999999999998
 30
0.0
 11
437.5000309999999
 21
402.500031
 31
0.0
  0
LINE
  5
A503
330
A3BA
100
AcDbEntity
  8
1
  6
Continuous
100
AcDbLine
 10
439.5
 20
405.0
 30
0.0
 11
446.7999879999998
 21
405.0
 31
0.0
  0
LINE
  5
A504
330
A3BA
100
AcDbEntity
  8
1
  6
Continuous
100
AcDbLine
 10
436.5
 20
388.5
 30
0.0
 11
437.5
 21
387.5
 31
0.0
  0
LINE
  5
A505
330
A3BA
100
AcDbEntity
  8
1
  6
Continuous
100
AcDbLine
 10
451.3999879999998
 20
398.0
 30
0.0
 11
452.8999879999998
 21
398.0
 31
0.0
  0
LINE
  5
A506
330
A3BA
100
AcDbEntity
  8
1
  6
Continuous
100
AcDbLine
 10
451.3999879999998
 20
392.0
 30
0.0
 11
452.8999879999998
 21
392.0
 31
0.0
  0
LINE
  5
A507
330
A3BA
100
AcDbEntity
  8
1
  6
Continuous
100
AcDbLine
 10
452.1500179999998
 20
395.000031
 30
0.0
 11
452.8999879999998
 21
394.5000309999999
 31
0.0
  0
LINE
  5
A508
330
A3BA
100
AcDbEntity
  8
1
  6
Continuous
100
AcDbLine
 10
451.6000059999998
 20
408.0
 30
0.0
 11
451.6000059999998
 21
420.1000059999998
 31
0.0
  0
LINE
  5
A509
330
A3BA
100
AcDbEntity
  8
1
  6
Continuous
100
AcDbLine
 10
446.7999879999998
 20
323.0
 30
0.0
 11
446.7999879999998
 21
405.0
 31
0.0
  0
LINE
  5
A50A
330
A3BA
100
AcDbEntity
  8
1
  6
Continuous
100
AcDbLine
 10
439.5
 20
323.0
 30
0.0
 11
439.5
 21
405.0
 31
0.0
  0
LINE
  5
A50B
330
A3BA
100
AcDbEntity
  8
1
  6
Continuous
100
AcDbLine
 10
185.325684
 20
313.8335879999999
 30
0.0
 11
180.674316
 21
313.8335879999999
 31
0.0
  0
LINE
  5
A50C
330
A3BA
100
AcDbEntity
  8
1
  6
Continuous
100
AcDbLine
 10
185.270203
 20
314.4994199999998
 30
0.0
 11
180.729797
 21
314.4994199999998
 31
0.0
  0
LINE
  5
A50D
330
A3BA
100
AcDbEntity
  8
1
  6
Continuous
100
AcDbLine
 10
180.927383
 20
315.1666259999998
 30
0.0
 11
182.2008669999999
 21
315.1666259999998
 31
0.0
  0
LINE
  5
A50E
330
A3BA
100
AcDbEntity
  8
1
  6
Continuous
100
AcDbLine
 10
184.731583
 20
315.833801
 30
0.0
 11
181.2684169999999
 21
315.833801
 31
0.0
  0
LINE
  5
A50F
330
A3BA
100
AcDbEntity
  8
1
  6
Continuous
100
AcDbLine
 10
183.0006709999999
 20
313.8335879999999
 30
0.0
 11
183.0006709999999
 21
314.4994199999998
 31
0.0
  0
LINE
  5
A510
330
A3BA
100
AcDbEntity
  8
1
  6
Continuous
100
AcDbLine
 10
183.800491
 20
315.1666259999998
 30
0.0
 11
185.0726169999999
 21
315.1666259999998
 31
0.0
  0
LINE
  5
A511
330
A3BA
100
AcDbEntity
  8
1
  6
Continuous
100
AcDbLine
 10
184.6449739999999
 20
316.4996339999999
 30
0.0
 11
181.356384
 21
316.4996339999999
 31
0.0
  0
LINE
  5
A512
330
A3BA
100
AcDbEntity
  8
1
  6
Continuous
100
AcDbLine
 10
181.7705079999998
 20
317.1668399999998
 30
0.0
 11
184.229492
 21
317.1668399999998
 31
0.0
  0
LINE
  5
A513
330
A3BA
100
AcDbEntity
  8
1
  6
Continuous
100
AcDbLine
 10
184.8290249999998
 20
317.832672
 30
0.0
 11
181.9545589999999
 21
317.832672
 31
0.0
  0
LINE
  5
A514
330
A3BA
100
AcDbEntity
  8
1
  6
Continuous
100
AcDbLine
 10
185.191711
 20
311.1675419999999
 30
0.0
 11
181.018051
 21
311.1675419999999
 31
0.0
  0
LINE
  5
A515
330
A3BA
100
AcDbEntity
  8
1
  6
Continuous
100
AcDbLine
 10
181.1181949999999
 20
311.8333740000001
 30
0.0
 11
183.0006709999999
 21
311.8333740000001
 31
0.0
  0
LINE
  5
A516
330
A3BA
100
AcDbEntity
  8
1
  6
Continuous
100
AcDbLine
 10
185.1944119999997
 20
312.5005799999998
 30
0.0
 11
180.8055879999997
 21
312.5005799999998
 31
0.0
  0
LINE
  5
A517
330
A3BA
100
AcDbEntity
  8
1
  6
Continuous
100
AcDbLine
 10
185.325684
 20
313.1664119999998
 30
0.0
 11
180.674316
 21
313.1664119999998
 31
0.0
  0
LINE
  5
A518
330
A3BA
100
AcDbEntity
  8
1
  6
Continuous
100
AcDbLine
 10
183.0006709999999
 20
307.782867
 30
0.0
 11
183.0006709999999
 21
309.1605529999998
 31
0.0
  0
LINE
  5
A519
330
A3BA
100
AcDbEntity
  8
1
  6
Continuous
100
AcDbLine
 10
181.7529139999997
 20
309.494843
 30
0.0
 11
184.562424
 21
308.7410279999998
 31
0.0
  0
LINE
  5
A51A
330
A3BA
100
AcDbEntity
  8
1
  6
Continuous
100
AcDbLine
 10
183.0006709999999
 20
310.1674499999998
 30
0.0
 11
181.401047
 21
310.1674499999998
 31
0.0
  0
LINE
  5
A51B
330
A3BA
100
AcDbEntity
  8
1
  6
Continuous
100
AcDbLine
 10
183.333603
 20
309.83316
 30
0.0
 11
184.757294
 21
309.83316
 31
0.0
  0
LINE
  5
A51C
330
A3BA
100
AcDbEntity
  8
1
  6
Continuous
100
AcDbLine
 10
184.8777469999999
 20
310.5003659999998
 30
0.0
 11
183.333603
 21
310.5003659999998
 31
0.0
  0
LINE
  5
A51D
330
A3BA
100
AcDbEntity
  8
1
  6
Continuous
100
AcDbLine
 10
183.0006709999999
 20
311.8333740000001
 30
0.0
 11
183.0006709999999
 21
312.16629
 31
0.0
  0
LINE
  5
A51E
330
A3BA
100
AcDbEntity
  8
1
  6
Continuous
100
AcDbLine
 10
183.800491
 20
311.8333740000001
 30
0.0
 11
184.881805
 21
311.8333740000001
 31
0.0
  0
LINE
  5
A51F
330
A3BA
100
AcDbEntity
  8
1
  6
Continuous
100
AcDbLine
 10
441.1000059999998
 20
323.0
 30
0.0
 11
441.1000059999998
 21
405.0
 31
0.0
  0
LINE
  5
A520
330
A3BA
100
AcDbEntity
  8
1
  6
Continuous
100
AcDbLine
 10
445.200012
 20
323.0
 30
0.0
 11
445.200012
 21
405.0
 31
0.0
  0
LINE
  5
A521
330
A3BA
100
AcDbEntity
  8
1
  6
Continuous
100
AcDbLine
 10
56.19804
 20
173.0
 30
0.0
 11
64.0
 21
173.0
 31
0.0
  0
LINE
  5
A522
330
A3BA
100
AcDbEntity
  8
4
  6
CENTER
 48
0.2
100
AcDbLine
 10
432.0
 20
299.0
 30
0.0
 11
454.0
 21
299.0
 31
0.0
  0
CIRCLE
  5
A523
330
A3BA
100
AcDbEntity
  8
1
  6
Continuous
100
AcDbCircle
 10
192.300003
 20
175.0
 30
0.0
 40
2.649999999999999
  0
CIRCLE
  5
A524
330
A3BA
100
AcDbEntity
  8
1
  6
Continuous
100
AcDbCircle
 10
192.300003
 20
193.0
 30
0.0
 40
2.649999999999999
  0
CIRCLE
  5
A526
330
A3BA
100
AcDbEntity
  8
1
  6
Continuous
100
AcDbCircle
 10
313.0
 20
184.0
 30
0.0
 40
7.5
  0
CIRCLE
  5
A527
330
A3BA
100
AcDbEntity
  8
1
  6
Continuous
100
AcDbCircle
 10
313.0
 20
184.0
 30
0.0
 40
6.5
  0
ARC
  5
A528
330
A3BA
100
AcDbEntity
  8
1
  6
Continuous
100
AcDbCircle
 10
320.0
 20
184.0
 30
0.0
 40
15.0
100
AcDbArc
 50
227.1665769999999
 51
269.9999969999999
  0
CIRCLE
  5
A529
330
A3BA
100
AcDbEntity
  8
1
  6
Continuous
100
AcDbCircle
 10
332.0
 20
175.0
 30
0.0
 40
2.649999999999999
  0
CIRCLE
  5
A52A
330
A3BA
100
AcDbEntity
  8
1
  6
Continuous
100
AcDbCircle
 10
332.0
 20
193.0
 30
0.0
 40
2.649999999999999
  0
ARC
  5
A52B
330
A3BA
100
AcDbEntity
  8
1
  6
Continuous
100
AcDbCircle
 10
313.0
 20
402.0
 30
0.0
 40
15.0
100
AcDbArc
 50
179.9999909999999
 51
230.703518
  0
ARC
  5
A52C
330
A3BA
100
AcDbEntity
  8
1
  6
Continuous
100
AcDbCircle
 10
313.0
 20
402.0
 30
0.0
 40
15.0
100
AcDbArc
 50
309.2964799999998
 51
0.0
  0
CIRCLE
  5
A52D
330
A3BA
100
AcDbEntity
  8
1
  6
Continuous
100
AcDbCircle
 10
313.0
 20
395.0
 30
0.0
 40
6.5
  0
CIRCLE
  5
A52E
330
A3BA
100
AcDbEntity
  8
1
  6
Continuous
100
AcDbCircle
 10
313.0
 20
395.0
 30
0.0
 40
7.5
  0
CIRCLE
  5
A52F
330
A3BA
100
AcDbEntity
  8
1
  6
Continuous
100
AcDbCircle
 10
322.0
 20
414.0
 30
0.0
 40
2.649999999999999
  0
CIRCLE
  5
A530
330
A3BA
100
AcDbEntity
  8
1
  6
Continuous
100
AcDbCircle
 10
304.0
 20
414.0
 30
0.0
 40
2.649999999999999
  0
ARC
  5
A531
330
A3BA
100
AcDbEntity
  8
1
  6
Continuous
100
AcDbCircle
 10
46.0
 20
184.0
 30
0.0
 40
15.0
100
AcDbArc
 50
269.9999969999999
 51
90.00000300000001
  0
CIRCLE
  5
A532
330
A3BA
100
AcDbEntity
  8
1
  6
Continuous
100
AcDbCircle
 10
34.0
 20
193.0
 30
0.0
 40
2.649999999999999
  0
CIRCLE
  5
A533
330
A3BA
100
AcDbEntity
  8
1
  6
Continuous
100
AcDbCircle
 10
34.0
 20
175.0
 30
0.0
 40
2.649999999999999
  0
ARC
  5
A535
330
A3BA
100
AcDbEntity
  8
1
  6
Continuous
100
AcDbCircle
 10
174.3999939999999
 20
420.1000059999998
 30
0.0
 40
2.9
100
AcDbArc
 50
90.00000300000001
 51
180.000005
  0
CIRCLE
  5
A536
330
A3BA
100
AcDbEntity
  8
1
  6
Continuous
100
AcDbCircle
 10
53.0
 20
184.0
 30
0.0
 40
3.0
  0
CIRCLE
  5
A537
330
A3BA
100
AcDbEntity
  8
1
  6
Continuous
100
AcDbCircle
 10
53.0
 20
184.0
 30
0.0
 40
3.25
  0
CIRCLE
  5
A538
330
A3BA
100
AcDbEntity
  8
1
  6
Continuous
100
AcDbCircle
 10
53.0
 20
395.0
 30
0.0
 40
3.0
  0
CIRCLE
  5
A539
330
A3BA
100
AcDbEntity
  8
1
  6
Continuous
100
AcDbCircle
 10
53.0
 20
395.0
 30
0.0
 40
3.25
  0
ARC
  5
A53A
330
A3BA
100
AcDbEntity
  8
1
  6
Continuous
100
AcDbCircle
 10
53.0
 20
402.0
 30
0.0
 40
15.0
100
AcDbArc
 50
179.9999909999999
 51
0.00001
  0
CIRCLE
  5
A53B
330
A3BA
100
AcDbEntity
  8
1
  6
Continuous
100
AcDbCircle
 10
62.0
 20
414.0
 30
0.0
 40
2.649999999999999
  0
CIRCLE
  5
A53C
330
A3BA
100
AcDbEntity
  8
1
  6
Continuous
100
AcDbCircle
 10
44.0
 20
414.0
 30
0.0
 40
2.649999999999999
  0
CIRCLE
  5
A53D
330
A3BA
100
AcDbEntity
  8
1
  6
Continuous
100
AcDbCircle
 10
193.5
 20
496.0
 30
0.0
 40
2.649999999999999
  0
CIRCLE
  5
A53E
330
A3BA
100
AcDbEntity
  8
1
  6
Continuous
100
AcDbCircle
 10
193.5
 20
514.0
 30
0.0
 40
2.649999999999999
  0
ARC
  5
A53F
330
A3BA
100
AcDbEntity
  8
1
  6
Continuous
100
AcDbCircle
 10
173.1999969999999
 20
518.0
 30
0.0
 40
2.9
100
AcDbArc
 50
179.9999909999999
 51
234.111701
  0
ARC
  5
A540
330
A3BA
100
AcDbEntity
  8
1
  6
Continuous
100
AcDbCircle
 10
173.1999969999999
 20
530.0999759999998
 30
0.0
 40
2.9
100
AcDbArc
 50
90.00000300000001
 51
180.000005
  0
ARC
  5
A541
330
A3BA
100
AcDbEntity
  8
1
  6
Continuous
100
AcDbCircle
 10
173.3999999999999
 20
58.9
 30
0.0
 40
2.9
100
AcDbArc
 50
269.9999969999999
 51
0.0
  0
ARC
  5
A542
330
A3BA
100
AcDbEntity
  8
1
  6
Continuous
100
AcDbCircle
 10
173.1999969999999
 20
56.0
 30
0.0
 40
2.9
100
AcDbArc
 50
90.00000300000001
 51
180.000005
  0
ARC
  5
A543
330
A3BA
100
AcDbEntity
  8
1
  6
Continuous
100
AcDbCircle
 10
173.1999969999999
 20
43.900002
 30
0.0
 40
2.9
100
AcDbArc
 50
179.9999909999999
 51
270.000001
  0
CIRCLE
  5
A544
330
A3BA
100
AcDbEntity
  8
1
  6
Continuous
100
AcDbCircle
 10
193.5
 20
60.0
 30
0.0
 40
2.649999999999999
  0
CIRCLE
  5
A545
330
A3BA
100
AcDbEntity
  8
1
  6
Continuous
100
AcDbCircle
 10
193.5
 20
78.0
 30
0.0
 40
2.649999999999999
  0
CIRCLE
  5
A546
330
A3BA
100
AcDbEntity
  8
1
  6
Continuous
100
AcDbCircle
 10
433.7000119999998
 20
193.0
 30
0.0
 40
2.649999999999999
  0
CIRCLE
  5
A547
330
A3BA
100
AcDbEntity
  8
1
  6
Continuous
100
AcDbCircle
 10
433.7000119999998
 20
175.0
 30
0.0
 40
2.649999999999999
  0
ARC
  5
A548
330
A3BA
100
AcDbEntity
  8
1
  6
Continuous
100
AcDbCircle
 10
183.3999939999999
 20
280.0
 30
0.0
 40
1.0
100
AcDbArc
 50
269.9999969999999
 51
0.0
  0
ARC
  5
A549
330
A3BA
100
AcDbEntity
  8
1
  6
Continuous
100
AcDbCircle
 10
181.6999969999999
 20
280.0
 30
0.0
 40
1.0
100
AcDbArc
 50
179.9999909999999
 51
270.000001
  0
ARC
  5
A54A
330
A3BA
100
AcDbEntity
  8
1
  6
Continuous
100
AcDbCircle
 10
181.6999969999999
 20
303.0
 30
0.0
 40
1.0
100
AcDbArc
 50
90.00000300000001
 51
180.000005
  0
ARC
  5
A54B
330
A3BA
100
AcDbEntity
  8
1
  6
Continuous
100
AcDbCircle
 10
183.3999939999999
 20
303.0
 30
0.0
 40
1.0
100
AcDbArc
 50
0.0
 51
90.00000300000001
  0
ARC
  5
A54C
330
A3BA
100
AcDbEntity
  8
1
  6
Continuous
100
AcDbCircle
 10
176.300003
 20
295.5
 30
0.0
 40
8.0
100
AcDbArc
 50
341.805127
 51
18.194873
  0
ARC
  5
A54D
330
A3BA
100
AcDbEntity
  8
1
  6
Continuous
100
AcDbCircle
 10
183.3999939999999
 20
285.5
 30
0.0
 40
0.5
100
AcDbArc
 50
269.9999969999999
 51
0.0
  0
ARC
  5
A54E
330
A3BA
100
AcDbEntity
  8
1
  6
Continuous
100
AcDbCircle
 10
181.199997
 20
285.5
 30
0.0
 40
0.5
100
AcDbArc
 50
179.9999909999999
 51
270.000001
  0
ARC
  5
A54F
330
A3BA
100
AcDbEntity
  8
1
  6
Continuous
100
AcDbCircle
 10
183.3999939999999
 20
288.2999879999998
 30
0.0
 40
0.5
100
AcDbArc
 50
269.9999969999999
 51
0.0
  0
ARC
  5
A550
330
A3BA
100
AcDbEntity
  8
1
  6
Continuous
100
AcDbCircle
 10
181.199997
 20
288.2999879999998
 30
0.0
 40
0.5
100
AcDbArc
 50
179.9999909999999
 51
270.000001
  0
ARC
  5
A551
330
A3BA
100
AcDbEntity
  8
5
  6
PHANTOM
 48
0.1
100
AcDbCircle
 10
181.6999969999999
 20
295.0
 30
0.0
 40
1.0
100
AcDbArc
 50
179.9999909999999
 51
270.000001
  0
ARC
  5
A552
330
A3BA
100
AcDbEntity
  8
5
  6
PHANTOM
 48
0.1
100
AcDbCircle
 10
183.3999939999999
 20
294.4999999999998
 30
0.0
 40
0.5
100
AcDbArc
 50
269.9999969999999
 51
0.0
  0
ARC
  5
A553
330
A3BA
100
AcDbEntity
  8
1
  6
Continuous
100
AcDbCircle
 10
301.2999879999998
 20
289.2999879999998
 30
0.0
 40
1.5
100
AcDbArc
 50
157.0501189999999
 51
270.000001
  0
ARC
  5
A554
330
A3BA
100
AcDbEntity
  8
5
  6
PHANTOM
 48
0.1
100
AcDbCircle
 10
297.5
 20
295.5
 30
0.0
 40
1.5
100
AcDbArc
 50
115.765464
 51
270.000001
  0
ARC
  5
A555
330
A3BA
100
AcDbEntity
  8
5
  6
PHANTOM
 48
0.1
100
AcDbCircle
 10
297.5
 20
302.4999999999999
 30
0.0
 40
1.5
100
AcDbArc
 50
90.00000300000001
 51
244.234533
  0
ARC
  5
A556
330
A3BA
100
AcDbEntity
  8
5
  6
PHANTOM
 48
0.1
100
AcDbCircle
 10
299.0
 20
299.0
 30
0.0
 40
1.0
100
AcDbArc
 50
295.765465
 51
64.23453499999999
  0
ARC
  5
A557
330
A3BA
100
AcDbEntity
  8
1
  6
Continuous
100
AcDbCircle
 10
64.69999699999999
 20
289.2999879999998
 30
0.0
 40
1.5
100
AcDbArc
 50
269.9999969999999
 51
22.949888
  0
ARC
  5
A558
330
A3BA
100
AcDbEntity
  8
5
  6
PHANTOM
 48
0.1
100
AcDbCircle
 10
67.0
 20
299.0
 30
0.0
 40
1.0
100
AcDbArc
 50
115.765464
 51
244.234533
  0
ARC
  5
A559
330
A3BA
100
AcDbEntity
  8
5
  6
PHANTOM
 48
0.1
100
AcDbCircle
 10
68.5
 20
302.4999999999999
 30
0.0
 40
1.5
100
AcDbArc
 50
295.765479
 51
90.00000300000001
  0
ARC
  5
A55A
330
A3BA
100
AcDbEntity
  8
5
  6
PHANTOM
 48
0.1
100
AcDbCircle
 10
68.5
 20
295.5
 30
0.0
 40
1.5
100
AcDbArc
 50
269.9999969999999
 51
64.23452799999999
  0
ARC
  5
A55B
330
A3BA
100
AcDbEntity
  8
1
  6
Continuous
100
AcDbCircle
 10
186.800003
 20
59.200001
 30
0.0
 40
1.199999999999999
100
AcDbArc
 50
269.9999969999999
 51
0.0
  0
ARC
  5
A55C
330
A3BA
100
AcDbEntity
  8
1
  6
Continuous
100
AcDbCircle
 10
186.800003
 20
78.800003
 30
0.0
 40
1.199999999999999
100
AcDbArc
 50
0.0
 51
90.00000300000001
  0
ARC
  5
A55D
330
A3BA
100
AcDbEntity
  8
1
  6
Continuous
100
AcDbCircle
 10
179.1999969999999
 20
78.800003
 30
0.0
 40
1.199999999999999
100
AcDbArc
 50
90.00000300000001
 51
180.000005
  0
ARC
  5
A55E
330
A3BA
100
AcDbEntity
  8
1
  6
Continuous
100
AcDbCircle
 10
179.1999969999999
 20
59.200001
 30
0.0
 40
1.199999999999999
100
AcDbArc
 50
179.9999909999999
 51
270.000001
  0
ARC
  5
A55F
330
A3BA
100
AcDbEntity
  8
1
  6
Continuous
100
AcDbCircle
 10
184.8999939999999
 20
76.900002
 30
0.0
 40
1.6
100
AcDbArc
 50
0.0
 51
90.00000300000001
  0
ARC
  5
A560
330
A3BA
100
AcDbEntity
  8
1
  6
Continuous
100
AcDbCircle
 10
180.800003
 20
76.900002
 30
0.0
 40
1.6
100
AcDbArc
 50
90.00000300000001
 51
180.000005
  0
ARC
  5
A561
330
A3BA
100
AcDbEntity
  8
1
  6
Continuous
100
AcDbCircle
 10
176.300003
 20
295.5
 30
0.0
 40
8.099999999999997
100
AcDbArc
 50
339.7632919999998
 51
20.236708
  0
ARC
  5
A564
330
A3BA
100
AcDbEntity
  8
1
  6
Continuous
100
AcDbCircle
 10
451.6000059999998
 20
420.1000059999998
 30
0.0
 40
2.9
100
AcDbArc
 50
0.0
 51
90.00000300000001
  0
ARC
  5
A565
330
A3BA
100
AcDbEntity
  8
1
  6
Continuous
100
AcDbCircle
 10
188.5993799999999
 20
313.500671
 30
0.0
 40
7.932788
100
AcDbArc
 50
153.986
 51
157.0559929999998
  0
ARC
  5
A566
330
A3BA
100
AcDbEntity
  8
1
  6
Continuous
100
AcDbCircle
 10
181.356384
 20
316.5659479999998
 30
0.0
 40
0.066678
100
AcDbArc
 50
157.0559929999998
 51
270.000001
  0
ARC
  5
A567
330
A3BA
100
AcDbEntity
  8
1
  6
Continuous
100
AcDbCircle
 10
180.927383
 20
315.232941
 30
0.0
 40
0.066678
100
AcDbArc
 50
167.2709909999998
 51
270.000001
  0
ARC
  5
A568
330
A3BA
100
AcDbEntity
  8
1
  6
Continuous
100
AcDbCircle
 10
188.5993799999999
 20
313.500671
 30
0.0
 40
7.932788
100
AcDbArc
 50
164.7939959999999
 51
167.2709909999998
  0
ARC
  5
A569
330
A3BA
100
AcDbEntity
  8
1
  6
Continuous
100
AcDbCircle
 10
188.5993799999999
 20
313.500671
 30
0.0
 40
7.932788
100
AcDbArc
 50
164.7419909999999
 51
164.7939959999999
  0
ARC
  5
A56A
330
A3BA
100
AcDbEntity
  8
1
  6
Continuous
100
AcDbCircle
 10
181.2684169999999
 20
315.499542
 30
0.0
 40
0.333392
100
AcDbArc
 50
90.00000300000001
 51
164.7419909999999
  0
ARC
  5
A56B
330
A3BA
100
AcDbEntity
  8
1
  6
Continuous
100
AcDbCircle
 10
184.731583
 20
315.499542
 30
0.0
 40
0.333392
100
AcDbArc
 50
15.25749699999999
 51
90.00000300000001
  0
ARC
  5
A56C
330
A3BA
100
AcDbEntity
  8
1
  6
Continuous
100
AcDbCircle
 10
177.40062
 20
313.500671
 30
0.0
 40
7.932788
100
AcDbArc
 50
13.26810299999998
 51
15.25749699999999
  0
ARC
  5
A56D
330
A3BA
100
AcDbEntity
  8
1
  6
Continuous
100
AcDbCircle
 10
177.40062
 20
313.500671
 30
0.0
 40
7.932788
100
AcDbArc
 50
12.7289
 51
13.26810299999998
  0
ARC
  5
A56E
330
A3BA
100
AcDbEntity
  8
1
  6
Continuous
100
AcDbCircle
 10
185.0726169999999
 20
315.232941
 30
0.0
 40
0.066678
100
AcDbArc
 50
269.9999969999999
 51
12.7289
  0
ARC
  5
A56F
330
A3BA
100
AcDbEntity
  8
1
  6
Continuous
100
AcDbCircle
 10
181.7705079999998
 20
316.83255
 30
0.0
 40
0.333392
100
AcDbArc
 50
90.00000300000001
 51
153.986
  0
ARC
  5
A570
330
A3BA
100
AcDbEntity
  8
1
  6
Continuous
100
AcDbCircle
 10
184.6449739999999
 20
316.5659479999998
 30
0.0
 40
0.066678
100
AcDbArc
 50
269.9999969999999
 51
22.94399999999999
  0
ARC
  5
A571
330
A3BA
100
AcDbEntity
  8
1
  6
Continuous
100
AcDbCircle
 10
177.40062
 20
313.500671
 30
0.0
 40
7.932788
100
AcDbArc
 50
22.94399999999999
 51
26.01439599999999
  0
ARC
  5
A572
330
A3BA
100
AcDbEntity
  8
1
  6
Continuous
100
AcDbCircle
 10
184.229492
 20
316.83255
 30
0.0
 40
0.333392
100
AcDbArc
 50
26.01439599999999
 51
90.00000300000001
  0
ARC
  5
A573
330
A3BA
100
AcDbEntity
  8
1
  6
Continuous
100
AcDbCircle
 10
183.0006709999999
 20
317.4997559999998
 30
0.0
 40
1.717978999999997
100
AcDbArc
 50
90.00000300000001
 51
144.4620119999999
  0
ARC
  5
A574
330
A3BA
100
AcDbEntity
  8
1
  6
Continuous
100
AcDbCircle
 10
183.0006709999999
 20
317.4997559999998
 30
0.0
 40
1.717978999999997
100
AcDbArc
 50
35.537703
 51
76.53739899999997
  0
ARC
  5
A575
330
A3BA
100
AcDbEntity
  8
1
  6
Continuous
100
AcDbCircle
 10
188.5993799999999
 20
313.500671
 30
0.0
 40
7.932788
100
AcDbArc
 50
187.792995
 51
190.104003
  0
ARC
  5
A576
330
A3BA
100
AcDbEntity
  8
1
  6
Continuous
100
AcDbCircle
 10
180.8055879999997
 20
312.4328919999998
 30
0.0
 40
0.066678
100
AcDbArc
 50
90.00000300000001
 51
187.7930049999999
  0
ARC
  5
A577
330
A3BA
100
AcDbEntity
  8
1
  6
Continuous
100
AcDbCircle
 10
181.1181949999999
 20
312.16629
 30
0.0
 40
0.333392
100
AcDbArc
 50
190.104003
 51
269.9999969999999
  0
ARC
  5
A578
330
A3BA
100
AcDbEntity
  8
1
  6
Continuous
100
AcDbCircle
 10
185.1944119999997
 20
312.4328919999998
 30
0.0
 40
0.066678
100
AcDbArc
 50
352.207003
 51
90.00000300000001
  0
ARC
  5
A579
330
A3BA
100
AcDbEntity
  8
1
  6
Continuous
100
AcDbCircle
 10
177.40062
 20
313.500671
 30
0.0
 40
7.932788
100
AcDbArc
 50
349.8960009999998
 51
352.207003
  0
ARC
  5
A57A
330
A3BA
100
AcDbEntity
  8
1
  6
Continuous
100
AcDbCircle
 10
184.881805
 20
312.16629
 30
0.0
 40
0.333392
100
AcDbArc
 50
269.9999969999999
 51
349.8960009999998
  0
ARC
  5
A57B
330
A3BA
100
AcDbEntity
  8
1
  6
Continuous
100
AcDbCircle
 10
183.0006709999999
 20
309.500244
 30
0.0
 40
1.717978999999997
100
AcDbArc
 50
215.5380019999999
 51
225.6990009999999
  0
ARC
  5
A57C
330
A3BA
100
AcDbEntity
  8
1
  6
Continuous
100
AcDbCircle
 10
183.0006709999999
 20
309.500244
 30
0.0
 40
1.717978999999997
100
AcDbArc
 50
242.2499979999999
 51
324.4619999999998
  0
ARC
  5
A57D
330
A3BA
100
AcDbEntity
  8
1
  6
Continuous
100
AcDbCircle
 10
183.333603
 20
310.1674499999998
 30
0.0
 40
0.333392
100
AcDbArc
 50
90.00000300000001
 51
270.000001
  0
ARC
  5
A57E
330
A3BA
100
AcDbEntity
  8
1
  6
Continuous
100
AcDbCircle
 10
177.40062
 20
313.500671
 30
0.0
 40
8.599396
100
AcDbArc
 50
324.4619999999998
 51
35.537703
  0
ARC
  5
A57F
330
A3BA
100
AcDbEntity
  8
1
  6
Continuous
100
AcDbCircle
 10
188.5993799999999
 20
313.500671
 30
0.0
 40
8.599396
100
AcDbArc
 50
144.461998
 51
215.5379979999999
  0
ARC
  5
A580
330
A3BA
100
AcDbEntity
  8
1
  6
Continuous
100
AcDbCircle
 10
45.75
 20
317.0
 30
0.0
 40
4.25
100
AcDbArc
 50
151.9275179999999
 51
208.0724919999999
  0
ARC
  5
A581
330
A3BA
100
AcDbEntity
  8
1
  6
Continuous
100
AcDbCircle
 10
45.75
 20
307.0
 30
0.0
 40
4.25
100
AcDbArc
 50
151.9275179999999
 51
208.0724919999999
  0
ARC
  5
A582
330
A3BA
100
AcDbEntity
  8
1
  6
Continuous
100
AcDbCircle
 10
320.25
 20
317.0
 30
0.0
 40
4.25
100
AcDbArc
 50
331.9275129999998
 51
28.072487
  0
ARC
  5
A583
330
A3BA
100
AcDbEntity
  8
1
  6
Continuous
100
AcDbCircle
 10
320.25
 20
307.0
 30
0.0
 40
4.25
100
AcDbArc
 50
331.9275129999998
 51
28.072487
  0
CIRCLE
  5
A584
330
A3BA
100
AcDbEntity
  8
1
  6
Continuous
100
AcDbCircle
 10
443.0
 20
317.0
 30
0.0
 40
2.0
  0
CIRCLE
  5
A585
330
A3BA
100
AcDbEntity
  8
1
  6
Continuous
100
AcDbCircle
 10
443.0
 20
307.0
 30
0.0
 40
2.0
  0
ARC
  5
A586
330
A3BA
100
AcDbEntity
  8
1
  6
Continuous
100
AcDbCircle
 10
53.0
 20
395.0
 30
0.0
 40
8.849999999999997
100
AcDbArc
 50
232.032294
 51
307.9677109999999
  0
TEXT
  5
A587
330
A3BA
100
AcDbEntity
  8
6
  6
Continuous
100
AcDbText
 10
27.97945
 20
10.0487
 30
0.0
 40
1.399999999999999
  1
6
 41
1.069393
100
AcDbText
  0
TEXT
  5
A588
330
A3BA
100
AcDbEntity
  8
1
  6
Continuous
100
AcDbText
 10
17.97945
 20
10.0487
 30
0.0
 40
1.399999999999999
  1
1
 41
1.069393
100
AcDbText
  0
TEXT
  5
A589
330
A3BA
100
AcDbEntity
  8
1
  6
Continuous
100
AcDbText
 10
9.99995
 20
10.0
 30
0.0
 40
1.399999999999999
  1
LAYER
 41
1.009912999999996
100
AcDbText
  0
TEXT
  5
A58A
330
A3BA
100
AcDbEntity
  8
2
  6
Continuous
100
AcDbText
 10
19.97944999999998
 20
10.0487
 30
0.0
 40
1.399999999999999
  1
2
 41
1.069393
100
AcDbText
  0
TEXT
  5
A58B
330
A3BA
100
AcDbEntity
  8
3
  6
DASHED
100
AcDbText
 10
21.97945
 20
10.0487
 30
0.0
 40
1.399999999999999
  1
3
 41
1.069393
100
AcDbText
  0
TEXT
  5
A58C
330
A3BA
100
AcDbEntity
  8
4
  6
CENTER
100
AcDbText
 10
23.97944999999999
 20
10.0487
 30
0.0
 40
1.399999999999999
  1
4
 41
1.069393
100
AcDbText
  0
TEXT
  5
A58D
330
A3BA
100
AcDbEntity
  8
5
  6
PHANTOM
100
AcDbText
 10
25.97945
 20
10.0487
 30
0.0
 40
1.399999999999999
  1
5
 41
1.069393
100
AcDbText
  0
TEXT
  5
A58E
330
A3BA
100
AcDbEntity
  8
7
  6
Continuous
100
AcDbText
 10
10.00005
 20
26.0
 30
0.0
 40
3.0
  1
CODE No.5129
 41
1.003962999999999
100
AcDbText
  0
TEXT
  5
A58F
330
A3BA
100
AcDbEntity
  8
7
  6
Continuous
100
AcDbText
 10
10.00005
 20
18.0
 30
0.0
 40
3.0
  1
TYPE No.TM-70A-2R
 41
1.002774
100
AcDbText
  0
TEXT
  5
A590
330
A3BA
100
AcDbEntity
  8
7
  6
Continuous
100
AcDbText
 10
29.97944999999999
 20
10.0487
 30
0.0
 40
1.399999999999999
  1
7
 41
1.069393
100
AcDbText
  0
LINE
  5
A591
330
A3BA
100
AcDbEntity
  8
1
  6
Continuous
100
AcDbLine
 10
338.100006
 20
187.0
 30
0.0
 11
332.999994
 21
187.0
 31
0.0
  0
LINE
  5
A592
330
A3BA
100
AcDbEntity
  8
1
  6
Continuous
100
AcDbLine
 10
338.100006
 20
181.0
 30
0.0
 11
332.999994
 21
181.0
 31
0.0
  0
LINE
  5
A593
330
A3BA
100
AcDbEntity
  8
1
  6
Continuous
100
AcDbLine
 10
337.0000059999998
 20
182.0
 30
0.0
 11
337.0000059999998
 21
186.0
 31
0.0
  0
LINE
  5
A594
330
A3BA
100
AcDbEntity
  8
1
  6
Continuous
100
AcDbLine
 10
316.0
 20
415.0000239999998
 30
0.0
 11
316.0
 21
420.099976
 31
0.0
  0
LINE
  5
A595
330
A3BA
100
AcDbEntity
  8
1
  6
Continuous
100
AcDbLine
 10
310.0
 20
415.0000239999998
 30
0.0
 11
310.0
 21
420.099976
 31
0.0
  0
LINE
  5
A596
330
A3BA
100
AcDbEntity
  8
1
  6
Continuous
100
AcDbLine
 10
315.0
 20
418.999976
 30
0.0
 11
311.0
 21
418.999976
 31
0.0
  0
LINE
  5
A597
330
A3BA
100
AcDbEntity
  8
1
  6
Continuous
100
AcDbLine
 10
26.1
 20
182.0
 30
0.0
 11
26.1
 21
186.0
 31
0.0
  0
LINE
  5
A598
330
A3BA
100
AcDbEntity
  8
1
  6
Continuous
100
AcDbLine
 10
51.0
 20
421.8999999999998
 30
0.0
 11
55.0
 21
421.8999999999998
 31
0.0
  0
LINE
  5
A599
330
A3BA
100
AcDbEntity
  8
1
  6
Continuous
100
AcDbLine
 10
172.5999999999999
 20
503.0
 30
0.0
 11
172.5999999999999
 21
507.0
 31
0.0
  0
LINE
  5
A59A
330
A3BA
100
AcDbEntity
  8
1
  6
Continuous
100
AcDbLine
 10
180.299994
 20
45.000002
 30
0.0
 11
174.2999969999999
 21
45.000002
 31
0.0
  0
LINE
  5
A59B
330
A3BA
100
AcDbEntity
  8
1
  6
Continuous
100
AcDbLine
 10
174.2999969999999
 20
50.99999799999999
 30
0.0
 11
174.2999969999999
 21
45.000002
 31
0.0
  0
LINE
  5
A59C
330
A3BA
100
AcDbEntity
  8
1
  6
Continuous
100
AcDbLine
 10
454.600012
 20
182.0
 30
0.0
 11
454.600012
 21
186.0
 31
0.0
  0
LINE
  5
A59D
330
A3BA
100
AcDbEntity
  8
1
  6
Continuous
100
AcDbLine
 10
444.499994
 20
418.999976
 30
0.0
 11
450.5000059999998
 21
418.999976
 31
0.0
  0
LINE
  5
A59E
330
A3BA
100
AcDbEntity
  8
1
  6
Continuous
100
AcDbLine
 10
450.5000059999998
 20
412.999994
 30
0.0
 11
450.5000059999998
 21
418.999976
 31
0.0
  0
LINE
  5
A59F
330
A3BA
100
AcDbEntity
  8
1
  6
Continuous
100
AcDbLine
 10
51.0
 20
422.4999999999998
 30
0.0
 11
51.0
 21
414.0000239999998
 31
0.0
  0
LINE
  5
A5A0
330
A3BA
100
AcDbEntity
  8
1
  6
Continuous
100
AcDbLine
 10
55.0
 20
422.4999999999998
 30
0.0
 11
55.0
 21
414.0000239999998
 31
0.0
  0
LINE
  5
A5A1
330
A3BA
100
AcDbEntity
  8
1
  6
Continuous
100
AcDbLine
 10
180.500006
 20
503.0
 30
0.0
 11
172.0
 21
503.0
 31
0.0
  0
LINE
  5
A5A2
330
A3BA
100
AcDbEntity
  8
1
  6
Continuous
100
AcDbLine
 10
180.500006
 20
507.0
 30
0.0
 11
172.0
 21
507.0
 31
0.0
  0
LINE
  5
A5A3
330
A3BA
100
AcDbEntity
  8
1
  6
Continuous
100
AcDbLine
 10
25.5
 20
182.0
 30
0.0
 11
33.99999799999999
 21
182.0
 31
0.0
  0
LINE
  5
A5A4
330
A3BA
100
AcDbEntity
  8
1
  6
Continuous
100
AcDbLine
 10
25.5
 20
186.0
 30
0.0
 11
33.99999799999999
 21
186.0
 31
0.0
  0
LINE
  5
A5A5
330
A3BA
100
AcDbEntity
  8
1
  6
Continuous
100
AcDbLine
 10
446.700006
 20
182.0
 30
0.0
 11
455.200012
 21
182.0
 31
0.0
  0
LINE
  5
A5A6
330
A3BA
100
AcDbEntity
  8
1
  6
Continuous
100
AcDbLine
 10
446.700006
 20
186.0
 30
0.0
 11
455.200012
 21
186.0
 31
0.0
  0
ARC
  5
A5A7
330
A3BA
100
AcDbEntity
  8
1
  6
Continuous
100
AcDbCircle
 10
332.999994
 20
184.0
 30
0.0
 40
3.0
100
AcDbArc
 50
90.00000300000001
 51
270.000001
  0
ARC
  5
A5A8
330
A3BA
100
AcDbEntity
  8
1
  6
Continuous
100
AcDbCircle
 10
338.0000059999998
 20
182.0
 30
0.0
 40
1.0
100
AcDbArc
 50
179.9999909999999
 51
270.000001
  0
ARC
  5
A5A9
330
A3BA
100
AcDbEntity
  8
1
  6
Continuous
100
AcDbCircle
 10
338.0000059999998
 20
186.0
 30
0.0
 40
1.0
100
AcDbArc
 50
90.00000300000001
 51
180.000005
  0
ARC
  5
A5AA
330
A3BA
100
AcDbEntity
  8
1
  6
Continuous
100
AcDbCircle
 10
313.0
 20
415.0000239999998
 30
0.0
 40
3.0
100
AcDbArc
 50
179.9999909999999
 51
0.00001
  0
ARC
  5
A5AB
330
A3BA
100
AcDbEntity
  8
1
  6
Continuous
100
AcDbCircle
 10
315.0
 20
419.9999759999998
 30
0.0
 40
1.0
100
AcDbArc
 50
269.9999969999999
 51
0.0
  0
ARC
  5
A5AC
330
A3BA
100
AcDbEntity
  8
1
  6
Continuous
100
AcDbCircle
 10
311.0
 20
419.9999759999998
 30
0.0
 40
1.0
100
AcDbArc
 50
179.9999909999999
 51
270.000001
  0
ARC
  5
A5AD
330
A3BA
100
AcDbEntity
  8
1
  6
Continuous
100
AcDbCircle
 10
25.5
 20
181.4999999999997
 30
0.0
 40
0.5
100
AcDbArc
 50
90.00000300000001
 51
180.000005
  0
ARC
  5
A5AE
330
A3BA
100
AcDbEntity
  8
1
  6
Continuous
100
AcDbCircle
 10
25.5
 20
186.5
 30
0.0
 40
0.5
100
AcDbArc
 50
179.9999909999999
 51
270.000001
  0
ARC
  5
A5AF
330
A3BA
100
AcDbEntity
  8
1
  6
Continuous
100
AcDbCircle
 10
55.5
 20
422.4999999999998
 30
0.0
 40
0.5
100
AcDbArc
 50
90.00000300000001
 51
180.000005
  0
ARC
  5
A5B0
330
A3BA
100
AcDbEntity
  8
1
  6
Continuous
100
AcDbCircle
 10
50.5
 20
422.4999999999998
 30
0.0
 40
0.5
100
AcDbArc
 50
0.0
 51
90.00000300000001
  0
ARC
  5
A5B1
330
A3BA
100
AcDbEntity
  8
1
  6
Continuous
100
AcDbCircle
 10
172.0
 20
507.5
 30
0.0
 40
0.5
100
AcDbArc
 50
179.9999909999999
 51
270.000001
  0
ARC
  5
A5B2
330
A3BA
100
AcDbEntity
  8
1
  6
Continuous
100
AcDbCircle
 10
172.0
 20
502.5
 30
0.0
 40
0.5
100
AcDbArc
 50
90.00000300000001
 51
180.000005
  0
ARC
  5
A5B3
330
A3BA
100
AcDbEntity
  8
1
  6
Continuous
100
AcDbCircle
 10
180.299994
 20
44.000002
 30
0.0
 40
1.0
100
AcDbArc
 50
0.0
 51
90.00000300000001
  0
ARC
  5
A5B4
330
A3BA
100
AcDbEntity
  8
1
  6
Continuous
100
AcDbCircle
 10
173.2999969999999
 20
50.99999799999999
 30
0.0
 40
1.0
100
AcDbArc
 50
0.0
 51
90.00000300000001
  0
ARC
  5
A5B5
330
A3BA
100
AcDbEntity
  8
1
  6
Continuous
100
AcDbCircle
 10
455.200012
 20
186.5
 30
0.0
 40
0.5
100
AcDbArc
 50
269.9999969999999
 51
0.0
  0
ARC
  5
A5B6
330
A3BA
100
AcDbEntity
  8
1
  6
Continuous
100
AcDbCircle
 10
455.200012
 20
181.4999999999997
 30
0.0
 40
0.5
100
AcDbArc
 50
0.0
 51
90.00000300000001
  0
ARC
  5
A5B7
330
A3BA
100
AcDbEntity
  8
1
  6
Continuous
100
AcDbCircle
 10
444.499994
 20
419.9999759999998
 30
0.0
 40
1.0
100
AcDbArc
 50
180.000005
 51
270.000001
  0
ARC
  5
A5B8
330
A3BA
100
AcDbEntity
  8
1
  6
Continuous
100
AcDbCircle
 10
451.500006
 20
412.999994
 30
0.0
 40
1.0
100
AcDbArc
 50
180.000005
 51
270.000001
  0
ARC
  5
A5B9
330
A3BA
100
AcDbEntity
  8
1
  6
Continuous
100
AcDbCircle
 10
53.0
 20
414.0000239999998
 30
0.0
 40
2.0
100
AcDbArc
 50
179.9999909999999
 51
0.00001
  0
ARC
  5
A5BA
330
A3BA
100
AcDbEntity
  8
1
  6
Continuous
100
AcDbCircle
 10
180.500006
 20
505.0
 30
0.0
 40
2.0
100
AcDbArc
 50
269.9999969999999
 51
89.99998900000001
  0
ARC
  5
A5BB
330
A3BA
100
AcDbEntity
  8
1
  6
Continuous
100
AcDbCircle
 10
33.99999799999999
 20
184.0
 30
0.0
 40
2.0
100
AcDbArc
 50
269.9999969999999
 51
89.99998900000001
  0
ARC
  5
A5BC
330
A3BA
100
AcDbEntity
  8
1
  6
Continuous
100
AcDbCircle
 10
446.700006
 20
184.0
 30
0.0
 40
2.0
100
AcDbArc
 50
90.00000300000001
 51
270.000001
  0
LINE
  5
A5BD
330
A3BA
100
AcDbEntity
  8
1
  6
Continuous
100
AcDbLine
 10
181.299994
 20
44.000002
 30
0.0
 11
181.299994
 21
43.900002
 31
0.0
  0
LINE
  5
A5BE
330
A3BA
100
AcDbEntity
  8
1
  6
Continuous
100
AcDbLine
 10
173.2999969999999
 20
51.999998
 30
0.0
 11
173.1999969999999
 21
51.999998
 31
0.0
  0
LINE
  5
A5BF
330
A3BA
100
AcDbEntity
  8
1
  6
Continuous
100
AcDbLine
 10
451.500006
 20
411.999994
 30
0.0
 11
451.6000059999998
 21
411.999994
 31
0.0
  0
LINE
  5
A5C0
330
A3BA
100
AcDbEntity
  8
1
  6
Continuous
100
AcDbLine
 10
443.4999939999998
 20
419.9999749999998
 30
0.0
 11
443.4999939999998
 21
420.099976
 31
0.0
  0
ARC
  5
A5C1
330
A3BA
100
AcDbEntity
  8
1
  6
Continuous
100
AcDbCircle
 10
181.500006
 20
419.9999759999998
 30
0.0
 40
1.0
100
AcDbArc
 50
269.999999
 51
359.999995
  0
LINE
  5
A5C2
330
A3BA
100
AcDbEntity
  8
1
  6
Continuous
100
AcDbLine
 10
182.500006
 20
419.9999749999998
 30
0.0
 11
182.500006
 21
420.099976
 31
0.0
  0
LINE
  5
A5C3
330
A3BA
100
AcDbEntity
  8
1
  6
Continuous
100
AcDbLine
 10
181.500006
 20
418.999976
 30
0.0
 11
175.4999939999999
 21
418.999976
 31
0.0
  0
LINE
  5
A5C4
330
A3BA
100
AcDbEntity
  8
1
  6
Continuous
100
AcDbLine
 10
175.4999939999999
 20
412.999994
 30
0.0
 11
175.4999939999999
 21
418.999976
 31
0.0
  0
ARC
  5
A5C5
330
A3BA
100
AcDbEntity
  8
1
  6
Continuous
100
AcDbCircle
 10
174.4999939999999
 20
412.999994
 30
0.0
 40
1.0
100
AcDbArc
 50
269.999999
 51
359.999995
  0
LINE
  5
A5C6
330
A3BA
100
AcDbEntity
  8
1
  6
Continuous
100
AcDbLine
 10
174.4999939999999
 20
411.999994
 30
0.0
 11
174.3999939999999
 21
411.999994
 31
0.0
  0
LINE
  5
A5C7
330
A3BA
100
AcDbEntity
  8
1
  6
Continuous
100
AcDbLine
 10
181.3000089999999
 20
529.9999749999998
 30
0.0
 11
181.3000089999999
 21
530.0999759999998
 31
0.0
  0
ARC
  5
A5C8
330
A3BA
100
AcDbEntity
  8
1
  6
Continuous
100
AcDbCircle
 10
180.3000089999999
 20
529.9999759999998
 30
0.0
 40
1.0
100
AcDbArc
 50
269.999999
 51
359.999995
  0
LINE
  5
A5C9
330
A3BA
100
AcDbEntity
  8
1
  6
Continuous
100
AcDbLine
 10
180.3000089999999
 20
528.9999759999998
 30
0.0
 11
174.2999969999999
 21
528.9999759999998
 31
0.0
  0
LINE
  5
A5CA
330
A3BA
100
AcDbEntity
  8
1
  6
Continuous
100
AcDbLine
 10
174.2999969999999
 20
522.9999939999999
 30
0.0
 11
174.2999969999999
 21
528.9999759999998
 31
0.0
  0
LINE
  5
A5CB
330
A3BA
100
AcDbEntity
  8
1
  6
Continuous
100
AcDbLine
 10
173.2999969999999
 20
521.999994
 30
0.0
 11
173.1999969999999
 21
521.999994
 31
0.0
  0
ARC
  5
A5CC
330
A3BA
100
AcDbEntity
  8
1
  6
Continuous
100
AcDbCircle
 10
173.2999969999999
 20
522.9999939999999
 30
0.0
 40
1.0
100
AcDbArc
 50
269.999999
 51
359.999995
  0
ARC
  5
A5CD
330
A3BA
100
AcDbEntity
  8
1
  6
Continuous
100
AcDbCircle
 10
199.5
 20
82.0
 30
0.0
 40
2.0
100
AcDbArc
 50
0.0
 51
90.0
  0
ARC
  5
A5CE
330
A3BA
100
AcDbEntity
  8
1
  6
Continuous
100
AcDbCircle
 10
199.5
 20
56.0
 30
0.0
 40
2.0
100
AcDbArc
 50
270.0
 51
0.0
  0
ARC
  5
A5CF
330
A3BA
100
AcDbEntity
  8
1
  6
Continuous
100
AcDbCircle
 10
198.300003
 20
171.0
 30
0.0
 40
2.0
100
AcDbArc
 50
270.0
 51
0.0
  0
ARC
  5
A5D0
330
A3BA
100
AcDbEntity
  8
1
  6
Continuous
100
AcDbCircle
 10
198.300003
 20
197.0
 30
0.0
 40
2.0
100
AcDbArc
 50
0.0
 51
90.0
  0
ARC
  5
A5D1
330
A3BA
100
AcDbEntity
  8
1
  6
Continuous
100
AcDbCircle
 10
427.700012
 20
171.0
 30
0.0
 40
2.0
100
AcDbArc
 50
180.0
 51
270.0
  0
ARC
  5
A5D2
330
A3BA
100
AcDbEntity
  8
1
  6
Continuous
100
AcDbCircle
 10
427.700012
 20
197.0
 30
0.0
 40
2.0
100
AcDbArc
 50
90.0
 51
180.0
  0
ARC
  5
A5D3
330
A3BA
100
AcDbEntity
  8
1
  6
Continuous
100
AcDbCircle
 10
199.5
 20
492.0
 30
0.0
 40
2.0
100
AcDbArc
 50
270.0
 51
0.0
  0
ARC
  5
A5D4
330
A3BA
100
AcDbEntity
  8
1
  6
Continuous
100
AcDbCircle
 10
199.5
 20
518.0
 30
0.0
 40
2.0
100
AcDbArc
 50
0.0
 51
90.0
  0
CIRCLE
  5
A5D5
330
A3BA
100
AcDbEntity
  8
5
  6
PHANTOM
 48
0.2
100
AcDbCircle
 10
304.0
 20
351.0
 30
0.0
 40
2.649999999999999
  0
LINE
  5
A5D6
330
A3BA
100
AcDbEntity
  8
4
  6
CENTER
 48
0.2
100
AcDbLine
 10
325.4999999999999
 20
332.0
 30
0.0
 11
300.4999999999999
 21
332.0
 31
0.0
  0
LINE
  5
A5D7
330
A3BA
100
AcDbEntity
  8
4
  6
CENTER
 48
0.2
100
AcDbLine
 10
308.6499939999999
 20
351.0
 30
0.0
 11
299.350006
 21
351.0
 31
0.0
  0
LINE
  5
A5D8
330
A3BA
100
AcDbEntity
  8
5
  6
PHANTOM
 48
0.2
100
AcDbLine
 10
322.5
 20
342.0
 30
0.0
 11
303.5
 21
342.0
 31
0.0
  0
LINE
  5
A5D9
330
A3BA
100
AcDbEntity
  8
5
  6
PHANTOM
 48
0.2
100
AcDbLine
 10
328.0
 20
345.0
 30
0.0
 11
298.0
 21
345.0
 31
0.0
  0
LINE
  5
A5DA
330
A3BA
100
AcDbEntity
  8
5
  6
PHANTOM
 48
0.2
100
AcDbLine
 10
328.0
 20
357.100006
 30
0.0
 11
298.0
 21
357.100006
 31
0.0
  0
LINE
  5
A5DB
330
A3BA
100
AcDbEntity
  8
5
  6
PHANTOM
 48
0.2
100
AcDbLine
 10
328.0
 20
360.0
 30
0.0
 11
298.0
 21
360.0
 31
0.0
  0
ARC
  5
A5DC
330
A3BA
100
AcDbEntity
  8
5
  6
PHANTOM
 48
0.2
100
AcDbCircle
 10
313.0
 20
339.0
 30
0.0
 40
15.0
100
AcDbArc
 50
179.9999909999999
 51
230.703518
  0
LINE
  5
A5DD
330
A3BA
100
AcDbEntity
  8
4
  6
CENTER
 48
0.2
100
AcDbLine
 10
304.0
 20
346.350006
 30
0.0
 11
304.0
 21
365.0
 31
0.0
  0
LINE
  5
A5DE
330
A3BA
100
AcDbEntity
  8
5
  6
PHANTOM
 48
0.2
100
AcDbLine
 10
298.0
 20
339.0
 30
0.0
 11
298.0
 21
360.0
 31
0.0
  0
CIRCLE
  5
A5DF
330
A3BA
100
AcDbEntity
  8
5
  6
PHANTOM
 48
0.2
100
AcDbCircle
 10
313.0
 20
332.0
 30
0.0
 40
7.5
  0
CIRCLE
  5
A5E0
330
A3BA
100
AcDbEntity
  8
5
  6
PHANTOM
 48
0.2
100
AcDbCircle
 10
313.0
 20
332.0
 30
0.0
 40
6.5
  0
ARC
  5
A5E1
330
A3BA
100
AcDbEntity
  8
5
  6
PHANTOM
 48
0.2
100
AcDbCircle
 10
313.0
 20
339.0
 30
0.0
 40
15.0
100
AcDbArc
 50
309.2964799999998
 51
0.0
  0
CIRCLE
  5
A5E2
330
A3BA
100
AcDbEntity
  8
5
  6
PHANTOM
 48
0.2
100
AcDbCircle
 10
322.0
 20
351.0
 30
0.0
 40
2.649999999999999
  0
LINE
  5
A5E3
330
A3BA
100
AcDbEntity
  8
4
  6
CENTER
 48
0.2
100
AcDbLine
 10
326.649994
 20
351.0
 30
0.0
 11
317.350006
 21
351.0
 31
0.0
  0
ARC
  5
A5E4
330
A3BA
100
AcDbEntity
  8
5
  6
PHANTOM
 48
0.1
100
AcDbCircle
 10
311.0
 20
356.9999759999998
 30
0.0
 40
1.0
100
AcDbArc
 50
179.9999909999999
 51
270.000001
  0
ARC
  5
A5E5
330
A3BA
100
AcDbEntity
  8
5
  6
PHANTOM
 48
0.1
100
AcDbCircle
 10
315.0
 20
356.9999759999998
 30
0.0
 40
1.0
100
AcDbArc
 50
269.9999969999999
 51
0.0
  0
ARC
  5
A5E6
330
A3BA
100
AcDbEntity
  8
5
  6
PHANTOM
 48
0.1
100
AcDbCircle
 10
313.0
 20
352.0000239999998
 30
0.0
 40
3.0
100
AcDbArc
 50
179.9999909999999
 51
0.00001
  0
LINE
  5
A5E7
330
A3BA
100
AcDbEntity
  8
5
  6
PHANTOM
 48
0.1
100
AcDbLine
 10
315.0
 20
355.999976
 30
0.0
 11
311.0
 21
355.999976
 31
0.0
  0
LINE
  5
A5E8
330
A3BA
100
AcDbEntity
  8
5
  6
PHANTOM
 48
0.1
100
AcDbLine
 10
310.0
 20
352.0000239999998
 30
0.0
 11
310.0
 21
357.0999759999998
 31
0.0
  0
LINE
  5
A5E9
330
A3BA
100
AcDbEntity
  8
5
  6
PHANTOM
 48
0.1
100
AcDbLine
 10
316.0
 20
352.0000239999998
 30
0.0
 11
316.0
 21
357.0999759999998
 31
0.0
  0
LINE
  5
A5EA
330
A3BA
100
AcDbEntity
  8
4
  6
CENTER
 48
0.2
100
AcDbLine
 10
322.0
 20
346.350006
 30
0.0
 11
322.0
 21
365.0
 31
0.0
  0
LINE
  5
A5EB
330
A3BA
100
AcDbEntity
  8
5
  6
PHANTOM
 48
0.2
100
AcDbLine
 10
328.0
 20
339.0
 30
0.0
 11
328.0
 21
360.0
 31
0.0
  0
LINE
  5
A5EC
330
A3BA
100
AcDbEntity
  8
4
  6
CENTER
 48
0.2
100
AcDbLine
 10
446.6000059999998
 20
351.0
 30
0.0
 11
459.649994
 21
351.0
 31
0.0
  0
LINE
  5
A5ED
330
A3BA
100
AcDbEntity
  8
4
  6
CENTER
 48
0.2
100
AcDbLine
 10
427.8961179999998
 20
332.0
 30
0.0
 11
461.0286249999998
 21
332.0
 31
0.0
  0
LINE
  5
A5EE
330
A3BA
100
AcDbEntity
  8
5
  6
PHANTOM
 48
0.2
100
AcDbLine
 10
437.5
 20
324.5
 30
0.0
 11
437.5
 21
339.5
 31
0.0
  0
LINE
  5
A5EF
330
A3BA
100
AcDbEntity
  8
5
  6
PHANTOM
 48
0.2
100
AcDbLine
 10
451.3999879999998
 20
324.0
 30
0.0
 11
451.3999879999998
 21
342.100006
 31
0.0
  0
LINE
  5
A5F0
330
A3BA
100
AcDbEntity
  8
5
  6
PHANTOM
 48
0.2
100
AcDbLine
 10
452.8999879999998
 20
332.5
 30
0.0
 11
452.1500179999998
 21
332.0
 31
0.0
  0
LINE
  5
A5F1
330
A3BA
100
AcDbEntity
  8
5
  6
PHANTOM
 48
0.2
100
AcDbLine
 10
436.5
 20
325.4999999999999
 30
0.0
 11
436.5
 21
338.5
 31
0.0
  0
LINE
  5
A5F2
330
A3BA
100
AcDbEntity
  8
5
  6
PHANTOM
 48
0.2
100
AcDbLine
 10
448.499994
 20
324.0
 30
0.0
 11
448.4999940000001
 21
342.1
 31
0.0
  0
LINE
  5
A5F3
330
A3BA
100
AcDbEntity
  8
5
  6
PHANTOM
 48
0.2
100
AcDbLine
 10
437.5
 20
324.5
 30
0.0
 11
439.5
 21
324.5
 31
0.0
  0
LINE
  5
A5F4
330
A3BA
100
AcDbEntity
  8
5
  6
PHANTOM
 48
0.2
100
AcDbLine
 10
436.5
 20
325.4999999999999
 30
0.0
 11
437.5
 21
324.5
 31
0.0
  0
LINE
  5
A5F5
330
A3BA
100
AcDbEntity
  8
5
  6
PHANTOM
 48
0.2
100
AcDbLine
 10
452.1500179999998
 20
332.0000309999998
 30
0.0
 11
452.8999879999998
 21
331.5000309999998
 31
0.0
  0
LINE
  5
A5F6
330
A3BA
100
AcDbEntity
  8
5
  6
PHANTOM
 48
0.2
100
AcDbLine
 10
451.3999879999998
 20
329.0
 30
0.0
 11
452.8999879999998
 21
329.0
 31
0.0
  0
LINE
  5
A5F7
330
A3BA
100
AcDbEntity
  8
5
  6
PHANTOM
 48
0.2
100
AcDbLine
 10
446.7999879999998
 20
323.1499939999999
 30
0.0
 11
448.399994
 21
323.1499939999999
 31
0.0
  0
LINE
  5
A5F8
330
A3BA
100
AcDbEntity
  8
5
  6
PHANTOM
 48
0.2
100
AcDbLine
 10
448.499994
 20
324.0
 30
0.0
 11
451.3999879999998
 21
324.0
 31
0.0
  0
LINE
  5
A5F9
330
A3BA
100
AcDbEntity
  8
5
  6
PHANTOM
 48
0.2
100
AcDbLine
 10
452.8999879999998
 20
329.0
 30
0.0
 11
452.8999879999998
 21
331.4999999999999
 31
0.0
  0
LINE
  5
A5FA
330
A3BA
100
AcDbEntity
  8
5
  6
PHANTOM
 48
0.2
100
AcDbLine
 10
437.5
 20
339.5
 30
0.0
 11
439.5
 21
339.5
 31
0.0
  0
LINE
  5
A5FB
330
A3BA
100
AcDbEntity
  8
5
  6
PHANTOM
 48
0.2
100
AcDbLine
 10
424.5
 20
360.0
 30
0.0
 11
451.6000059999998
 21
360.0
 31
0.0
  0
LINE
  5
A5FC
330
A3BA
100
AcDbEntity
  8
5
  6
PHANTOM
 48
0.2
100
AcDbLine
 10
424.5
 20
357.100006
 30
0.0
 11
451.6000059999998
 21
357.100006
 31
0.0
  0
LINE
  5
A5FD
330
A3BA
100
AcDbEntity
  8
5
  6
PHANTOM
 48
0.2
100
AcDbLine
 10
436.5
 20
338.5
 30
0.0
 11
437.5000309999999
 21
339.5000309999998
 31
0.0
  0
LINE
  5
A5FE
330
A3BA
100
AcDbEntity
  8
5
  6
PHANTOM
 48
0.2
100
AcDbLine
 10
424.5
 20
357.100006
 30
0.0
 11
424.5
 21
360.0
 31
0.0
  0
LINE
  5
A5FF
330
A3BA
100
AcDbEntity
  8
4
  6
CENTER
 48
0.2
100
AcDbLine
 10
432.5
 20
352.1000059999999
 30
0.0
 11
432.5
 21
365.0
 31
0.0
  0
LINE
  5
A600
330
A3BA
100
AcDbEntity
  8
5
  6
PHANTOM
 48
0.1
100
AcDbLine
 10
443.4999939999998
 20
356.999975
 30
0.0
 11
443.4999939999998
 21
357.0999759999998
 31
0.0
  0
LINE
  5
A601
330
A3BA
100
AcDbEntity
  8
5
  6
PHANTOM
 48
0.1
100
AcDbLine
 10
451.500006
 20
348.999994
 30
0.0
 11
451.6000059999998
 21
348.999994
 31
0.0
  0
ARC
  5
A602
330
A3BA
100
AcDbEntity
  8
5
  6
PHANTOM
 48
0.1
100
AcDbCircle
 10
451.500006
 20
349.999994
 30
0.0
 40
1.0
100
AcDbArc
 50
180.000005
 51
270.000001
  0
ARC
  5
A603
330
A3BA
100
AcDbEntity
  8
5
  6
PHANTOM
 48
0.1
100
AcDbCircle
 10
444.499994
 20
356.9999759999998
 30
0.0
 40
1.0
100
AcDbArc
 50
180.000005
 51
270.000001
  0
LINE
  5
A604
330
A3BA
100
AcDbEntity
  8
5
  6
PHANTOM
 48
0.1
100
AcDbLine
 10
450.5000059999998
 20
349.999994
 30
0.0
 11
450.5000059999998
 21
355.999976
 31
0.0
  0
LINE
  5
A605
330
A3BA
100
AcDbEntity
  8
5
  6
PHANTOM
 48
0.1
100
AcDbLine
 10
444.499994
 20
355.999976
 30
0.0
 11
450.5000059999998
 21
355.999976
 31
0.0
  0
ARC
  5
A606
330
A3BA
100
AcDbEntity
  8
5
  6
PHANTOM
 48
0.2
100
AcDbCircle
 10
451.6000059999998
 20
357.100006
 30
0.0
 40
2.9
100
AcDbArc
 50
0.0
 51
90.00000300000001
  0
LINE
  5
A609
330
A3BA
100
AcDbEntity
  8
5
  6
PHANTOM
 48
0.2
100
AcDbLine
 10
451.6000059999998
 20
345.0
 30
0.0
 11
451.6000059999998
 21
357.100006
 31
0.0
  0
LINE
  5
A60A
330
A3BA
100
AcDbEntity
  8
5
  6
PHANTOM
 48
0.2
100
AcDbLine
 10
451.3999879999998
 20
335.0
 30
0.0
 11
452.8999879999998
 21
335.0
 31
0.0
  0
LINE
  5
A60B
330
A3BA
100
AcDbEntity
  8
5
  6
PHANTOM
 48
0.1
100
AcDbLine
 10
439.5
 20
342.0
 30
0.0
 11
446.7999879999998
 21
342.0
 31
0.0
  0
LINE
  5
A60C
330
A3BA
100
AcDbEntity
  8
5
  6
PHANTOM
 48
0.2
100
AcDbLine
 10
452.8999879999998
 20
332.5
 30
0.0
 11
452.8999879999998
 21
335.0
 31
0.0
  0
LINE
  5
A60D
330
A3BA
100
AcDbEntity
  8
5
  6
PHANTOM
 48
0.2
100
AcDbLine
 10
446.7999879999998
 20
340.850006
 30
0.0
 11
448.399994
 21
340.850006
 31
0.0
  0
LINE
  5
A60E
330
A3BA
100
AcDbEntity
  8
5
  6
PHANTOM
 48
0.2
100
AcDbLine
 10
454.4999999999998
 20
345.0000059999999
 30
0.0
 11
454.4999999999998
 21
357.100006
 31
0.0
  0
LINE
  5
A60F
330
A3BA
100
AcDbEntity
  8
5
  6
PHANTOM
 48
0.2
100
AcDbLine
 10
451.3999879999998
 20
342.100006
 30
0.0
 11
451.5999999999998
 21
342.100006
 31
0.0
  0
LINE
  5
A610
330
A3BA
100
AcDbEntity
  8
5
  6
PHANTOM
 48
0.2
100
AcDbLine
 10
451.3999940000001
 20
345.0
 30
0.0
 11
451.6000059999998
 21
345.0
 31
0.0
  0
ARC
  5
A611
330
A3BA
100
AcDbEntity
  8
5
  6
PHANTOM
 48
0.2
100
AcDbCircle
 10
53.0
 20
339.0
 30
0.0
 40
15.0
100
AcDbArc
 50
179.9999909999999
 51
0.00001
  0
LINE
  5
A612
330
A3BA
100
AcDbEntity
  8
5
  6
PHANTOM
 48
0.2
100
AcDbLine
 10
38.0
 20
342.100006
 30
0.0
 11
68.0
 21
342.100006
 31
0.0
  0
LINE
  5
A613
330
A3BA
100
AcDbEntity
  8
5
  6
PHANTOM
 48
0.2
100
AcDbLine
 10
38.0
 20
360.0
 30
0.0
 11
68.0
 21
360.0
 31
0.0
  0
LINE
  5
A614
330
A3BA
100
AcDbEntity
  8
5
  6
PHANTOM
 48
0.2
100
AcDbLine
 10
38.0
 20
360.0
 30
0.0
 11
38.0
 21
339.0
 31
0.0
  0
CIRCLE
  5
A615
330
A3BA
100
AcDbEntity
  8
5
  6
PHANTOM
 48
0.2
100
AcDbCircle
 10
53.0
 20
332.0
 30
0.0
 40
3.25
  0
CIRCLE
  5
A616
330
A3BA
100
AcDbEntity
  8
5
  6
PHANTOM
 48
0.2
100
AcDbCircle
 10
53.0
 20
332.0
 30
0.0
 40
3.0
  0
ARC
  5
A617
330
A3BA
100
AcDbEntity
  8
5
  6
PHANTOM
 48
0.2
100
AcDbCircle
 10
53.0
 20
332.0
 30
0.0
 40
8.849999999999997
100
AcDbArc
 50
232.032294
 51
307.9677109999999
  0
LINE
  5
A618
330
A3BA
100
AcDbEntity
  8
4
  6
CENTER
 48
0.2
100
AcDbLine
 10
58.25
 20
332.0
 30
0.0
 11
47.75
 21
332.0
 31
0.0
  0
LINE
  5
A619
330
A3BA
100
AcDbEntity
  8
5
  6
PHANTOM
 48
0.1
100
AcDbLine
 10
53.5
 20
331.4999999999999
 30
0.0
 11
55.958038
 21
331.4999999999999
 31
0.0
  0
LINE
  5
A61A
330
A3BA
100
AcDbEntity
  8
5
  6
PHANTOM
 48
0.1
100
AcDbLine
 10
50.04196199999999
 20
331.4999999999999
 30
0.0
 11
52.5
 21
331.4999999999999
 31
0.0
  0
LINE
  5
A61B
330
A3BA
100
AcDbEntity
  8
5
  6
PHANTOM
 48
0.1
100
AcDbLine
 10
53.5
 20
329.041962
 30
0.0
 11
53.5
 21
331.4999999999999
 31
0.0
  0
LINE
  5
A61C
330
A3BA
100
AcDbEntity
  8
5
  6
PHANTOM
 48
0.1
100
AcDbLine
 10
52.5
 20
329.041962
 30
0.0
 11
52.5
 21
331.4999999999999
 31
0.0
  0
ARC
  5
A61D
330
A3BA
100
AcDbEntity
  8
5
  6
PHANTOM
 48
0.1
100
AcDbCircle
 10
53.0
 20
351.000024
 30
0.0
 40
2.0
100
AcDbArc
 50
179.9999909999999
 51
0.00001
  0
ARC
  5
A61E
330
A3BA
100
AcDbEntity
  8
5
  6
PHANTOM
 48
0.2
100
AcDbCircle
 10
50.5
 20
359.5
 30
0.0
 40
0.5
100
AcDbArc
 50
0.0
 51
90.00000300000001
  0
ARC
  5
A61F
330
A3BA
100
AcDbEntity
  8
5
  6
PHANTOM
 48
0.2
100
AcDbCircle
 10
55.5
 20
359.5
 30
0.0
 40
0.5
100
AcDbArc
 50
90.00000300000001
 51
180.000005
  0
LINE
  5
A620
330
A3BA
100
AcDbEntity
  8
5
  6
PHANTOM
 48
0.1
100
AcDbLine
 10
55.0
 20
359.5
 30
0.0
 11
55.0
 21
351.000024
 31
0.0
  0
LINE
  5
A621
330
A3BA
100
AcDbEntity
  8
5
  6
PHANTOM
 48
0.1
100
AcDbLine
 10
51.0
 20
359.5
 30
0.0
 11
51.0
 21
351.000024
 31
0.0
  0
LINE
  5
A622
330
A3BA
100
AcDbEntity
  8
5
  6
PHANTOM
 48
0.1
100
AcDbLine
 10
51.0
 20
358.8999999999999
 30
0.0
 11
55.0
 21
358.8999999999999
 31
0.0
  0
CIRCLE
  5
A623
330
A3BA
100
AcDbEntity
  8
5
  6
PHANTOM
 48
0.2
100
AcDbCircle
 10
44.0
 20
351.0
 30
0.0
 40
2.649999999999999
  0
LINE
  5
A624
330
A3BA
100
AcDbEntity
  8
5
  6
PHANTOM
 48
0.1
100
AcDbLine
 10
53.5
 20
332.5
 30
0.0
 11
53.5
 21
334.9580379999999
 31
0.0
  0
LINE
  5
A625
330
A3BA
100
AcDbEntity
  8
5
  6
PHANTOM
 48
0.1
100
AcDbLine
 10
52.5
 20
332.5
 30
0.0
 11
52.5
 21
334.9580379999999
 31
0.0
  0
LINE
  5
A626
330
A3BA
100
AcDbEntity
  8
5
  6
PHANTOM
 48
0.1
100
AcDbLine
 10
53.5
 20
332.5
 30
0.0
 11
55.958038
 21
332.5
 31
0.0
  0
LINE
  5
A627
330
A3BA
100
AcDbEntity
  8
5
  6
PHANTOM
 48
0.1
100
AcDbLine
 10
50.04196199999999
 20
332.5
 30
0.0
 11
52.5
 21
332.5
 31
0.0
  0
LINE
  5
A628
330
A3BA
100
AcDbEntity
  8
4
  6
CENTER
 48
0.2
100
AcDbLine
 10
44.0
 20
365.0
 30
0.0
 11
44.0
 21
346.350006
 31
0.0
  0
LINE
  5
A629
330
A3BA
100
AcDbEntity
  8
4
  6
CENTER
 48
0.2
100
AcDbLine
 10
39.34999799999999
 20
351.0
 30
0.0
 11
48.650002
 21
351.0
 31
0.0
  0
CIRCLE
  5
A62A
330
A3BA
100
AcDbEntity
  8
5
  6
PHANTOM
 48
0.2
100
AcDbCircle
 10
62.0
 20
351.0
 30
0.0
 40
2.649999999999999
  0
LINE
  5
A62B
330
A3BA
100
AcDbEntity
  8
4
  6
CENTER
 48
0.2
100
AcDbLine
 10
62.0
 20
365.0
 30
0.0
 11
62.0
 21
346.350006
 31
0.0
  0
LINE
  5
A62C
330
A3BA
100
AcDbEntity
  8
4
  6
CENTER
 48
0.2
100
AcDbLine
 10
57.349998
 20
351.0
 30
0.0
 11
66.650002
 21
351.0
 31
0.0
  0
LINE
  5
A62D
330
A3BA
100
AcDbEntity
  8
5
  6
PHANTOM
 48
0.2
100
AcDbLine
 10
68.0
 20
360.0
 30
0.0
 11
68.0
 21
339.0
 31
0.0
  0
LINE
  5
A62E
330
A3BA
100
AcDbEntity
  8
5
  6
PHANTOM
 48
0.2
100
AcDbLine
 10
201.5
 20
357.100006
 30
0.0
 11
174.3999939999999
 21
357.100006
 31
0.0
  0
LINE
  5
A62F
330
A3BA
100
AcDbEntity
  8
5
  6
PHANTOM
 48
0.2
100
AcDbLine
 10
201.5
 20
360.0
 30
0.0
 11
174.3999939999999
 21
360.0
 31
0.0
  0
LINE
  5
A630
330
A3BA
100
AcDbEntity
  8
4
  6
CENTER
 48
0.2
100
AcDbLine
 10
198.1038969999999
 20
332.0
 30
0.0
 11
164.971375
 21
332.0
 31
0.0
  0
LINE
  5
A631
330
A3BA
100
AcDbEntity
  8
5
  6
PHANTOM
 48
0.2
100
AcDbLine
 10
173.0999969999999
 20
332.5
 30
0.0
 11
173.8499969999999
 21
332.0
 31
0.0
  0
LINE
  5
A632
330
A3BA
100
AcDbEntity
  8
5
  6
PHANTOM
 48
0.2
100
AcDbLine
 10
174.5999969999999
 20
324.0
 30
0.0
 11
174.5999969999999
 21
342.100006
 31
0.0
  0
LINE
  5
A633
330
A3BA
100
AcDbEntity
  8
5
  6
PHANTOM
 48
0.2
100
AcDbLine
 10
177.500006
 20
324.0
 30
0.0
 11
177.500006
 21
342.0999999999999
 31
0.0
  0
LINE
  5
A634
330
A3BA
100
AcDbEntity
  8
5
  6
PHANTOM
 48
0.2
100
AcDbLine
 10
188.4999999999998
 20
324.5
 30
0.0
 11
188.4999999999998
 21
339.5
 31
0.0
  0
LINE
  5
A635
330
A3BA
100
AcDbEntity
  8
5
  6
PHANTOM
 48
0.2
100
AcDbLine
 10
189.4999999999997
 20
325.4999999999999
 30
0.0
 11
189.4999999999997
 21
338.5
 31
0.0
  0
LINE
  5
A636
330
A3BA
100
AcDbEntity
  8
5
  6
PHANTOM
 48
0.2
100
AcDbLine
 10
174.5999969999999
 20
329.0
 30
0.0
 11
173.0999969999999
 21
329.0
 31
0.0
  0
LINE
  5
A637
330
A3BA
100
AcDbEntity
  8
5
  6
PHANTOM
 48
0.2
100
AcDbLine
 10
173.8500119999999
 20
332.0
 30
0.0
 11
173.1000119999999
 21
331.4999999999999
 31
0.0
  0
LINE
  5
A638
330
A3BA
100
AcDbEntity
  8
5
  6
PHANTOM
 48
0.2
100
AcDbLine
 10
173.0999969999999
 20
329.0
 30
0.0
 11
173.0999969999999
 21
331.4999999999999
 31
0.0
  0
LINE
  5
A639
330
A3BA
100
AcDbEntity
  8
5
  6
PHANTOM
 48
0.2
100
AcDbLine
 10
177.500006
 20
324.0
 30
0.0
 11
174.5999969999999
 21
324.0
 31
0.0
  0
LINE
  5
A63A
330
A3BA
100
AcDbEntity
  8
5
  6
PHANTOM
 48
0.2
100
AcDbLine
 10
179.1999969999999
 20
323.1499939999999
 30
0.0
 11
177.600006
 21
323.1499939999999
 31
0.0
  0
LINE
  5
A63B
330
A3BA
100
AcDbEntity
  8
5
  6
PHANTOM
 48
0.2
100
AcDbLine
 10
189.4999999999997
 20
325.4999999999999
 30
0.0
 11
188.4999999999998
 21
324.5
 31
0.0
  0
LINE
  5
A63C
330
A3BA
100
AcDbEntity
  8
5
  6
PHANTOM
 48
0.2
100
AcDbLine
 10
188.4999999999998
 20
324.5
 30
0.0
 11
186.5
 21
324.5
 31
0.0
  0
ARC
  5
A63D
330
A3BA
100
AcDbEntity
  8
5
  6
PHANTOM
 48
0.2
100
AcDbCircle
 10
174.3999939999999
 20
357.100006
 30
0.0
 40
2.9
100
AcDbArc
 50
90.00000300000001
 51
180.000005
  0
LINE
  5
A63F
330
A3BA
100
AcDbEntity
  8
4
  6
CENTER
 48
0.2
100
AcDbLine
 10
179.3999939999999
 20
351.0
 30
0.0
 11
166.350006
 21
351.0
 31
0.0
  0
LINE
  5
A640
330
A3BA
100
AcDbEntity
  8
5
  6
PHANTOM
 48
0.2
100
AcDbLine
 10
171.5
 20
345.0000059999999
 30
0.0
 11
171.5
 21
357.100006
 31
0.0
  0
LINE
  5
A641
330
A3BA
100
AcDbEntity
  8
5
  6
PHANTOM
 48
0.2
100
AcDbLine
 10
174.4999939999999
 20
348.999994
 30
0.0
 11
174.3999939999999
 21
348.999994
 31
0.0
  0
ARC
  5
A642
330
A3BA
100
AcDbEntity
  8
5
  6
PHANTOM
 48
0.1
100
AcDbCircle
 10
174.4999939999999
 20
349.999994
 30
0.0
 40
1.0
100
AcDbArc
 50
269.999999
 51
359.999995
  0
LINE
  5
A643
330
A3BA
100
AcDbEntity
  8
5
  6
PHANTOM
 48
0.1
100
AcDbLine
 10
175.4999939999999
 20
349.999994
 30
0.0
 11
175.4999939999999
 21
355.999976
 31
0.0
  0
LINE
  5
A644
330
A3BA
100
AcDbEntity
  8
5
  6
PHANTOM
 48
0.1
100
AcDbLine
 10
181.500006
 20
355.999976
 30
0.0
 11
175.4999939999999
 21
355.999976
 31
0.0
  0
LINE
  5
A645
330
A3BA
100
AcDbEntity
  8
5
  6
PHANTOM
 48
0.1
100
AcDbLine
 10
182.500006
 20
356.999975
 30
0.0
 11
182.500006
 21
357.0999759999998
 31
0.0
  0
ARC
  5
A646
330
A3BA
100
AcDbEntity
  8
5
  6
PHANTOM
 48
0.1
100
AcDbCircle
 10
181.500006
 20
356.9999759999998
 30
0.0
 40
1.0
100
AcDbArc
 50
269.999999
 51
359.999995
  0
LINE
  5
A648
330
A3BA
100
AcDbEntity
  8
5
  6
PHANTOM
 48
0.2
100
AcDbLine
 10
174.3999939999999
 20
345.0
 30
0.0
 11
174.3999939999999
 21
357.100006
 31
0.0
  0
LINE
  5
A649
330
A3BA
100
AcDbEntity
  8
5
  6
PHANTOM
 48
0.2
100
AcDbLine
 10
174.5999969999999
 20
335.0
 30
0.0
 11
173.0999969999999
 21
335.0
 31
0.0
  0
LINE
  5
A64A
330
A3BA
100
AcDbEntity
  8
5
  6
PHANTOM
 48
0.2
100
AcDbLine
 10
173.0999969999999
 20
332.5
 30
0.0
 11
173.0999969999999
 21
335.0
 31
0.0
  0
LINE
  5
A64B
330
A3BA
100
AcDbEntity
  8
5
  6
PHANTOM
 48
0.2
100
AcDbLine
 10
174.5999969999999
 20
342.100006
 30
0.0
 11
174.4
 21
342.100006
 31
0.0
  0
LINE
  5
A64C
330
A3BA
100
AcDbEntity
  8
5
  6
PHANTOM
 48
0.2
100
AcDbLine
 10
174.600006
 20
344.9999999999998
 30
0.0
 11
174.3999939999999
 21
345.0
 31
0.0
  0
LINE
  5
A64D
330
A3BA
100
AcDbEntity
  8
5
  6
PHANTOM
 48
0.2
100
AcDbLine
 10
179.1999969999999
 20
340.850006
 30
0.0
 11
177.600006
 21
340.850006
 31
0.0
  0
LINE
  5
A64E
330
A3BA
100
AcDbEntity
  8
5
  6
PHANTOM
 48
0.2
100
AcDbLine
 10
189.4999999999997
 20
338.5
 30
0.0
 11
188.4999999999998
 21
339.5
 31
0.0
  0
LINE
  5
A64F
330
A3BA
100
AcDbEntity
  8
5
  6
PHANTOM
 48
0.2
100
AcDbLine
 10
188.4999999999998
 20
339.5
 30
0.0
 11
186.5
 21
339.5
 31
0.0
  0
LINE
  5
A650
330
A3BA
100
AcDbEntity
  8
5
  6
PHANTOM
 48
0.1
100
AcDbLine
 10
186.5
 20
342.0
 30
0.0
 11
179.1999969999999
 21
342.0
 31
0.0
  0
LINE
  5
A651
330
A3BA
100
AcDbEntity
  8
5
  6
PHANTOM
 48
0.2
100
AcDbLine
 10
201.5
 20
357.100006
 30
0.0
 11
201.5
 21
360.0
 31
0.0
  0
LINE
  5
A652
330
A3BA
100
AcDbEntity
  8
4
  6
CENTER
 48
0.2
100
AcDbLine
 10
193.5
 20
352.1000059999999
 30
0.0
 11
193.5
 21
365.0
 31
0.0
  0
LINE
  5
A671
330
A3BA
100
AcDbEntity
  8
1
  6
Continuous
100
AcDbLine
 10
176.3999939999999
 20
192.850006
 30
0.0
 11
176.3999939999999
 21
175.1499939999999
 31
0.0
  0
LINE
  5
A672
330
A3BA
100
AcDbEntity
  8
1
  6
Continuous
100
AcDbLine
 10
176.2999939999999
 20
76.99999999999999
 30
0.0
 11
176.2999939999999
 21
58.900002
 31
0.0
  0
LINE
  5
A70D
330
A3BA
100
AcDbEntity
  8
1
  6
Continuous
100
AcDbLine
 10
177.600006
 20
386.1499939999998
 30
0.0
 11
177.600006
 21
403.850006
 31
0.0
  0
ARC
  5
A70E
330
A3BA
100
AcDbEntity
  8
1
  6
Continuous
100
AcDbCircle
 10
174.3999999999999
 20
408.0000059999997
 30
0.0
 40
2.9
100
AcDbArc
 50
180.0
 51
270.0
  0
ARC
  5
A70F
330
A3BA
100
AcDbEntity
  8
1
  6
Continuous
100
AcDbCircle
 10
174.600006
 20
405.1000000000001
 30
0.0
 40
2.9
100
AcDbArc
 50
0.0
 51
90.0
  0
LINE
  5
A77A
330
A3BA
100
AcDbEntity
  8
5
  6
PHANTOM
 48
0.2
100
AcDbLine
 10
177.600006
 20
323.1499939999999
 30
0.0
 11
177.600006
 21
340.850006
 31
0.0
  0
ARC
  5
A77B
330
A3BA
100
AcDbEntity
  8
5
  6
PHANTOM
 48
0.2
100
AcDbCircle
 10
174.4
 20
345.0000059999999
 30
0.0
 40
2.9
100
AcDbArc
 50
180.0
 51
270.0
  0
ARC
  5
A77C
330
A3BA
100
AcDbEntity
  8
5
  6
PHANTOM
 48
0.2
100
AcDbCircle
 10
174.600006
 20
342.0999999999999
 30
0.0
 40
2.9
100
AcDbArc
 50
0.0
 51
90.0
  0
LINE
  5
A851
330
A3BA
100
AcDbEntity
  8
1
  6
Continuous
100
AcDbLine
 10
448.399994
 20
386.1499939999998
 30
0.0
 11
448.399994
 21
403.850006
 31
0.0
  0
ARC
  5
A852
330
A3BA
100
AcDbEntity
  8
1
  6
Continuous
100
AcDbCircle
 10
451.399994
 20
405.1
 30
0.0
 40
2.9
100
AcDbArc
 50
90.0
 51
180.0
  0
ARC
  5
A853
330
A3BA
100
AcDbEntity
  8
1
  6
Continuous
100
AcDbCircle
 10
451.5999999999998
 20
408.0000059999997
 30
0.0
 40
2.9
100
AcDbArc
 50
270.0
 51
0.0
  0
LINE
  5
A892
330
A3BA
100
AcDbEntity
  8
5
  6
PHANTOM
 48
0.2
100
AcDbLine
 10
448.399994
 20
323.1499939999999
 30
0.0
 11
448.399994
 21
340.8500059999999
 31
0.0
  0
ARC
  5
A893
330
A3BA
100
AcDbEntity
  8
5
  6
PHANTOM
 48
0.2
100
AcDbCircle
 10
451.3999940000001
 20
342.1
 30
0.0
 40
2.9
100
AcDbArc
 50
90.0
 51
180.0
  0
ARC
  5
A894
330
A3BA
100
AcDbEntity
  8
5
  6
PHANTOM
 48
0.2
100
AcDbCircle
 10
451.5999999999998
 20
345.0000059999999
 30
0.0
 40
2.9
100
AcDbArc
 50
270.0
 51
0.0
  0
ENDSEC
  0
SECTION
  2
OBJECTS
  0
DICTIONARY
  5
A3A8
330
0
100
AcDbDictionary
281
     1
  3
ACAD_CIP_PREVIOUS_PRODUCT_INFO
350
A92D
  3
ACAD_COLOR
350
A90F
  3
ACAD_DETAILVIEWSTYLE
350
A928
  3
ACAD_GROUP
350
A3A9
  3
ACAD_LAYOUT
350
A3B5
  3
ACAD_MATERIAL
350
A8DD
  3
ACAD_MLEADERSTYLE
350
A924
  3
ACAD_MLINESTYLE
350
A3B2
  3
ACAD_PLOTSETTINGS
350
A3B4
  3
ACAD_PLOTSTYLENAME
350
A8DB
  3
ACAD_SCALELIST
350
A912
  3
ACAD_SECTIONVIEWSTYLE
350
A926
  3
ACAD_TABLESTYLE
350
A910
  3
ACAD_VISUALSTYLE
350
A8F6
  3
ACDB_RECOMPOSE_DATA
350
A94B
  3
AcDbVariableDictionary
350
A93E
  3
DWGPROPS
350
A94C
  0
DICTIONARY
  5
A92E
330
A3AC
100
AcDbDictionary
280
     1
281
     1
  3
ADSK_XREC_LAYER_RECONCILED
360
A92F
  0
DICTIONARY
  5
A930
330
A3C2
100
AcDbDictionary
280
     1
281
     1
  3
ADSK_XREC_LAYER_RECONCILED
360
A931
  0
DICTIONARY
  5
A932
330
A3C3
100
AcDbDictionary
280
     1
281
     1
  3
ADSK_XREC_LAYER_RECONCILED
360
A933
  0
DICTIONARY
  5
A934
330
A3C4
100
AcDbDictionary
280
     1
281
     1
  3
ADSK_XREC_LAYER_RECONCILED
360
A935
  0
DICTIONARY
  5
A936
330
A3C5
100
AcDbDictionary
280
     1
281
     1
  3
ADSK_XREC_LAYER_RECONCILED
360
A937
  0
DICTIONARY
  5
A938
330
A3C6
100
AcDbDictionary
280
     1
281
     1
  3
ADSK_XREC_LAYER_RECONCILED
360
A939
  0
DICTIONARY
  5
A93A
330
A3C7
100
AcDbDictionary
280
     1
281
     1
  3
ADSK_XREC_LAYER_RECONCILED
360
A93B
  0
DICTIONARY
  5
A93C
330
A3C8
100
AcDbDictionary
280
     1
281
     1
  3
ADSK_XREC_LAYER_RECONCILED
360
A93D
  0
DICTIONARY
  5
A661
330
A3BA
100
AcDbDictionary
281
     1
  3
ACAD_LAYOUTSELFREF
350
A8D7
  0
DICTIONARY
  5
A65F
330
A3B6
100
AcDbDictionary
281
     1
  3
ACAD_LAYOUTSELFREF
350
A8D6
  0
XRECORD
  5
A92D
102
{ACAD_REACTORS
330
A3A8
102
}
330
A3A8
100
AcDbXrecord
280
     1
300
ACDLT
300
2014
300
ACDLT_F_S
  0
DICTIONARY
  5
A90F
102
{ACAD_REACTORS
330
A3A8
102
}
330
A3A8
100
AcDbDictionary
281
     1
  0
DICTIONARY
  5
A928
102
{ACAD_REACTORS
330
A3A8
102
}
330
A3A8
100
AcDbDictionary
281
     1
  3
Imperial24
350
A929
  0
DICTIONARY
  5
A3A9
102
{ACAD_REACTORS
330
A3A8
102
}
330
A3A8
100
AcDbDictionary
281
     1
  0
DICTIONARY
  5
A3B5
102
{ACAD_REACTORS
330
A3A8
102
}
330
A3A8
100
AcDbDictionary
281
     1
  3
Model
350
A92A
  3
レイアウト1
350
A92B
  0
DICTIONARY
  5
A8DD
102
{ACAD_REACTORS
330
A3A8
102
}
330
A3A8
100
AcDbDictionary
281
     1
  3
ByBlock
350
A8E6
  3
ByLayer
350
A8DE
  3
Global
350
A8EE
  0
DICTIONARY
  5
A924
102
{ACAD_REACTORS
330
A3A8
102
}
330
A3A8
100
AcDbDictionary
281
     1
  3
Standard
350
A925
  0
DICTIONARY
  5
A3B2
102
{ACAD_REACTORS
330
A3A8
102
}
330
A3A8
100
AcDbDictionary
281
     1
  3
STANDARD
350
A3B3
  0
DICTIONARY
  5
A3B4
102
{ACAD_REACTORS
330
A3A8
102
}
330
A3A8
100
AcDbDictionary
281
     1
  0
ACDBDICTIONARYWDFLT
  5
A8DB
102
{ACAD_REACTORS
330
A3A8
102
}
330
A3A8
100
AcDbDictionary
281
     1
  3
Normal
350
A8DC
100
AcDbDictionaryWithDefault
340
A8DC
  0
DICTIONARY
  5
A912
102
{ACAD_REACTORS
330
A3A8
102
}
330
A3A8
100
AcDbDictionary
281
     1
  3
A0
350
A913
  3
A1
350
A914
  3
A2
350
A915
  3
A3
350
A916
  3
A4
350
A917
  3
A5
350
A918
  3
A6
350
A919
  3
A7
350
A91A
  3
A8
350
A91B
  3
A9
350
A91C
  3
B0
350
A91D
  3
B1
350
A91E
  3
B2
350
A91F
  3
B3
350
A920
  3
B4
350
A921
  3
B5
350
A922
  3
B6
350
A923
  0
DICTIONARY
  5
A926
102
{ACAD_REACTORS
330
A3A8
102
}
330
A3A8
100
AcDbDictionary
281
     1
  3
Imperial24
350
A927
  0
DICTIONARY
  5
A910
102
{ACAD_REACTORS
330
A3A8
102
}
330
A3A8
100
AcDbDictionary
281
     1
  3
Standard
350
A911
  0
DICTIONARY
  5
A8F6
102
{ACAD_REACTORS
330
A3A8
102
}
330
A3A8
100
AcDbDictionary
281
     1
  3
2dWireframe
350
A8FC
  3
Basic
350
A8FB
  3
Brighten
350
A902
  3
ColorChange
350
A906
  3
Conceptual
350
A8FF
  3
Dim
350
A901
  3
EdgeColorOff
350
A90E
  3
Facepattern
350
A905
  3
Flat
350
A8F7
  3
FlatWithEdges
350
A8F8
  3
Gouraud
350
A8F9
  3
GouraudWithEdges
350
A8FA
  3
Hidden
350
A8FE
  3
JitterOff
350
A90C
  3
Linepattern
350
A904
  3
OverhangOff
350
A90D
  3
Realistic
350
A900
  3
Shaded
350
A90B
  3
Shaded with edges
350
A90A
  3
Shades of Gray
350
A907
  3
Sketchy
350
A908
  3
Thicken
350
A903
  3
Wireframe
350
A8FD
  3
X-Ray
350
A909
  0
XRECORD
  5
A94B
102
{ACAD_REACTORS
330
A3A8
102
}
330
A3A8
100
AcDbXrecord
280
     1
 90
        1
330
A911
  0
DICTIONARY
  5
A93E
102
{ACAD_REACTORS
330
A3A8
102
}
330
A3A8
100
AcDbDictionary
281
     1
  3
CANNOSCALE
350
A943
  3
CMLEADERSTYLE
350
A940
  3
CTABLESTYLE
350
A93F
  3
CVIEWDETAILSTYLE
350
A941
  3
CVIEWSECTIONSTYLE
350
A942
  3
DIMASSOC
350
A946
  3
INDEXCTL
350
A945
  3
SORTENTS
350
A944
  3
XCLIPFRAME
350
A947
  0
XRECORD
  5
A94C
102
{ACAD_REACTORS
330
A3A8
102
}
330
A3A8
100
AcDbXrecord
280
     1
  1
DWGPROPS COOKIE
  2

  3

  4

  6

  7

  8
Yoshitsune
  9

300
=
301
=
302
=
303
=
304
=
305
=
306
=
307
=
308
=
309
=
 40
0.0216204282407408
 41
2451065.507775926
 42
2457192.622752315
  1

 90
        0
  0
XRECORD
  5
A92F
102
{ACAD_REACTORS
330
A92E
102
}
330
A92E
100
AcDbXrecord
280
     1
290
     1
  0
XRECORD
  5
A931
102
{ACAD_REACTORS
330
A930
102
}
330
A930
100
AcDbXrecord
280
     1
290
     1
  0
XRECORD
  5
A933
102
{ACAD_REACTORS
330
A932
102
}
330
A932
100
AcDbXrecord
280
     1
290
     1
  0
XRECORD
  5
A935
102
{ACAD_REACTORS
330
A934
102
}
330
A934
100
AcDbXrecord
280
     1
290
     1
  0
XRECORD
  5
A937
102
{ACAD_REACTORS
330
A936
102
}
330
A936
100
AcDbXrecord
280
     1
290
     1
  0
XRECORD
  5
A939
102
{ACAD_REACTORS
330
A938
102
}
330
A938
100
AcDbXrecord
280
     1
290
     1
  0
XRECORD
  5
A93B
102
{ACAD_REACTORS
330
A93A
102
}
330
A93A
100
AcDbXrecord
280
     1
290
     1
  0
XRECORD
  5
A93D
102
{ACAD_REACTORS
330
A93C
102
}
330
A93C
100
AcDbXrecord
280
     1
290
     1
  0
XRECORD
  5
A8D7
102
{ACAD_REACTORS
330
A661
102
}
330
A661
100
AcDbXrecord
280
     1
340
A3BA
  0
XRECORD
  5
A8D6
102
{ACAD_REACTORS
330
A65F
102
}
330
A65F
100
AcDbXrecord
280
     1
340
A3B6
  0
ACDBDETAILVIEWSTYLE
  5
A929
102
{ACAD_XDICTIONARY
360
A984
102
}
102
{ACAD_REACTORS
330
A928
102
}
330
A928
100
AcDbModelDocViewStyle
 70
     0
  3
Imperial24
290
     0
100
AcDbDetailViewStyle
 70
     0
 71
     0
 90
        3
 71
     1
340
A3AD
 40
0.24
340
0
 40
0.24
300

 40
0.36
280
     3
 71
     2
340
A3B1
 90
       25
 71
     3
340
A3AD
 40
0.24
 90
        1
 40
0.75
 90
        1
300
%<\AcVar ViewType \f "%tc1">% %<\AcVar ViewDetailId>%\PSCALE %<\AcVar ViewScale \f "%sn">%
 71
     4
340
A3B1
 90
       25
340
A3B1
 90
       25
280
     0
  0
LAYOUT
  5
A92A
102
{ACAD_XDICTIONARY
360
A986
102
}
102
{ACAD_REACTORS
330
A3B5
102
}
330
A3B5
100
AcDbPlotSettings
  1

  2
Canon LBP9100C
  4

  6

 40
0.0
 41
0.0
 42
0.0
 43
0.0
 44
0.0
 45
0.0
 46
0.0
 47
0.0
 48
0.0
 49
0.0
140
0.0
141
0.0
142
1.0
143
1.0
 70
  1712
 72
     0
 73
     0
 74
     0
  7

 75
     0
147
1.0
148
0.0
149
0.0
100
AcDbLayout
  1
Model
 70
     1
 71
     0
 10
0.0
 20
0.0
 11
12.0
 21
9.0
 12
0.0
 22
0.0
 32
0.0
 14
0.0
 24
0.0
 34
0.0
 15
0.0
 25
0.0
 35
0.0
146
0.0
 13
0.0
 23
0.0
 33
0.0
 16
1.0
 26
0.0
 36
0.0
 17
0.0
 27
1.0
 37
0.0
 76
     0
330
A3BA
331
A8D5
  0
LAYOUT
  5
A92B
102
{ACAD_XDICTIONARY
360
A988
102
}
102
{ACAD_REACTORS
330
A3B5
102
}
330
A3B5
100
AcDbPlotSettings
  1

  2
Canon LBP9100C
  4

  6

 40
0.0
 41
0.0
 42
0.0
 43
0.0
 44
0.0
 45
0.0
 46
0.0
 47
0.0
 48
0.0
 49
0.0
140
0.0
141
0.0
142
1.0
143
1.0
 70
   688
 72
     0
 73
     0
 74
     5
  7

 75
    16
147
1.0
148
0.0
149
0.0
100
AcDbLayout
  1
レイアウト1
 70
     0
 71
     1
 10
0.0
 20
0.0
 11
420.0
 21
297.0
 12
0.0
 22
0.0
 32
0.0
 14
1.000000000000000E+20
 24
1.000000000000000E+20
 34
1.000000000000000E+20
 15
-1.000000000000000E+20
 25
-1.000000000000000E+20
 35
-1.000000000000000E+20
146
0.0
 13
0.0
 23
0.0
 33
0.0
 16
1.0
 26
0.0
 36
0.0
 17
0.0
 27
1.0
 37
0.0
 76
     0
330
A3B6
  0
MATERIAL
  5
A8E6
102
{ACAD_XDICTIONARY
360
A8E7
102
}
102
{ACAD_REACTORS
330
A8DD
102
}
330
A8DD
100
AcDbMaterial
  1
ByBlock
 72
     0
 43
0.0208333333333333
 43
0.0
 43
0.0
 43
0.0
 43
0.0
 43
0.0208333333333333
 43
0.0
 43
0.0
 43
0.0
 43
0.0
 43
1.0
 43
0.0
 43
0.0
 43
0.0
 43
0.0
 43
1.0
 77
     0
 47
0.0208333333333333
 47
0.0
 47
0.0
 47
0.0
 47
0.0
 47
0.0208333333333333
 47
0.0
 47
0.0
 47
0.0
 47
0.0
 47
1.0
 47
0.0
 47
0.0
 47
0.0
 47
0.0
 47
1.0
171
     0
 49
0.0208333333333333
 49
0.0
 49
0.0
 49
0.0
 49
0.0
 49
0.0208333333333333
 49
0.0
 49
0.0
 49
0.0
 49
0.0
 49
1.0
 49
0.0
 49
0.0
 49
0.0
 49
0.0
 49
1.0
175
     0
142
0.0208333333333333
142
0.0
142
0.0
142
0.0
142
0.0
142
0.0208333333333333
142
0.0
142
0.0
142
0.0
142
0.0
142
1.0
142
0.0
142
0.0
142
0.0
142
0.0
142
1.0
179
     0
144
0.0208333333333333
144
0.0
144
0.0
144
0.0
144
0.0
144
0.0208333333333333
144
0.0
144
0.0
144
0.0
144
0.0
144
1.0
144
0.0
144
0.0
144
0.0
144
0.0
144
1.0
147
0.0208333333333333
147
0.0
147
0.0
147
0.0
147
0.0
147
0.0208333333333333
147
0.0
147
0.0
147
0.0
147
0.0
147
1.0
147
0.0
147
0.0
147
0.0
147
0.0
147
1.0
  0
MATERIAL
  5
A8DE
102
{ACAD_XDICTIONARY
360
A8DF
102
}
102
{ACAD_REACTORS
330
A8DD
102
}
330
A8DD
100
AcDbMaterial
  1
ByLayer
 72
     0
 43
0.0208333333333333
 43
0.0
 43
0.0
 43
0.0
 43
0.0
 43
0.0208333333333333
 43
0.0
 43
0.0
 43
0.0
 43
0.0
 43
1.0
 43
0.0
 43
0.0
 43
0.0
 43
0.0
 43
1.0
 77
     0
 47
0.0208333333333333
 47
0.0
 47
0.0
 47
0.0
 47
0.0
 47
0.0208333333333333
 47
0.0
 47
0.0
 47
0.0
 47
0.0
 47
1.0
 47
0.0
 47
0.0
 47
0.0
 47
0.0
 47
1.0
171
     0
 49
0.0208333333333333
 49
0.0
 49
0.0
 49
0.0
 49
0.0
 49
0.0208333333333333
 49
0.0
 49
0.0
 49
0.0
 49
0.0
 49
1.0
 49
0.0
 49
0.0
 49
0.0
 49
0.0
 49
1.0
175
     0
142
0.0208333333333333
142
0.0
142
0.0
142
0.0
142
0.0
142
0.0208333333333333
142
0.0
142
0.0
142
0.0
142
0.0
142
1.0
142
0.0
142
0.0
142
0.0
142
0.0
142
1.0
179
     0
144
0.0208333333333333
144
0.0
144
0.0
144
0.0
144
0.0
144
0.0208333333333333
144
0.0
144
0.0
144
0.0
144
0.0
144
1.0
144
0.0
144
0.0
144
0.0
144
0.0
144
1.0
147
0.0208333333333333
147
0.0
147
0.0
147
0.0
147
0.0
147
0.0208333333333333
147
0.0
147
0.0
147
0.0
147
0.0
147
1.0
147
0.0
147
0.0
147
0.0
147
0.0
147
1.0
  0
MATERIAL
  5
A8EE
102
{ACAD_XDICTIONARY
360
A8EF
102
}
102
{ACAD_REACTORS
330
A8DD
102
}
330
A8DD
100
AcDbMaterial
  1
Global
 72
     0
 43
0.0208333333333333
 43
0.0
 43
0.0
 43
0.0
 43
0.0
 43
0.0208333333333333
 43
0.0
 43
0.0
 43
0.0
 43
0.0
 43
1.0
 43
0.0
 43
0.0
 43
0.0
 43
0.0
 43
1.0
 77
     0
 47
0.0208333333333333
 47
0.0
 47
0.0
 47
0.0
 47
0.0
 47
0.0208333333333333
 47
0.0
 47
0.0
 47
0.0
 47
0.0
 47
1.0
 47
0.0
 47
0.0
 47
0.0
 47
0.0
 47
1.0
171
     0
 49
0.0208333333333333
 49
0.0
 49
0.0
 49
0.0
 49
0.0
 49
0.0208333333333333
 49
0.0
 49
0.0
 49
0.0
 49
0.0
 49
1.0
 49
0.0
 49
0.0
 49
0.0
 49
0.0
 49
1.0
175
     0
142
0.0208333333333333
142
0.0
142
0.0
142
0.0
142
0.0
142
0.0208333333333333
142
0.0
142
0.0
142
0.0
142
0.0
142
1.0
142
0.0
142
0.0
142
0.0
142
0.0
142
1.0
179
     0
144
0.0208333333333333
144
0.0
144
0.0
144
0.0
144
0.0
144
0.0208333333333333
144
0.0
144
0.0
144
0.0
144
0.0
144
1.0
144
0.0
144
0.0
144
0.0
144
0.0
144
1.0
147
0.0208333333333333
147
0.0
147
0.0
147
0.0
147
0.0
147
0.0208333333333333
147
0.0
147
0.0
147
0.0
147
0.0
147
1.0
147
0.0
147
0.0
147
0.0
147
0.0
147
1.0
  0
MLEADERSTYLE
  5
A925
102
{ACAD_REACTORS
330
A924
102
}
330
A924
100
AcDbMLeaderStyle
170
     2
171
     1
172
     0
 90
        2
 40
0.0
 41
0.0
173
     1
 91
-1056964608
340
A3AF
 92
       -2
290
     1
 42
0.09
291
     1
 43
0.36
  3
Standard
 44
0.18
300

342
A3AD
174
     1
178
     6
175
     1
176
     0
 93
-1056964608
 45
0.18
292
     0
297
     0
 46
0.18
 94
-1056964608
 47
1.0
 49
1.0
140
1.0
293
     1
141
0.0
294
     1
177
     0
142
1.0
295
     0
296
     0
143
0.125
1001
ACAD_MLEADERVER
1070
     2
  0
MLINESTYLE
  5
A3B3
102
{ACAD_REACTORS
330
A3B2
102
}
330
A3B2
100
AcDbMlineStyle
  2
STANDARD
 70
     0
  3

 62
   256
 51
90.0
 52
90.0
 71
     2
 49
0.5
 62
   256
  6
BYLAYER
 49
-0.5
 62
   256
  6
BYLAYER
  0
ACDBPLACEHOLDER
  5
A8DC
102
{ACAD_REACTORS
330
A8DB
102
}
330
A8DB
  0
SCALE
  5
A913
102
{ACAD_REACTORS
330
A912
102
}
330
A912
100
AcDbScale
 70
     0
300
1:1
140
1.0
141
1.0
290
     1
  0
SCALE
  5
A914
102
{ACAD_REACTORS
330
A912
102
}
330
A912
100
AcDbScale
 70
     0
300
1/128" = 1'-0"
140
0.0078125
141
12.0
290
     0
  0
SCALE
  5
A915
102
{ACAD_REACTORS
330
A912
102
}
330
A912
100
AcDbScale
 70
     0
300
1/64" = 1'-0"
140
0.015625
141
12.0
290
     0
  0
SCALE
  5
A916
102
{ACAD_REACTORS
330
A912
102
}
330
A912
100
AcDbScale
 70
     0
300
1/32" = 1'-0"
140
0.03125
141
12.0
290
     0
  0
SCALE
  5
A917
102
{ACAD_REACTORS
330
A912
102
}
330
A912
100
AcDbScale
 70
     0
300
1/16" = 1'-0"
140
0.0625
141
12.0
290
     0
  0
SCALE
  5
A918
102
{ACAD_REACTORS
330
A912
102
}
330
A912
100
AcDbScale
 70
     0
300
3/32" = 1'-0"
140
0.09375
141
12.0
290
     0
  0
SCALE
  5
A919
102
{ACAD_REACTORS
330
A912
102
}
330
A912
100
AcDbScale
 70
     0
300
1/8" = 1'-0"
140
0.125
141
12.0
290
     0
  0
SCALE
  5
A91A
102
{ACAD_REACTORS
330
A912
102
}
330
A912
100
AcDbScale
 70
     0
300
3/16" = 1'-0"
140
0.1875
141
12.0
290
     0
  0
SCALE
  5
A91B
102
{ACAD_REACTORS
330
A912
102
}
330
A912
100
AcDbScale
 70
     0
300
1/4" = 1'-0"
140
0.25
141
12.0
290
     0
  0
SCALE
  5
A91C
102
{ACAD_REACTORS
330
A912
102
}
330
A912
100
AcDbScale
 70
     0
300
3/8" = 1'-0"
140
0.375
141
12.0
290
     0
  0
SCALE
  5
A91D
102
{ACAD_REACTORS
330
A912
102
}
330
A912
100
AcDbScale
 70
     0
300
1/2" = 1'-0"
140
0.5
141
12.0
290
     0
  0
SCALE
  5
A91E
102
{ACAD_REACTORS
330
A912
102
}
330
A912
100
AcDbScale
 70
     0
300
3/4" = 1'-0"
140
0.75
141
12.0
290
     0
  0
SCALE
  5
A91F
102
{ACAD_REACTORS
330
A912
102
}
330
A912
100
AcDbScale
 70
     0
300
1" = 1'-0"
140
1.0
141
12.0
290
     0
  0
SCALE
  5
A920
102
{ACAD_REACTORS
330
A912
102
}
330
A912
100
AcDbScale
 70
     0
300
1-1/2" = 1'-0"
140
1.5
141
12.0
290
     0
  0
SCALE
  5
A921
102
{ACAD_REACTORS
330
A912
102
}
330
A912
100
AcDbScale
 70
     0
300
3" = 1'-0"
140
3.0
141
12.0
290
     0
  0
SCALE
  5
A922
102
{ACAD_REACTORS
330
A912
102
}
330
A912
100
AcDbScale
 70
     0
300
6" = 1'-0"
140
6.0
141
12.0
290
     0
  0
SCALE
  5
A923
102
{ACAD_REACTORS
330
A912
102
}
330
A912
100
AcDbScale
 70
     0
300
1'-0" = 1'-0"
140
12.0
141
12.0
290
     0
  0
ACDBSECTIONVIEWSTYLE
  5
A927
102
{ACAD_XDICTIONARY
360
A982
102
}
102
{ACAD_REACTORS
330
A926
102
}
330
A926
100
AcDbModelDocViewStyle
 70
     0
  3
Imperial24
290
     0
100
AcDbSectionViewStyle
 70
     0
 71
     0
 90
       78
 71
     1
340
A3AD
 40
0.24
340
0
340
0
 40
0.24
300
I, O, Q, S, X, Z
 40
0.48
 90
        3
 40
0.18
 90
        1
 71
     2
340
A3B1
 90
       25
340
A3B1
 90
       50
 40
0.24
 40
0.0
 40
0.24
 71
     3
340
A3AD
 40
0.24
 90
        1
 40
0.75
 90
        1
300
%<\AcVar ViewType \f "%tc1">% %<\AcVar ViewSectionStartId>%-%<\AcVar ViewSectionEndId>%\PSCALE %<\AcVar ViewScale \f "%sn">%
 71
     4
300
ANSI31
 40
1.0
 90
        0
290
     0
290
     0
 90
        6
 40
0.0
 40
1.570796326794896
 40
0.2617993877991494
 40
1.308996938995747
 40
-0.2617993877991494
 40
1.832595714594046
  0
TABLESTYLE
  5
A911
102
{ACAD_XDICTIONARY
360
A949
102
}
102
{ACAD_REACTORS
330
A910
102
}
330
A910
100
AcDbTableStyle
  3
Standard
 70
     0
 71
     0
 40
0.06
 41
0.06
280
     0
281
     0
  7
STANDARD
140
0.18
170
     2
 62
     0
 63
     7
283
     0
274
    -2
284
     1
 64
     0
275
    -2
285
     1
 65
     0
276
    -2
286
     1
 66
     0
277
    -2
287
     1
 67
     0
278
    -2
288
     1
 68
     0
279
    -2
289
     1
 69
     0
  7
STANDARD
140
0.25
170
     5
 62
     0
 63
     7
283
     0
274
    -2
284
     1
 64
     0
275
    -2
285
     1
 65
     0
276
    -2
286
     1
 66
     0
277
    -2
287
     1
 67
     0
278
    -2
288
     1
 68
     0
279
    -2
289
     1
 69
     0
  7
STANDARD
140
0.18
170
     5
 62
     0
 63
     7
283
     0
274
    -2
284
     1
 64
     0
275
    -2
285
     1
 65
     0
276
    -2
286
     1
 66
     0
277
    -2
287
     1
 67
     0
278
    -2
288
     1
 68
     0
279
    -2
289
     1
 69
     0
  0
VISUALSTYLE
  5
A8FC
102
{ACAD_XDICTIONARY
360
A95A
102
}
102
{ACAD_REACTORS
330
A8F6
102
}
330
A8F6
100
AcDbVisualStyle
  2
2dWireframe
 70
     4
 71
     0
 72
     2
 73
     0
 90
        0
 40
-0.6
 41
-30.0
 62
     5
 63
     7
 74
     1
 91
        4
 64
     7
 65
   257
 75
     1
175
     1
 42
1.0
 92
        0
 66
   257
 43
1.0
 76
     1
 77
     6
 78
     2
 67
     7
 79
     5
170
     0
171
     0
290
     0
174
     0
 93
        1
 44
0.0
173
     0
291
     0
 45
0.0
1001
ACAD
1000
AcDbSavedByObjectVersion
1070
     0
  0
VISUALSTYLE
  5
A8FB
102
{ACAD_XDICTIONARY
360
A958
102
}
102
{ACAD_REACTORS
330
A8F6
102
}
330
A8F6
100
AcDbVisualStyle
  2
Basic
 70
     7
 71
     1
 72
     0
 73
     1
 90
        0
 40
-0.6
 41
-30.0
 62
     5
 63
     7
 74
     0
 91
        4
 64
     7
 65
   257
 75
     1
175
     1
 42
1.0
 92
        8
 66
     7
 43
1.0
 76
     1
 77
     6
 78
     2
 67
     7
 79
     5
170
     0
171
     0
290
     0
174
     0
 93
        1
 44
0.0
173
     0
291
     1
 45
0.0
1001
ACAD
1000
AcDbSavedByObjectVersion
1070
     0
  0
VISUALSTYLE
  5
A902
102
{ACAD_XDICTIONARY
360
A966
102
}
102
{ACAD_REACTORS
330
A8F6
102
}
330
A8F6
100
AcDbVisualStyle
  2
Brighten
 70
    12
 71
     2
 72
     2
 73
     0
 90
        0
 40
-0.6
 41
-30.0
 62
     5
 63
     7
 74
     1
 91
        4
 64
     7
 65
   257
 75
     1
175
     1
 42
1.0
 92
        8
 66
     7
 43
1.0
 76
     1
 77
     6
 78
     2
 67
     7
 79
     5
170
     0
171
     0
290
     0
174
     0
 93
        1
 44
50.0
173
     0
291
     1
 45
0.0
1001
ACAD
1000
AcDbSavedByObjectVersion
1070
     0
  0
VISUALSTYLE
  5
A906
102
{ACAD_XDICTIONARY
360
A96E
102
}
102
{ACAD_REACTORS
330
A8F6
102
}
330
A8F6
100
AcDbVisualStyle
  2
ColorChange
 70
    16
 71
     2
 72
     2
 73
     3
 90
        0
 40
-0.6
 41
-30.0
 62
     5
 63
     8
 74
     1
 91
        4
 64
     7
 65
   257
 75
     1
175
     1
 42
1.0
 92
        8
 66
     8
 43
1.0
 76
     1
 77
     6
 78
     2
 67
     7
 79
     5
170
     0
171
     0
290
     0
174
     0
 93
        1
 44
0.0
173
     0
291
     1
 45
0.0
1001
ACAD
1000
AcDbSavedByObjectVersion
1070
     0
  0
VISUALSTYLE
  5
A8FF
102
{ACAD_XDICTIONARY
360
A960
102
}
102
{ACAD_REACTORS
330
A8F6
102
}
330
A8F6
100
AcDbVisualStyle
  2
Conceptual
 70
     9
 71
     3
 72
     2
 73
     0
 90
        0
 40
-0.6
 41
-30.0
 62
     5
 63
     7
 74
     2
 91
        2
 64
     7
 65
   257
 75
     1
175
     1
 42
179.0
 92
        8
 66
     7
 43
1.0
 76
     1
 77
     6
 78
     2
 67
     7
 79
     3
170
     0
171
     0
290
     0
174
     0
 93
        1
 44
0.0
173
     0
291
     0
 45
0.0
1001
ACAD
1000
AcDbSavedByObjectVersion
1070
     0
  0
VISUALSTYLE
  5
A901
102
{ACAD_XDICTIONARY
360
A964
102
}
102
{ACAD_REACTORS
330
A8F6
102
}
330
A8F6
100
AcDbVisualStyle
  2
Dim
 70
    11
 71
     2
 72
     2
 73
     0
 90
        0
 40
-0.6
 41
-30.0
 62
     5
 63
     7
 74
     1
 91
        4
 64
     7
 65
   257
 75
     1
175
     1
 42
1.0
 92
        8
 66
     7
 43
1.0
 76
     1
 77
     6
 78
     2
 67
     7
 79
     5
170
     0
171
     0
290
     0
174
     0
 93
        1
 44
-50.0
173
     0
291
     1
 45
0.0
1001
ACAD
1000
AcDbSavedByObjectVersion
1070
     0
  0
VISUALSTYLE
  5
A90E
102
{ACAD_XDICTIONARY
360
A97E
102
}
102
{ACAD_REACTORS
330
A8F6
102
}
330
A8F6
100
AcDbVisualStyle
  2
EdgeColorOff
 70
    22
 71
     2
 72
     2
 73
     0
 90
        0
 40
-0.6
 41
-30.0
 62
     5
 63
     7
 74
     1
 91
        4
 64
     7
 65
   257
 75
     1
175
     1
 42
1.0
 92
        8
 66
     7
 43
1.0
 76
     1
 77
     6
 78
     2
 67
     7
 79
     5
170
     0
171
     0
290
     0
174
     0
 93
        1
 44
0.0
173
     0
291
     1
 45
0.0
1001
ACAD
1000
AcDbSavedByObjectVersion
1070
     0
  0
VISUALSTYLE
  5
A905
102
{ACAD_XDICTIONARY
360
A96C
102
}
102
{ACAD_REACTORS
330
A8F6
102
}
330
A8F6
100
AcDbVisualStyle
  2
Facepattern
 70
    15
 71
     2
 72
     2
 73
     0
 90
        0
 40
-0.6
 41
-30.0
 62
     5
 63
     7
 74
     1
 91
        4
 64
     7
 65
   257
 75
     1
175
     1
 42
1.0
 92
        8
 66
     7
 43
1.0
 76
     1
 77
     6
 78
     2
 67
     7
 79
     5
170
     0
171
     0
290
     0
174
     0
 93
        1
 44
0.0
173
     0
291
     1
 45
0.0
1001
ACAD
1000
AcDbSavedByObjectVersion
1070
     0
  0
VISUALSTYLE
  5
A8F7
102
{ACAD_XDICTIONARY
360
A950
102
}
102
{ACAD_REACTORS
330
A8F6
102
}
330
A8F6
100
AcDbVisualStyle
  2
Flat
 70
     0
 71
     2
 72
     1
 73
     1
 90
        2
 40
-0.6
 41
30.0
 62
     5
 63
     7
 74
     0
 91
        0
 64
     7
 65
   257
 75
     1
175
     1
 42
1.0
 92
        8
 66
     7
 43
1.0
 76
     1
 77
     6
 78
     2
 67
     7
 79
     5
170
     0
171
     0
290
     0
174
     0
 93
       13
 44
0.0
173
     0
291
     1
 45
0.0
1001
ACAD
1000
AcDbSavedByObjectVersion
1070
     0
  0
VISUALSTYLE
  5
A8F8
102
{ACAD_XDICTIONARY
360
A952
102
}
102
{ACAD_REACTORS
330
A8F6
102
}
330
A8F6
100
AcDbVisualStyle
  2
FlatWithEdges
 70
     1
 71
     2
 72
     1
 73
     1
 90
        2
 40
-0.6
 41
30.0
 62
     5
 63
     7
 74
     1
 91
        0
 64
     7
 65
   257
 75
     1
175
     1
 42
1.0
 92
        0
 66
   257
 43
1.0
 76
     1
 77
     6
 78
     2
 67
     7
 79
     5
170
     0
171
     0
290
     0
174
     0
 93
       13
 44
0.0
173
     0
291
     1
 45
0.0
1001
ACAD
1000
AcDbSavedByObjectVersion
1070
     0
  0
VISUALSTYLE
  5
A8F9
102
{ACAD_XDICTIONARY
360
A954
102
}
102
{ACAD_REACTORS
330
A8F6
102
}
330
A8F6
100
AcDbVisualStyle
  2
Gouraud
 70
     2
 71
     2
 72
     2
 73
     1
 90
        2
 40
-0.6
 41
30.0
 62
     5
 63
     7
 74
     0
 91
        0
 64
     7
 65
   257
 75
     1
175
     1
 42
1.0
 92
        0
 66
     7
 43
1.0
 76
     1
 77
     6
 78
     2
 67
     7
 79
     5
170
     0
171
     0
290
     0
174
     0
 93
       13
 44
0.0
173
     0
291
     1
 45
0.0
1001
ACAD
1000
AcDbSavedByObjectVersion
1070
     0
  0
VISUALSTYLE
  5
A8FA
102
{ACAD_XDICTIONARY
360
A956
102
}
102
{ACAD_REACTORS
330
A8F6
102
}
330
A8F6
100
AcDbVisualStyle
  2
GouraudWithEdges
 70
     3
 71
     2
 72
     2
 73
     1
 90
        2
 40
-0.6
 41
30.0
 62
     5
 63
     7
 74
     1
 91
        0
 64
     7
 65
   257
 75
     1
175
     1
 42
1.0
 92
        0
 66
   257
 43
1.0
 76
     1
 77
     6
 78
     2
 67
     7
 79
     5
170
     0
171
     0
290
     0
174
     0
 93
       13
 44
0.0
173
     0
291
     1
 45
0.0
1001
ACAD
1000
AcDbSavedByObjectVersion
1070
     0
  0
VISUALSTYLE
  5
A8FE
102
{ACAD_XDICTIONARY
360
A95E
102
}
102
{ACAD_REACTORS
330
A8F6
102
}
330
A8F6
100
AcDbVisualStyle
  2
Hidden
 70
     6
 71
     1
 72
     2
 73
     2
 90
        0
 40
-0.6
 41
-30.0
 62
     5
 63
     7
 74
     2
 91
        2
 64
     7
 65
   257
 75
     2
175
     1
 42
40.0
 92
        0
 66
   257
 43
1.0
 76
     1
 77
     6
 78
     2
 67
     7
 79
     3
170
     0
171
     0
290
     0
174
     0
 93
        1
 44
0.0
173
     0
291
     0
 45
0.0
1001
ACAD
1000
AcDbSavedByObjectVersion
1070
     0
  0
VISUALSTYLE
  5
A90C
102
{ACAD_XDICTIONARY
360
A97A
102
}
102
{ACAD_REACTORS
330
A8F6
102
}
330
A8F6
100
AcDbVisualStyle
  2
JitterOff
 70
    20
 71
     2
 72
     2
 73
     0
 90
        0
 40
-0.6
 41
-30.0
 62
     5
 63
     7
 74
     1
 91
        4
 64
     7
 65
   257
 75
     1
175
     1
 42
1.0
 92
       10
 66
     7
 43
1.0
 76
     1
 77
     6
 78
     2
 67
     7
 79
     5
170
     0
171
     0
290
     0
174
     0
 93
        1
 44
0.0
173
     0
291
     1
 45
0.0
1001
ACAD
1000
AcDbSavedByObjectVersion
1070
     0
  0
VISUALSTYLE
  5
A904
102
{ACAD_XDICTIONARY
360
A96A
102
}
102
{ACAD_REACTORS
330
A8F6
102
}
330
A8F6
100
AcDbVisualStyle
  2
Linepattern
 70
    14
 71
     2
 72
     2
 73
     0
 90
        0
 40
-0.6
 41
-30.0
 62
     5
 63
     7
 74
     1
 91
        4
 64
     7
 65
   257
 75
     7
175
     7
 42
1.0
 92
        8
 66
     7
 43
1.0
 76
     1
 77
     6
 78
     2
 67
     7
 79
     5
170
     0
171
     0
290
     0
174
     0
 93
        1
 44
0.0
173
     0
291
     1
 45
0.0
1001
ACAD
1000
AcDbSavedByObjectVersion
1070
     0
  0
VISUALSTYLE
  5
A90D
102
{ACAD_XDICTIONARY
360
A97C
102
}
102
{ACAD_REACTORS
330
A8F6
102
}
330
A8F6
100
AcDbVisualStyle
  2
OverhangOff
 70
    21
 71
     2
 72
     2
 73
     0
 90
        0
 40
-0.6
 41
-30.0
 62
     5
 63
     7
 74
     1
 91
        4
 64
     7
 65
   257
 75
     1
175
     1
 42
1.0
 92
        9
 66
     7
 43
1.0
 76
     1
 77
     6
 78
     2
 67
     7
 79
     5
170
     0
171
     0
290
     0
174
     0
 93
        1
 44
0.0
173
     0
291
     1
 45
0.0
1001
ACAD
1000
AcDbSavedByObjectVersion
1070
     0
  0
VISUALSTYLE
  5
A900
102
{ACAD_XDICTIONARY
360
A962
102
}
102
{ACAD_REACTORS
330
A8F6
102
}
330
A8F6
100
AcDbVisualStyle
  2
Realistic
 70
     8
 71
     2
 72
     3
 73
     0
 90
        2
 40
-0.6
 41
30.0
 62
     5
 63
     7
 74
     0
 91
        0
 64
     7
 65
   257
 75
     1
175
     1
 42
1.0
 92
        8
 66
   257
 43
1.0
 76
     1
 77
     6
 78
     2
 67
     7
 79
     3
170
     0
171
     0
290
     0
174
     0
 93
       13
 44
0.0
173
     0
291
     0
 45
0.0
1001
ACAD
1000
AcDbSavedByObjectVersion
1070
     0
  0
VISUALSTYLE
  5
A90B
102
{ACAD_XDICTIONARY
360
A978
102
}
102
{ACAD_REACTORS
330
A8F6
102
}
330
A8F6
100
AcDbVisualStyle
  2
Shaded
 70
    27
 71
     2
 72
     2
 73
     1
 90
        2
 40
-0.6
 41
30.0
 62
     5
 63
     7
 74
     0
 91
        4
 64
     7
 65
   257
 75
     1
175
     1
 42
1.0
 92
        8
 66
   257
 43
1.0
 76
     1
 77
     6
 78
     2
 67
     8
 79
     3
170
     0
171
     0
290
     0
174
     0
 93
        5
 44
0.0
173
     0
291
     0
 45
0.0
1001
ACAD
1000
AcDbSavedByObjectVersion
1070
     0
  0
VISUALSTYLE
  5
A90A
102
{ACAD_XDICTIONARY
360
A976
102
}
102
{ACAD_REACTORS
330
A8F6
102
}
330
A8F6
100
AcDbVisualStyle
  2
Shaded with edges
 70
    26
 71
     2
 72
     2
 73
     1
 90
        2
 40
-0.6
 41
30.0
 62
     5
 63
     7
 74
     1
 91
       10
 64
     7
 65
   257
 75
     2
175
     1
 42
1.0
 92
        8
 66
   257
 43
1.0
 76
     1
 77
     6
 78
     2
 67
     7
 79
     3
170
     0
171
     0
290
     0
174
     0
 93
        5
 44
0.0
173
     0
291
     0
 45
0.0
1001
ACAD
1000
AcDbSavedByObjectVersion
1070
     0
  0
VISUALSTYLE
  5
A907
102
{ACAD_XDICTIONARY
360
A970
102
}
102
{ACAD_REACTORS
330
A8F6
102
}
330
A8F6
100
AcDbVisualStyle
  2
Shades of Gray
 70
    23
 71
     2
 72
     2
 73
     3
 90
        0
 40
-0.6
 41
-30.0
 62
     5
 63
     7
 74
     2
 91
        2
 64
     7
 65
     7
 75
     1
175
     1
 42
40.0
 92
        8
 66
     7
 43
1.0
 76
     1
 77
     6
 78
     2
 67
     7
 79
     3
170
     0
171
     0
290
     0
174
     0
 93
        1
 44
0.0
173
     0
291
     0
 45
0.0
1001
ACAD
1000
AcDbSavedByObjectVersion
1070
     0
  0
VISUALSTYLE
  5
A908
102
{ACAD_XDICTIONARY
360
A972
102
}
102
{ACAD_REACTORS
330
A8F6
102
}
330
A8F6
100
AcDbVisualStyle
  2
Sketchy
 70
    24
 71
     1
 72
     2
 73
     2
 90
        0
 40
-0.6
 41
-30.0
 62
     5
 63
     7
 74
     2
 91
        2
 64
     7
 65
     7
 75
     1
175
     1
 42
40.0
 92
       11
 66
     7
 43
1.0
 76
     1
 77
     6
 78
     2
 67
     7
 79
     6
170
     0
171
     0
290
     0
174
     0
 93
        1
 44
0.0
173
     0
291
     0
 45
0.0
1001
ACAD
1000
AcDbSavedByObjectVersion
1070
     0
  0
VISUALSTYLE
  5
A903
102
{ACAD_XDICTIONARY
360
A968
102
}
102
{ACAD_REACTORS
330
A8F6
102
}
330
A8F6
100
AcDbVisualStyle
  2
Thicken
 70
    13
 71
     2
 72
     2
 73
     0
 90
        0
 40
-0.6
 41
-30.0
 62
     5
 63
     7
 74
     1
 91
        4
 64
     7
 65
   257
 75
     1
175
     1
 42
1.0
 92
       12
 66
     7
 43
1.0
 76
     1
 77
     6
 78
     2
 67
     7
 79
     5
170
     0
171
     0
290
     0
174
     0
 93
        1
 44
0.0
173
     0
291
     1
 45
0.0
1001
ACAD
1000
AcDbSavedByObjectVersion
1070
     0
  0
VISUALSTYLE
  5
A8FD
102
{ACAD_XDICTIONARY
360
A95C
102
}
102
{ACAD_REACTORS
330
A8F6
102
}
330
A8F6
100
AcDbVisualStyle
  2
Wireframe
 70
     5
 71
     0
 72
     2
 73
     0
 90
        0
 40
-0.6
 41
-30.0
 62
     5
 63
     7
 74
     1
 91
        4
 64
     7
 65
   257
 75
     1
175
     1
 42
1.0
 92
        0
 66
   257
 43
1.0
 76
     1
 77
     6
 78
     2
 67
     7
 79
     3
170
     0
171
     0
290
     0
174
     0
 93
        1
 44
0.0
173
     0
291
     0
 45
0.0
1001
ACAD
1000
AcDbSavedByObjectVersion
1070
     0
  0
VISUALSTYLE
  5
A909
102
{ACAD_XDICTIONARY
360
A974
102
}
102
{ACAD_REACTORS
330
A8F6
102
}
330
A8F6
100
AcDbVisualStyle
  2
X-Ray
 70
    25
 71
     2
 72
     2
 73
     1
 90
        1
 40
0.5
 41
-30.0
 62
     5
 63
     7
 74
     1
 91
        0
 64
     7
 65
   257
 75
     1
175
     1
 42
1.0
 92
        8
 66
     7
 43
1.0
 76
     1
 77
     6
 78
     2
 67
     7
 79
     3
170
     0
171
     0
290
     0
174
     0
 93
       13
 44
0.0
173
     0
291
     0
 45
0.0
1001
ACAD
1000
AcDbSavedByObjectVersion
1070
     0
  0
DICTIONARYVAR
  5
A943
102
{ACAD_REACTORS
330
A93E
102
}
330
A93E
100
DictionaryVariables
280
     0
  1
1:1
  0
DICTIONARYVAR
  5
A940
102
{ACAD_REACTORS
330
A93E
102
}
330
A93E
100
DictionaryVariables
280
     0
  1
STANDARD
  0
DICTIONARYVAR
  5
A93F
102
{ACAD_REACTORS
330
A93E
102
}
330
A93E
100
DictionaryVariables
280
     0
  1
STANDARD
  0
DICTIONARYVAR
  5
A941
102
{ACAD_REACTORS
330
A93E
102
}
330
A93E
100
DictionaryVariables
280
     0
  1
Imperial24
  0
DICTIONARYVAR
  5
A942
102
{ACAD_REACTORS
330
A93E
102
}
330
A93E
100
DictionaryVariables
280
     0
  1
Imperial24
  0
DICTIONARYVAR
  5
A946
102
{ACAD_REACTORS
330
A93E
102
}
330
A93E
100
DictionaryVariables
280
     0
  1
1
  0
DICTIONARYVAR
  5
A945
102
{ACAD_REACTORS
330
A93E
102
}
330
A93E
100
DictionaryVariables
280
     0
  1
0
  0
DICTIONARYVAR
  5
A944
102
{ACAD_REACTORS
330
A93E
102
}
330
A93E
100
DictionaryVariables
280
     0
  1
127
  0
DICTIONARYVAR
  5
A947
102
{ACAD_REACTORS
330
A93E
102
}
330
A93E
100
DictionaryVariables
280
     0
  1
2
  0
DICTIONARY
  5
A984
330
A929
100
AcDbDictionary
280
     1
281
     1
  3
ACAD_XREC_ROUNDTRIP
360
A985
  0
DICTIONARY
  5
A986
330
A92A
100
AcDbDictionary
280
     1
281
     1
  3
ACAD_XREC_ROUNDTRIP
360
A987
  0
DICTIONARY
  5
A988
330
A92B
100
AcDbDictionary
280
     1
281
     1
  3
ACAD_XREC_ROUNDTRIP
360
A989
  0
DICTIONARY
  5
A8E7
330
A8E6
100
AcDbDictionary
280
     1
281
     1
  3
ACAD_XREC_ROUNDTRIP
360
A94E
  3
BUMPTILE
360
A8E9
  3
DIFFUSETILE
360
A8E8
  3
OPACITYTILE
360
A8EC
  3
REFLECTIONTILE
360
A8EB
  3
REFRACTIONTILE
360
A8ED
  3
SPECULARTILE
360
A8EA
  0
DICTIONARY
  5
A8DF
330
A8DE
100
AcDbDictionary
280
     1
281
     1
  3
ACAD_XREC_ROUNDTRIP
360
A94D
  3
BUMPTILE
360
A8E1
  3
DIFFUSETILE
360
A8E0
  3
OPACITYTILE
360
A8E4
  3
REFLECTIONTILE
360
A8E3
  3
REFRACTIONTILE
360
A8E5
  3
SPECULARTILE
360
A8E2
  0
DICTIONARY
  5
A8EF
330
A8EE
100
AcDbDictionary
280
     1
281
     1
  3
ACAD_XREC_ROUNDTRIP
360
A94F
  3
BUMPTILE
360
A8F1
  3
DIFFUSETILE
360
A8F0
  3
OPACITYTILE
360
A8F4
  3
REFLECTIONTILE
360
A8F3
  3
REFRACTIONTILE
360
A8F5
  3
SPECULARTILE
360
A8F2
  0
DICTIONARY
  5
A982
330
A927
100
AcDbDictionary
280
     1
281
     1
  3
ACAD_XREC_ROUNDTRIP
360
A983
  0
DICTIONARY
  5
A949
330
A911
100
AcDbDictionary
280
     1
281
     1
  3
ACAD_ROUNDTRIP_2008_TABLESTYLE_CELLSTYLEMAP
360
A94A
  3
ACAD_XREC_ROUNDTRIP
360
A980
  0
DICTIONARY
  5
A95A
330
A8FC
100
AcDbDictionary
280
     1
281
     1
  3
ACAD_XREC_ROUNDTRIP
360
A95B
  0
DICTIONARY
  5
A958
330
A8FB
100
AcDbDictionary
280
     1
281
     1
  3
ACAD_XREC_ROUNDTRIP
360
A959
  0
DICTIONARY
  5
A966
330
A902
100
AcDbDictionary
280
     1
281
     1
  3
ACAD_XREC_ROUNDTRIP
360
A967
  0
DICTIONARY
  5
A96E
330
A906
100
AcDbDictionary
280
     1
281
     1
  3
ACAD_XREC_ROUNDTRIP
360
A96F
  0
DICTIONARY
  5
A960
330
A8FF
100
AcDbDictionary
280
     1
281
     1
  3
ACAD_XREC_ROUNDTRIP
360
A961
  0
DICTIONARY
  5
A964
330
A901
100
AcDbDictionary
280
     1
281
     1
  3
ACAD_XREC_ROUNDTRIP
360
A965
  0
DICTIONARY
  5
A97E
330
A90E
100
AcDbDictionary
280
     1
281
     1
  3
ACAD_XREC_ROUNDTRIP
360
A97F
  0
DICTIONARY
  5
A96C
330
A905
100
AcDbDictionary
280
     1
281
     1
  3
ACAD_XREC_ROUNDTRIP
360
A96D
  0
DICTIONARY
  5
A950
330
A8F7
100
AcDbDictionary
280
     1
281
     1
  3
ACAD_XREC_ROUNDTRIP
360
A951
  0
DICTIONARY
  5
A952
330
A8F8
100
AcDbDictionary
280
     1
281
     1
  3
ACAD_XREC_ROUNDTRIP
360
A953
  0
DICTIONARY
  5
A954
330
A8F9
100
AcDbDictionary
280
     1
281
     1
  3
ACAD_XREC_ROUNDTRIP
360
A955
  0
DICTIONARY
  5
A956
330
A8FA
100
AcDbDictionary
280
     1
281
     1
  3
ACAD_XREC_ROUNDTRIP
360
A957
  0
DICTIONARY
  5
A95E
330
A8FE
100
AcDbDictionary
280
     1
281
     1
  3
ACAD_XREC_ROUNDTRIP
360
A95F
  0
DICTIONARY
  5
A97A
330
A90C
100
AcDbDictionary
280
     1
281
     1
  3
ACAD_XREC_ROUNDTRIP
360
A97B
  0
DICTIONARY
  5
A96A
330
A904
100
AcDbDictionary
280
     1
281
     1
  3
ACAD_XREC_ROUNDTRIP
360
A96B
  0
DICTIONARY
  5
A97C
330
A90D
100
AcDbDictionary
280
     1
281
     1
  3
ACAD_XREC_ROUNDTRIP
360
A97D
  0
DICTIONARY
  5
A962
330
A900
100
AcDbDictionary
280
     1
281
     1
  3
ACAD_XREC_ROUNDTRIP
360
A963
  0
DICTIONARY
  5
A978
330
A90B
100
AcDbDictionary
280
     1
281
     1
  3
ACAD_XREC_ROUNDTRIP
360
A979
  0
DICTIONARY
  5
A976
330
A90A
100
AcDbDictionary
280
     1
281
     1
  3
ACAD_XREC_ROUNDTRIP
360
A977
  0
DICTIONARY
  5
A970
330
A907
100
AcDbDictionary
280
     1
281
     1
  3
ACAD_XREC_ROUNDTRIP
360
A971
  0
DICTIONARY
  5
A972
330
A908
100
AcDbDictionary
280
     1
281
     1
  3
ACAD_XREC_ROUNDTRIP
360
A973
  0
DICTIONARY
  5
A968
330
A903
100
AcDbDictionary
280
     1
281
     1
  3
ACAD_XREC_ROUNDTRIP
360
A969
  0
DICTIONARY
  5
A95C
330
A8FD
100
AcDbDictionary
280
     1
281
     1
  3
ACAD_XREC_ROUNDTRIP
360
A95D
  0
DICTIONARY
  5
A974
330
A909
100
AcDbDictionary
280
     1
281
     1
  3
ACAD_XREC_ROUNDTRIP
360
A975
  0
XRECORD
  5
A985
102
{ACAD_REACTORS
330
A984
102
}
330
A984
100
AcDbXrecord
280
     1
102
DISPLAYNAME
  1
Imperial24
102
FLAGS
 90
        0
  0
XRECORD
  5
A987
102
{ACAD_REACTORS
330
A986
102
}
330
A986
100
AcDbXrecord
280
     1
102
SHADEPLOT
 70
     0
102
SHADEPLOTRESLEVEL
 70
     2
102
SHADEPLOTCUSTOMDPI
 70
   300
  0
XRECORD
  5
A989
102
{ACAD_REACTORS
330
A988
102
}
330
A988
100
AcDbXrecord
280
     1
102
SHADEPLOT
 70
     0
102
SHADEPLOTRESLEVEL
 70
     2
102
SHADEPLOTCUSTOMDPI
 70
   300
  0
XRECORD
  5
A94E
102
{ACAD_REACTORS
330
A8E7
102
}
330
A8E7
100
AcDbXrecord
280
     1
102
MATERIAL
148
0.0
149
0.0
149
0.0
 93
        0
 94
      127
282
     0
 72
     0
 77
     0
171
     0
175
     0
179
     0
273
     0
  0
XRECORD
  5
A8E9
102
{ACAD_REACTORS
330
A8E7
102
}
330
A8E7
100
AcDbXrecord
280
     1
270
     1
271
     1
  0
XRECORD
  5
A8E8
102
{ACAD_REACTORS
330
A8E7
102
}
330
A8E7
100
AcDbXrecord
280
     1
270
     1
271
     1
  0
XRECORD
  5
A8EC
102
{ACAD_REACTORS
330
A8E7
102
}
330
A8E7
100
AcDbXrecord
280
     1
270
     1
271
     1
  0
XRECORD
  5
A8EB
102
{ACAD_REACTORS
330
A8E7
102
}
330
A8E7
100
AcDbXrecord
280
     1
270
     1
271
     1
  0
XRECORD
  5
A8ED
102
{ACAD_REACTORS
330
A8E7
102
}
330
A8E7
100
AcDbXrecord
280
     1
270
     1
271
     1
  0
XRECORD
  5
A8EA
102
{ACAD_REACTORS
330
A8E7
102
}
330
A8E7
100
AcDbXrecord
280
     1
270
     1
271
     1
  0
XRECORD
  5
A94D
102
{ACAD_REACTORS
330
A8DF
102
}
330
A8DF
100
AcDbXrecord
280
     1
102
MATERIAL
148
0.0
149
0.0
149
0.0
 93
        0
 94
      127
282
     0
 72
     0
 77
     0
171
     0
175
     0
179
     0
273
     0
  0
XRECORD
  5
A8E1
102
{ACAD_REACTORS
330
A8DF
102
}
330
A8DF
100
AcDbXrecord
280
     1
270
     1
271
     1
  0
XRECORD
  5
A8E0
102
{ACAD_REACTORS
330
A8DF
102
}
330
A8DF
100
AcDbXrecord
280
     1
270
     1
271
     1
  0
XRECORD
  5
A8E4
102
{ACAD_REACTORS
330
A8DF
102
}
330
A8DF
100
AcDbXrecord
280
     1
270
     1
271
     1
  0
XRECORD
  5
A8E3
102
{ACAD_REACTORS
330
A8DF
102
}
330
A8DF
100
AcDbXrecord
280
     1
270
     1
271
     1
  0
XRECORD
  5
A8E5
102
{ACAD_REACTORS
330
A8DF
102
}
330
A8DF
100
AcDbXrecord
280
     1
270
     1
271
     1
  0
XRECORD
  5
A8E2
102
{ACAD_REACTORS
330
A8DF
102
}
330
A8DF
100
AcDbXrecord
280
     1
270
     1
271
     1
  0
XRECORD
  5
A94F
102
{ACAD_REACTORS
330
A8EF
102
}
330
A8EF
100
AcDbXrecord
280
     1
102
MATERIAL
148
0.0
149
0.0
149
0.0
 93
        0
 94
      127
282
     0
 72
     0
 77
     0
171
     0
175
     0
179
     0
273
     0
  0
XRECORD
  5
A8F1
102
{ACAD_REACTORS
330
A8EF
102
}
330
A8EF
100
AcDbXrecord
280
     1
270
     1
271
     1
  0
XRECORD
  5
A8F0
102
{ACAD_REACTORS
330
A8EF
102
}
330
A8EF
100
AcDbXrecord
280
     1
270
     1
271
     1
  0
XRECORD
  5
A8F4
102
{ACAD_REACTORS
330
A8EF
102
}
330
A8EF
100
AcDbXrecord
280
     1
270
     1
271
     1
  0
XRECORD
  5
A8F3
102
{ACAD_REACTORS
330
A8EF
102
}
330
A8EF
100
AcDbXrecord
280
     1
270
     1
271
     1
  0
XRECORD
  5
A8F5
102
{ACAD_REACTORS
330
A8EF
102
}
330
A8EF
100
AcDbXrecord
280
     1
270
     1
271
     1
  0
XRECORD
  5
A8F2
102
{ACAD_REACTORS
330
A8EF
102
}
330
A8EF
100
AcDbXrecord
280
     1
270
     1
271
     1
  0
XRECORD
  5
A983
102
{ACAD_REACTORS
330
A982
102
}
330
A982
100
AcDbXrecord
280
     1
102
DISPLAYNAME
  1
Imperial24
102
FLAGS
 90
        0
  0
CELLSTYLEMAP
  5
A94A
102
{ACAD_REACTORS
330
A949
102
}
330
A949
100
AcDbCellStyleMap
 90
        3
300
CELLSTYLE
  1
TABLEFORMAT_BEGIN
 90
        5
170
     1
 91
        0
 92
    32768
 62
   257
 93
        1
300
CONTENTFORMAT
  1
CONTENTFORMAT_BEGIN
 90
        0
 91
        0
 92
      512
 93
        0
300

 40
0.0
140
1.0
 94
        5
 62
     0
340
A3AD
144
0.25
309
CONTENTFORMAT_END
171
     0
 94
        0
309
TABLEFORMAT_END
  1
CELLSTYLE_BEGIN
 90
        1
 91
        1
300
_TITLE
309
CELLSTYLE_END
300
CELLSTYLE
  1
TABLEFORMAT_BEGIN
 90
        5
170
     1
 91
        0
 92
        0
 62
   257
 93
        1
300
CONTENTFORMAT
  1
CONTENTFORMAT_BEGIN
 90
        0
 91
        0
 92
      512
 93
        0
300

 40
0.0
140
1.0
 94
        5
 62
     0
340
A3AD
144
0.18
309
CONTENTFORMAT_END
171
     0
 94
        0
309
TABLEFORMAT_END
  1
CELLSTYLE_BEGIN
 90
        2
 91
        1
300
_HEADER
309
CELLSTYLE_END
300
CELLSTYLE
  1
TABLEFORMAT_BEGIN
 90
        5
170
     1
 91
        0
 92
        0
 62
   257
 93
        1
300
CONTENTFORMAT
  1
CONTENTFORMAT_BEGIN
 90
        0
 91
        0
 92
      512
 93
        0
300

 40
0.0
140
1.0
 94
        2
 62
     0
340
A3AD
144
0.18
309
CONTENTFORMAT_END
171
     0
 94
        0
309
TABLEFORMAT_END
  1
CELLSTYLE_BEGIN
 90
        3
 91
        2
300
_DATA
309
CELLSTYLE_END
  0
XRECORD
  5
A980
102
{ACAD_REACTORS
330
A949
102
}
330
A949
100
AcDbXrecord
280
     1
102
ACAD_ROUNDTRIP_PRE2007_TABLESTYLE
 90
      512
 91
        0
  1

 92
      512
 93
        0
  2

 94
      512
 95
        0
  3

  0
XRECORD
  5
A95B
102
{ACAD_REACTORS
330
A95A
102
}
330
A95A
100
AcDbXrecord
280
     1
102
RTVSPost2010Prop28
280
     1
102
RTVSPost2010PropOp28
 70
     1
102
RTVSPost2010Prop29
280
     1
102
RTVSPost2010PropOp29
 70
     1
102
RTVSPost2010Prop30
280
     0
102
RTVSPost2010PropOp30
 70
     1
102
RTVSPost2010Prop31
280
     0
102
RTVSPost2010PropOp31
 70
     1
102
RTVSPost2010Prop32
280
     0
102
RTVSPost2010PropOp32
 70
     1
102
RTVSPost2010Prop33
280
     0
102
RTVSPost2010PropOp33
 70
     1
102
RTVSPost2010Prop34
280
     0
102
RTVSPost2010PropOp34
 70
     1
102
RTVSPost2010Prop35
280
     0
102
RTVSPost2010PropOp35
 70
     1
102
RTVSPost2010Prop36
280
     0
102
RTVSPost2010PropOp36
 70
     1
102
RTVSPost2010Prop37
 90
       50
102
RTVSPost2010PropOp37
 70
     1
102
RTVSPost2010Prop38
140
0.0
102
RTVSPost2010PropOp38
 70
     1
102
RTVSPost2010Prop39
140
1.0
102
RTVSPost2010PropOp39
 70
     1
102
RTVSPost2010Prop40
 90
        0
102
RTVSPost2010PropOp40
 70
     1
102
RTVSPost2010Prop41ColorIndex
 90
       18
102
RTVSPost2010Prop41ColorRGB
 90
        0
102
RTVSPost2010PropOp41
 70
     1
102
RTVSPost2010Prop42
 90
       50
102
RTVSPost2010PropOp42
 70
     1
102
RTVSPost2010Prop43
 90
        3
102
RTVSPost2010PropOp43
 70
     1
102
RTVSPost2010Prop44ColorIndex
 90
        5
102
RTVSPost2010Prop44ColorRGB
 90
      255
102
RTVSPost2010PropOp44
 70
     1
102
RTVSPost2010Prop45
280
     0
102
RTVSPost2010PropOp45
 70
     1
102
RTVSPost2010Prop46
 90
       50
102
RTVSPost2010PropOp46
 70
     1
102
RTVSPost2010Prop47
 90
       50
102
RTVSPost2010PropOp47
 70
     1
102
RTVSPost2010Prop48
 90
       50
102
RTVSPost2010PropOp48
 70
     1
102
RTVSPost2010Prop49
280
     0
102
RTVSPost2010PropOp49
 70
     1
102
RTVSPost2010Prop50
 90
       50
102
RTVSPost2010PropOp50
 70
     1
102
RTVSPost2010Prop51ColorIndex
 90
      256
102
RTVSPost2010Prop51ColorRGB
 90
-16777216
102
RTVSPost2010PropOp51
 70
     0
102
RTVSPost2010Prop52
140
1.0
102
RTVSPost2010PropOp52
 70
     0
102
RTVSPost2010Prop53
 90
        2
102
RTVSPost2010PropOp53
 70
     1
102
RTVSPost2010Prop54
  1
strokes_ogs.tif
102
RTVSPost2010PropOp54
 70
     1
102
RTVSPost2010Prop55
280
     0
102
RTVSPost2010PropOp55
 70
     1
102
RTVSPost2010Prop56
140
1.0
102
RTVSPost2010PropOp56
 70
     1
102
RTVSPost2010Prop57
140
1.0
102
RTVSPost2010PropOp57
 70
     1
102
RTVSPropertyOp0
 70
     1
102
RTVSPropertyOp1
 70
     1
102
RTVSPropertyOp2
 70
     1
102
RTVSPropertyOp3
 70
     1
102
RTVSPropertyOp4
 70
     1
102
RTVSPropertyOp5
 70
     1
102
RTVSPropertyOp6
 70
     1
102
RTVSPropertyOp7
 70
     1
102
RTVSPropertyOp8
 70
     1
102
RTVSPropertyOp9
 70
     1
102
RTVSPropertyOp10
 70
     1
102
RTVSPropertyOp11
 70
     1
102
RTVSPropertyOp12
 70
     1
102
RTVSPropertyOp13
 70
     1
102
RTVSPropertyOp14
 70
     1
102
RTVSPropertyOp15
 70
     1
102
RTVSPropertyOp16
 70
     1
102
RTVSPropertyOp17
 70
     1
102
RTVSPropertyOp18
 70
     1
102
RTVSPropertyOp19
 70
     1
102
RTVSPropertyOp20
 70
     1
102
RTVSPropertyOp21
 70
     1
102
RTVSPropertyOp22
 70
     1
102
RTVSPropertyOp23
 70
     1
102
RTVSPropertyOp24
 70
     1
102
RTVSPropertyOp25
 70
     1
102
RTVSPropertyOp26
 70
     1
102
RTVSPropertyOp27
 70
     1
102
RTVSPropertyOp28
 70
     1
102
RTVSPropertyOp29
 70
     1
102
RTVSPropertyOp30
 70
     1
102
RTVSPropertyOp31
 70
     1
102
RTVSPropertyOp32
 70
     1
102
RTVSPropertyOp33
 70
     1
102
RTVSPropertyOp34
 70
     1
102
RTVSPropertyOp35
 70
     1
102
RTVSPropertyOp36
 70
     1
102
RTVSPropertyOp37
 70
     1
102
RTVSPropertyOp38
 70
     1
102
RTVSPropertyOp39
 70
     1
102
RTVSPropertyOp40
 70
     1
102
RTVSPropertyOp41
 70
     1
102
RTVSPropertyOp42
 70
     1
102
RTVSPropertyOp43
 70
     1
102
RTVSPropertyOp44
 70
     1
102
RTVSPropertyOp45
 70
     1
102
RTVSPropertyOp46
 70
     1
102
RTVSPropertyOp47
 70
     1
102
RTVSPropertyOp48
 70
     1
102
RTVSPropertyOp49
 70
     1
102
RTVSPropertyOp50
 70
     1
102
RTVSPropertyOp51
 70
     0
102
RTVSPropertyOp52
 70
     0
102
RTVSPropertyOp53
 70
     1
102
RTVSPropertyOp54
 70
     1
102
RTVSPropertyOp55
 70
     1
102
RTVSPropertyOp56
 70
     1
102
RTVSPropertyOp57
 70
     1
102
RTVSPropertyOp58
 70
     1
102
RTVSPropertyOp59
 70
     1
102
RTVSPropertyOp60
 70
     1
102
RTVSPropertyOp61
 70
     1
102
RTVSPropertyOp62
 70
     1
  0
XRECORD
  5
A959
102
{ACAD_REACTORS
330
A958
102
}
330
A958
100
AcDbXrecord
280
     1
102
RTVSPost2010Prop28
280
     0
102
RTVSPost2010PropOp28
 70
     1
102
RTVSPost2010Prop29
280
     1
102
RTVSPost2010PropOp29
 70
     1
102
RTVSPost2010Prop30
280
     1
102
RTVSPost2010PropOp30
 70
     1
102
RTVSPost2010Prop31
280
     0
102
RTVSPost2010PropOp31
 70
     1
102
RTVSPost2010Prop32
280
     0
102
RTVSPost2010PropOp32
 70
     1
102
RTVSPost2010Prop33
280
     0
102
RTVSPost2010PropOp33
 70
     1
102
RTVSPost2010Prop34
280
     0
102
RTVSPost2010PropOp34
 70
     1
102
RTVSPost2010Prop35
280
     0
102
RTVSPost2010PropOp35
 70
     1
102
RTVSPost2010Prop36
280
     0
102
RTVSPost2010PropOp36
 70
     1
102
RTVSPost2010Prop37
 90
       50
102
RTVSPost2010PropOp37
 70
     1
102
RTVSPost2010Prop38
140
0.0
102
RTVSPost2010PropOp38
 70
     1
102
RTVSPost2010Prop39
140
1.0
102
RTVSPost2010PropOp39
 70
     1
102
RTVSPost2010Prop40
 90
        0
102
RTVSPost2010PropOp40
 70
     1
102
RTVSPost2010Prop41ColorIndex
 90
       18
102
RTVSPost2010Prop41ColorRGB
 90
        0
102
RTVSPost2010PropOp41
 70
     1
102
RTVSPost2010Prop42
 90
       50
102
RTVSPost2010PropOp42
 70
     1
102
RTVSPost2010Prop43
 90
        3
102
RTVSPost2010PropOp43
 70
     1
102
RTVSPost2010Prop44ColorIndex
 90
        5
102
RTVSPost2010Prop44ColorRGB
 90
      255
102
RTVSPost2010PropOp44
 70
     1
102
RTVSPost2010Prop45
280
     0
102
RTVSPost2010PropOp45
 70
     1
102
RTVSPost2010Prop46
 90
       50
102
RTVSPost2010PropOp46
 70
     1
102
RTVSPost2010Prop47
 90
       50
102
RTVSPost2010PropOp47
 70
     1
102
RTVSPost2010Prop48
 90
       50
102
RTVSPost2010PropOp48
 70
     1
102
RTVSPost2010Prop49
280
     0
102
RTVSPost2010PropOp49
 70
     1
102
RTVSPost2010Prop50
 90
       50
102
RTVSPost2010PropOp50
 70
     1
102
RTVSPost2010Prop51ColorIndex
 90
      256
102
RTVSPost2010Prop51ColorRGB
 90
-16777216
102
RTVSPost2010PropOp51
 70
     0
102
RTVSPost2010Prop52
140
1.0
102
RTVSPost2010PropOp52
 70
     0
102
RTVSPost2010Prop53
 90
        2
102
RTVSPost2010PropOp53
 70
     1
102
RTVSPost2010Prop54
  1
strokes_ogs.tif
102
RTVSPost2010PropOp54
 70
     1
102
RTVSPost2010Prop55
280
     0
102
RTVSPost2010PropOp55
 70
     1
102
RTVSPost2010Prop56
140
1.0
102
RTVSPost2010PropOp56
 70
     1
102
RTVSPost2010Prop57
140
1.0
102
RTVSPost2010PropOp57
 70
     1
102
RTVSPropertyOp0
 70
     1
102
RTVSPropertyOp1
 70
     1
102
RTVSPropertyOp2
 70
     1
102
RTVSPropertyOp3
 70
     1
102
RTVSPropertyOp4
 70
     1
102
RTVSPropertyOp5
 70
     1
102
RTVSPropertyOp6
 70
     1
102
RTVSPropertyOp7
 70
     1
102
RTVSPropertyOp8
 70
     1
102
RTVSPropertyOp9
 70
     1
102
RTVSPropertyOp10
 70
     1
102
RTVSPropertyOp11
 70
     1
102
RTVSPropertyOp12
 70
     1
102
RTVSPropertyOp13
 70
     1
102
RTVSPropertyOp14
 70
     1
102
RTVSPropertyOp15
 70
     1
102
RTVSPropertyOp16
 70
     1
102
RTVSPropertyOp17
 70
     1
102
RTVSPropertyOp18
 70
     1
102
RTVSPropertyOp19
 70
     1
102
RTVSPropertyOp20
 70
     1
102
RTVSPropertyOp21
 70
     1
102
RTVSPropertyOp22
 70
     1
102
RTVSPropertyOp23
 70
     1
102
RTVSPropertyOp24
 70
     1
102
RTVSPropertyOp25
 70
     1
102
RTVSPropertyOp26
 70
     1
102
RTVSPropertyOp27
 70
     1
102
RTVSPropertyOp28
 70
     1
102
RTVSPropertyOp29
 70
     1
102
RTVSPropertyOp30
 70
     1
102
RTVSPropertyOp31
 70
     1
102
RTVSPropertyOp32
 70
     1
102
RTVSPropertyOp33
 70
     1
102
RTVSPropertyOp34
 70
     1
102
RTVSPropertyOp35
 70
     1
102
RTVSPropertyOp36
 70
     1
102
RTVSPropertyOp37
 70
     1
102
RTVSPropertyOp38
 70
     1
102
RTVSPropertyOp39
 70
     1
102
RTVSPropertyOp40
 70
     1
102
RTVSPropertyOp41
 70
     1
102
RTVSPropertyOp42
 70
     1
102
RTVSPropertyOp43
 70
     1
102
RTVSPropertyOp44
 70
     1
102
RTVSPropertyOp45
 70
     1
102
RTVSPropertyOp46
 70
     1
102
RTVSPropertyOp47
 70
     1
102
RTVSPropertyOp48
 70
     1
102
RTVSPropertyOp49
 70
     1
102
RTVSPropertyOp50
 70
     1
102
RTVSPropertyOp51
 70
     0
102
RTVSPropertyOp52
 70
     0
102
RTVSPropertyOp53
 70
     1
102
RTVSPropertyOp54
 70
     1
102
RTVSPropertyOp55
 70
     1
102
RTVSPropertyOp56
 70
     1
102
RTVSPropertyOp57
 70
     1
102
RTVSPropertyOp58
 70
     1
102
RTVSPropertyOp59
 70
     1
102
RTVSPropertyOp60
 70
     1
102
RTVSPropertyOp61
 70
     1
102
RTVSPropertyOp62
 70
     1
  0
XRECORD
  5
A967
102
{ACAD_REACTORS
330
A966
102
}
330
A966
100
AcDbXrecord
280
     1
102
RTVSPost2010Prop28
280
     0
102
RTVSPost2010PropOp28
 70
     1
102
RTVSPost2010Prop29
280
     1
102
RTVSPost2010PropOp29
 70
     1
102
RTVSPost2010Prop30
280
     1
102
RTVSPost2010PropOp30
 70
     1
102
RTVSPost2010Prop31
280
     0
102
RTVSPost2010PropOp31
 70
     1
102
RTVSPost2010Prop32
280
     0
102
RTVSPost2010PropOp32
 70
     1
102
RTVSPost2010Prop33
280
     0
102
RTVSPost2010PropOp33
 70
     1
102
RTVSPost2010Prop34
280
     0
102
RTVSPost2010PropOp34
 70
     1
102
RTVSPost2010Prop35
280
     0
102
RTVSPost2010PropOp35
 70
     1
102
RTVSPost2010Prop36
280
     0
102
RTVSPost2010PropOp36
 70
     1
102
RTVSPost2010Prop37
 90
       50
102
RTVSPost2010PropOp37
 70
     1
102
RTVSPost2010Prop38
140
0.0
102
RTVSPost2010PropOp38
 70
     1
102
RTVSPost2010Prop39
140
1.0
102
RTVSPost2010PropOp39
 70
     1
102
RTVSPost2010Prop40
 90
        0
102
RTVSPost2010PropOp40
 70
     1
102
RTVSPost2010Prop41ColorIndex
 90
       18
102
RTVSPost2010Prop41ColorRGB
 90
        0
102
RTVSPost2010PropOp41
 70
     1
102
RTVSPost2010Prop42
 90
       50
102
RTVSPost2010PropOp42
 70
     1
102
RTVSPost2010Prop43
 90
        3
102
RTVSPost2010PropOp43
 70
     1
102
RTVSPost2010Prop44ColorIndex
 90
        5
102
RTVSPost2010Prop44ColorRGB
 90
      255
102
RTVSPost2010PropOp44
 70
     1
102
RTVSPost2010Prop45
280
     0
102
RTVSPost2010PropOp45
 70
     1
102
RTVSPost2010Prop46
 90
       50
102
RTVSPost2010PropOp46
 70
     1
102
RTVSPost2010Prop47
 90
       50
102
RTVSPost2010PropOp47
 70
     1
102
RTVSPost2010Prop48
 90
       50
102
RTVSPost2010PropOp48
 70
     1
102
RTVSPost2010Prop49
280
     0
102
RTVSPost2010PropOp49
 70
     1
102
RTVSPost2010Prop50
 90
       50
102
RTVSPost2010PropOp50
 70
     1
102
RTVSPost2010Prop51ColorIndex
 90
      256
102
RTVSPost2010Prop51ColorRGB
 90
-16777216
102
RTVSPost2010PropOp51
 70
     0
102
RTVSPost2010Prop52
140
1.0
102
RTVSPost2010PropOp52
 70
     0
102
RTVSPost2010Prop53
 90
        2
102
RTVSPost2010PropOp53
 70
     1
102
RTVSPost2010Prop54
  1
strokes_ogs.tif
102
RTVSPost2010PropOp54
 70
     1
102
RTVSPost2010Prop55
280
     0
102
RTVSPost2010PropOp55
 70
     1
102
RTVSPost2010Prop56
140
1.0
102
RTVSPost2010PropOp56
 70
     1
102
RTVSPost2010Prop57
140
1.0
102
RTVSPost2010PropOp57
 70
     1
102
RTVSPropertyOp0
 70
     1
102
RTVSPropertyOp1
 70
     1
102
RTVSPropertyOp2
 70
     1
102
RTVSPropertyOp3
 70
     1
102
RTVSPropertyOp4
 70
     1
102
RTVSPropertyOp5
 70
     1
102
RTVSPropertyOp6
 70
     1
102
RTVSPropertyOp7
 70
     1
102
RTVSPropertyOp8
 70
     1
102
RTVSPropertyOp9
 70
     1
102
RTVSPropertyOp10
 70
     1
102
RTVSPropertyOp11
 70
     1
102
RTVSPropertyOp12
 70
     1
102
RTVSPropertyOp13
 70
     1
102
RTVSPropertyOp14
 70
     1
102
RTVSPropertyOp15
 70
     1
102
RTVSPropertyOp16
 70
     1
102
RTVSPropertyOp17
 70
     1
102
RTVSPropertyOp18
 70
     1
102
RTVSPropertyOp19
 70
     1
102
RTVSPropertyOp20
 70
     1
102
RTVSPropertyOp21
 70
     1
102
RTVSPropertyOp22
 70
     1
102
RTVSPropertyOp23
 70
     1
102
RTVSPropertyOp24
 70
     1
102
RTVSPropertyOp25
 70
     1
102
RTVSPropertyOp26
 70
     1
102
RTVSPropertyOp27
 70
     1
102
RTVSPropertyOp28
 70
     1
102
RTVSPropertyOp29
 70
     1
102
RTVSPropertyOp30
 70
     1
102
RTVSPropertyOp31
 70
     1
102
RTVSPropertyOp32
 70
     1
102
RTVSPropertyOp33
 70
     1
102
RTVSPropertyOp34
 70
     1
102
RTVSPropertyOp35
 70
     1
102
RTVSPropertyOp36
 70
     1
102
RTVSPropertyOp37
 70
     1
102
RTVSPropertyOp38
 70
     1
102
RTVSPropertyOp39
 70
     1
102
RTVSPropertyOp40
 70
     1
102
RTVSPropertyOp41
 70
     1
102
RTVSPropertyOp42
 70
     1
102
RTVSPropertyOp43
 70
     1
102
RTVSPropertyOp44
 70
     1
102
RTVSPropertyOp45
 70
     1
102
RTVSPropertyOp46
 70
     1
102
RTVSPropertyOp47
 70
     1
102
RTVSPropertyOp48
 70
     1
102
RTVSPropertyOp49
 70
     1
102
RTVSPropertyOp50
 70
     1
102
RTVSPropertyOp51
 70
     0
102
RTVSPropertyOp52
 70
     0
102
RTVSPropertyOp53
 70
     1
102
RTVSPropertyOp54
 70
     1
102
RTVSPropertyOp55
 70
     1
102
RTVSPropertyOp56
 70
     1
102
RTVSPropertyOp57
 70
     1
102
RTVSPropertyOp58
 70
     1
102
RTVSPropertyOp59
 70
     1
102
RTVSPropertyOp60
 70
     1
102
RTVSPropertyOp61
 70
     1
102
RTVSPropertyOp62
 70
     1
  0
XRECORD
  5
A96F
102
{ACAD_REACTORS
330
A96E
102
}
330
A96E
100
AcDbXrecord
280
     1
102
RTVSPost2010Prop28
280
     0
102
RTVSPost2010PropOp28
 70
     1
102
RTVSPost2010Prop29
280
     1
102
RTVSPost2010PropOp29
 70
     1
102
RTVSPost2010Prop30
280
     1
102
RTVSPost2010PropOp30
 70
     1
102
RTVSPost2010Prop31
280
     0
102
RTVSPost2010PropOp31
 70
     1
102
RTVSPost2010Prop32
280
     0
102
RTVSPost2010PropOp32
 70
     1
102
RTVSPost2010Prop33
280
     0
102
RTVSPost2010PropOp33
 70
     1
102
RTVSPost2010Prop34
280
     0
102
RTVSPost2010PropOp34
 70
     1
102
RTVSPost2010Prop35
280
     0
102
RTVSPost2010PropOp35
 70
     1
102
RTVSPost2010Prop36
280
     0
102
RTVSPost2010PropOp36
 70
     1
102
RTVSPost2010Prop37
 90
       50
102
RTVSPost2010PropOp37
 70
     1
102
RTVSPost2010Prop38
140
0.0
102
RTVSPost2010PropOp38
 70
     1
102
RTVSPost2010Prop39
140
1.0
102
RTVSPost2010PropOp39
 70
     1
102
RTVSPost2010Prop40
 90
        0
102
RTVSPost2010PropOp40
 70
     1
102
RTVSPost2010Prop41ColorIndex
 90
       18
102
RTVSPost2010Prop41ColorRGB
 90
        0
102
RTVSPost2010PropOp41
 70
     1
102
RTVSPost2010Prop42
 90
       50
102
RTVSPost2010PropOp42
 70
     1
102
RTVSPost2010Prop43
 90
        3
102
RTVSPost2010PropOp43
 70
     1
102
RTVSPost2010Prop44ColorIndex
 90
        5
102
RTVSPost2010Prop44ColorRGB
 90
      255
102
RTVSPost2010PropOp44
 70
     1
102
RTVSPost2010Prop45
280
     0
102
RTVSPost2010PropOp45
 70
     1
102
RTVSPost2010Prop46
 90
       50
102
RTVSPost2010PropOp46
 70
     1
102
RTVSPost2010Prop47
 90
       50
102
RTVSPost2010PropOp47
 70
     1
102
RTVSPost2010Prop48
 90
       50
102
RTVSPost2010PropOp48
 70
     1
102
RTVSPost2010Prop49
280
     0
102
RTVSPost2010PropOp49
 70
     1
102
RTVSPost2010Prop50
 90
       50
102
RTVSPost2010PropOp50
 70
     1
102
RTVSPost2010Prop51ColorIndex
 90
      256
102
RTVSPost2010Prop51ColorRGB
 90
-16777216
102
RTVSPost2010PropOp51
 70
     0
102
RTVSPost2010Prop52
140
1.0
102
RTVSPost2010PropOp52
 70
     0
102
RTVSPost2010Prop53
 90
        2
102
RTVSPost2010PropOp53
 70
     1
102
RTVSPost2010Prop54
  1
strokes_ogs.tif
102
RTVSPost2010PropOp54
 70
     1
102
RTVSPost2010Prop55
280
     0
102
RTVSPost2010PropOp55
 70
     1
102
RTVSPost2010Prop56
140
1.0
102
RTVSPost2010PropOp56
 70
     1
102
RTVSPost2010Prop57
140
1.0
102
RTVSPost2010PropOp57
 70
     1
102
RTVSPropertyOp0
 70
     1
102
RTVSPropertyOp1
 70
     1
102
RTVSPropertyOp2
 70
     1
102
RTVSPropertyOp3
 70
     1
102
RTVSPropertyOp4
 70
     1
102
RTVSPropertyOp5
 70
     1
102
RTVSPropertyOp6
 70
     1
102
RTVSPropertyOp7
 70
     1
102
RTVSPropertyOp8
 70
     1
102
RTVSPropertyOp9
 70
     1
102
RTVSPropertyOp10
 70
     1
102
RTVSPropertyOp11
 70
     1
102
RTVSPropertyOp12
 70
     1
102
RTVSPropertyOp13
 70
     1
102
RTVSPropertyOp14
 70
     1
102
RTVSPropertyOp15
 70
     1
102
RTVSPropertyOp16
 70
     1
102
RTVSPropertyOp17
 70
     1
102
RTVSPropertyOp18
 70
     1
102
RTVSPropertyOp19
 70
     1
102
RTVSPropertyOp20
 70
     1
102
RTVSPropertyOp21
 70
     1
102
RTVSPropertyOp22
 70
     1
102
RTVSPropertyOp23
 70
     1
102
RTVSPropertyOp24
 70
     1
102
RTVSPropertyOp25
 70
     1
102
RTVSPropertyOp26
 70
     1
102
RTVSPropertyOp27
 70
     1
102
RTVSPropertyOp28
 70
     1
102
RTVSPropertyOp29
 70
     1
102
RTVSPropertyOp30
 70
     1
102
RTVSPropertyOp31
 70
     1
102
RTVSPropertyOp32
 70
     1
102
RTVSPropertyOp33
 70
     1
102
RTVSPropertyOp34
 70
     1
102
RTVSPropertyOp35
 70
     1
102
RTVSPropertyOp36
 70
     1
102
RTVSPropertyOp37
 70
     1
102
RTVSPropertyOp38
 70
     1
102
RTVSPropertyOp39
 70
     1
102
RTVSPropertyOp40
 70
     1
102
RTVSPropertyOp41
 70
     1
102
RTVSPropertyOp42
 70
     1
102
RTVSPropertyOp43
 70
     1
102
RTVSPropertyOp44
 70
     1
102
RTVSPropertyOp45
 70
     1
102
RTVSPropertyOp46
 70
     1
102
RTVSPropertyOp47
 70
     1
102
RTVSPropertyOp48
 70
     1
102
RTVSPropertyOp49
 70
     1
102
RTVSPropertyOp50
 70
     1
102
RTVSPropertyOp51
 70
     0
102
RTVSPropertyOp52
 70
     0
102
RTVSPropertyOp53
 70
     1
102
RTVSPropertyOp54
 70
     1
102
RTVSPropertyOp55
 70
     1
102
RTVSPropertyOp56
 70
     1
102
RTVSPropertyOp57
 70
     1
102
RTVSPropertyOp58
 70
     1
102
RTVSPropertyOp59
 70
     1
102
RTVSPropertyOp60
 70
     1
102
RTVSPropertyOp61
 70
     1
102
RTVSPropertyOp62
 70
     1
  0
XRECORD
  5
A961
102
{ACAD_REACTORS
330
A960
102
}
330
A960
100
AcDbXrecord
280
     1
102
RTVSPost2010Prop28
280
     0
102
RTVSPost2010PropOp28
 70
     1
102
RTVSPost2010Prop29
280
     1
102
RTVSPost2010PropOp29
 70
     1
102
RTVSPost2010Prop30
280
     1
102
RTVSPost2010PropOp30
 70
     1
102
RTVSPost2010Prop31
280
     0
102
RTVSPost2010PropOp31
 70
     1
102
RTVSPost2010Prop32
280
     0
102
RTVSPost2010PropOp32
 70
     1
102
RTVSPost2010Prop33
280
     0
102
RTVSPost2010PropOp33
 70
     1
102
RTVSPost2010Prop34
280
     0
102
RTVSPost2010PropOp34
 70
     1
102
RTVSPost2010Prop35
280
     0
102
RTVSPost2010PropOp35
 70
     1
102
RTVSPost2010Prop36
280
     0
102
RTVSPost2010PropOp36
 70
     1
102
RTVSPost2010Prop37
 90
       50
102
RTVSPost2010PropOp37
 70
     1
102
RTVSPost2010Prop38
140
0.0
102
RTVSPost2010PropOp38
 70
     1
102
RTVSPost2010Prop39
140
1.0
102
RTVSPost2010PropOp39
 70
     1
102
RTVSPost2010Prop40
 90
        0
102
RTVSPost2010PropOp40
 70
     1
102
RTVSPost2010Prop41ColorIndex
 90
       18
102
RTVSPost2010Prop41ColorRGB
 90
        0
102
RTVSPost2010PropOp41
 70
     1
102
RTVSPost2010Prop42
 90
       50
102
RTVSPost2010PropOp42
 70
     1
102
RTVSPost2010Prop43
 90
        3
102
RTVSPost2010PropOp43
 70
     1
102
RTVSPost2010Prop44ColorIndex
 90
        5
102
RTVSPost2010Prop44ColorRGB
 90
      255
102
RTVSPost2010PropOp44
 70
     1
102
RTVSPost2010Prop45
280
     0
102
RTVSPost2010PropOp45
 70
     1
102
RTVSPost2010Prop46
 90
       50
102
RTVSPost2010PropOp46
 70
     1
102
RTVSPost2010Prop47
 90
       50
102
RTVSPost2010PropOp47
 70
     1
102
RTVSPost2010Prop48
 90
       50
102
RTVSPost2010PropOp48
 70
     1
102
RTVSPost2010Prop49
280
     0
102
RTVSPost2010PropOp49
 70
     1
102
RTVSPost2010Prop50
 90
       50
102
RTVSPost2010PropOp50
 70
     1
102
RTVSPost2010Prop51ColorIndex
 90
      256
102
RTVSPost2010Prop51ColorRGB
 90
-16777216
102
RTVSPost2010PropOp51
 70
     0
102
RTVSPost2010Prop52
140
1.0
102
RTVSPost2010PropOp52
 70
     0
102
RTVSPost2010Prop53
 90
        2
102
RTVSPost2010PropOp53
 70
     1
102
RTVSPost2010Prop54
  1
strokes_ogs.tif
102
RTVSPost2010PropOp54
 70
     1
102
RTVSPost2010Prop55
280
     0
102
RTVSPost2010PropOp55
 70
     1
102
RTVSPost2010Prop56
140
1.0
102
RTVSPost2010PropOp56
 70
     1
102
RTVSPost2010Prop57
140
1.0
102
RTVSPost2010PropOp57
 70
     1
102
RTVSPropertyOp0
 70
     1
102
RTVSPropertyOp1
 70
     1
102
RTVSPropertyOp2
 70
     1
102
RTVSPropertyOp3
 70
     1
102
RTVSPropertyOp4
 70
     1
102
RTVSPropertyOp5
 70
     1
102
RTVSPropertyOp6
 70
     1
102
RTVSPropertyOp7
 70
     1
102
RTVSPropertyOp8
 70
     1
102
RTVSPropertyOp9
 70
     1
102
RTVSPropertyOp10
 70
     1
102
RTVSPropertyOp11
 70
     1
102
RTVSPropertyOp12
 70
     1
102
RTVSPropertyOp13
 70
     1
102
RTVSPropertyOp14
 70
     1
102
RTVSPropertyOp15
 70
     1
102
RTVSPropertyOp16
 70
     1
102
RTVSPropertyOp17
 70
     1
102
RTVSPropertyOp18
 70
     1
102
RTVSPropertyOp19
 70
     1
102
RTVSPropertyOp20
 70
     1
102
RTVSPropertyOp21
 70
     1
102
RTVSPropertyOp22
 70
     1
102
RTVSPropertyOp23
 70
     1
102
RTVSPropertyOp24
 70
     1
102
RTVSPropertyOp25
 70
     1
102
RTVSPropertyOp26
 70
     1
102
RTVSPropertyOp27
 70
     1
102
RTVSPropertyOp28
 70
     1
102
RTVSPropertyOp29
 70
     1
102
RTVSPropertyOp30
 70
     1
102
RTVSPropertyOp31
 70
     1
102
RTVSPropertyOp32
 70
     1
102
RTVSPropertyOp33
 70
     1
102
RTVSPropertyOp34
 70
     1
102
RTVSPropertyOp35
 70
     1
102
RTVSPropertyOp36
 70
     1
102
RTVSPropertyOp37
 70
     1
102
RTVSPropertyOp38
 70
     1
102
RTVSPropertyOp39
 70
     1
102
RTVSPropertyOp40
 70
     1
102
RTVSPropertyOp41
 70
     1
102
RTVSPropertyOp42
 70
     1
102
RTVSPropertyOp43
 70
     1
102
RTVSPropertyOp44
 70
     1
102
RTVSPropertyOp45
 70
     1
102
RTVSPropertyOp46
 70
     1
102
RTVSPropertyOp47
 70
     1
102
RTVSPropertyOp48
 70
     1
102
RTVSPropertyOp49
 70
     1
102
RTVSPropertyOp50
 70
     1
102
RTVSPropertyOp51
 70
     0
102
RTVSPropertyOp52
 70
     0
102
RTVSPropertyOp53
 70
     1
102
RTVSPropertyOp54
 70
     1
102
RTVSPropertyOp55
 70
     1
102
RTVSPropertyOp56
 70
     1
102
RTVSPropertyOp57
 70
     1
102
RTVSPropertyOp58
 70
     1
102
RTVSPropertyOp59
 70
     1
102
RTVSPropertyOp60
 70
     1
102
RTVSPropertyOp61
 70
     1
102
RTVSPropertyOp62
 70
     1
  0
XRECORD
  5
A965
102
{ACAD_REACTORS
330
A964
102
}
330
A964
100
AcDbXrecord
280
     1
102
RTVSPost2010Prop28
280
     0
102
RTVSPost2010PropOp28
 70
     1
102
RTVSPost2010Prop29
280
     1
102
RTVSPost2010PropOp29
 70
     1
102
RTVSPost2010Prop30
280
     1
102
RTVSPost2010PropOp30
 70
     1
102
RTVSPost2010Prop31
280
     0
102
RTVSPost2010PropOp31
 70
     1
102
RTVSPost2010Prop32
280
     0
102
RTVSPost2010PropOp32
 70
     1
102
RTVSPost2010Prop33
280
     0
102
RTVSPost2010PropOp33
 70
     1
102
RTVSPost2010Prop34
280
     0
102
RTVSPost2010PropOp34
 70
     1
102
RTVSPost2010Prop35
280
     0
102
RTVSPost2010PropOp35
 70
     1
102
RTVSPost2010Prop36
280
     0
102
RTVSPost2010PropOp36
 70
     1
102
RTVSPost2010Prop37
 90
       50
102
RTVSPost2010PropOp37
 70
     1
102
RTVSPost2010Prop38
140
0.0
102
RTVSPost2010PropOp38
 70
     1
102
RTVSPost2010Prop39
140
1.0
102
RTVSPost2010PropOp39
 70
     1
102
RTVSPost2010Prop40
 90
        0
102
RTVSPost2010PropOp40
 70
     1
102
RTVSPost2010Prop41ColorIndex
 90
       18
102
RTVSPost2010Prop41ColorRGB
 90
        0
102
RTVSPost2010PropOp41
 70
     1
102
RTVSPost2010Prop42
 90
       50
102
RTVSPost2010PropOp42
 70
     1
102
RTVSPost2010Prop43
 90
        3
102
RTVSPost2010PropOp43
 70
     1
102
RTVSPost2010Prop44ColorIndex
 90
        5
102
RTVSPost2010Prop44ColorRGB
 90
      255
102
RTVSPost2010PropOp44
 70
     1
102
RTVSPost2010Prop45
280
     0
102
RTVSPost2010PropOp45
 70
     1
102
RTVSPost2010Prop46
 90
       50
102
RTVSPost2010PropOp46
 70
     1
102
RTVSPost2010Prop47
 90
       50
102
RTVSPost2010PropOp47
 70
     1
102
RTVSPost2010Prop48
 90
       50
102
RTVSPost2010PropOp48
 70
     1
102
RTVSPost2010Prop49
280
     0
102
RTVSPost2010PropOp49
 70
     1
102
RTVSPost2010Prop50
 90
       50
102
RTVSPost2010PropOp50
 70
     1
102
RTVSPost2010Prop51ColorIndex
 90
      256
102
RTVSPost2010Prop51ColorRGB
 90
-16777216
102
RTVSPost2010PropOp51
 70
     0
102
RTVSPost2010Prop52
140
1.0
102
RTVSPost2010PropOp52
 70
     0
102
RTVSPost2010Prop53
 90
        2
102
RTVSPost2010PropOp53
 70
     1
102
RTVSPost2010Prop54
  1
strokes_ogs.tif
102
RTVSPost2010PropOp54
 70
     1
102
RTVSPost2010Prop55
280
     0
102
RTVSPost2010PropOp55
 70
     1
102
RTVSPost2010Prop56
140
1.0
102
RTVSPost2010PropOp56
 70
     1
102
RTVSPost2010Prop57
140
1.0
102
RTVSPost2010PropOp57
 70
     1
102
RTVSPropertyOp0
 70
     1
102
RTVSPropertyOp1
 70
     1
102
RTVSPropertyOp2
 70
     1
102
RTVSPropertyOp3
 70
     1
102
RTVSPropertyOp4
 70
     1
102
RTVSPropertyOp5
 70
     1
102
RTVSPropertyOp6
 70
     1
102
RTVSPropertyOp7
 70
     1
102
RTVSPropertyOp8
 70
     1
102
RTVSPropertyOp9
 70
     1
102
RTVSPropertyOp10
 70
     1
102
RTVSPropertyOp11
 70
     1
102
RTVSPropertyOp12
 70
     1
102
RTVSPropertyOp13
 70
     1
102
RTVSPropertyOp14
 70
     1
102
RTVSPropertyOp15
 70
     1
102
RTVSPropertyOp16
 70
     1
102
RTVSPropertyOp17
 70
     1
102
RTVSPropertyOp18
 70
     1
102
RTVSPropertyOp19
 70
     1
102
RTVSPropertyOp20
 70
     1
102
RTVSPropertyOp21
 70
     1
102
RTVSPropertyOp22
 70
     1
102
RTVSPropertyOp23
 70
     1
102
RTVSPropertyOp24
 70
     1
102
RTVSPropertyOp25
 70
     1
102
RTVSPropertyOp26
 70
     1
102
RTVSPropertyOp27
 70
     1
102
RTVSPropertyOp28
 70
     1
102
RTVSPropertyOp29
 70
     1
102
RTVSPropertyOp30
 70
     1
102
RTVSPropertyOp31
 70
     1
102
RTVSPropertyOp32
 70
     1
102
RTVSPropertyOp33
 70
     1
102
RTVSPropertyOp34
 70
     1
102
RTVSPropertyOp35
 70
     1
102
RTVSPropertyOp36
 70
     1
102
RTVSPropertyOp37
 70
     1
102
RTVSPropertyOp38
 70
     1
102
RTVSPropertyOp39
 70
     1
102
RTVSPropertyOp40
 70
     1
102
RTVSPropertyOp41
 70
     1
102
RTVSPropertyOp42
 70
     1
102
RTVSPropertyOp43
 70
     1
102
RTVSPropertyOp44
 70
     1
102
RTVSPropertyOp45
 70
     1
102
RTVSPropertyOp46
 70
     1
102
RTVSPropertyOp47
 70
     1
102
RTVSPropertyOp48
 70
     1
102
RTVSPropertyOp49
 70
     1
102
RTVSPropertyOp50
 70
     1
102
RTVSPropertyOp51
 70
     0
102
RTVSPropertyOp52
 70
     0
102
RTVSPropertyOp53
 70
     1
102
RTVSPropertyOp54
 70
     1
102
RTVSPropertyOp55
 70
     1
102
RTVSPropertyOp56
 70
     1
102
RTVSPropertyOp57
 70
     1
102
RTVSPropertyOp58
 70
     1
102
RTVSPropertyOp59
 70
     1
102
RTVSPropertyOp60
 70
     1
102
RTVSPropertyOp61
 70
     1
102
RTVSPropertyOp62
 70
     1
  0
XRECORD
  5
A97F
102
{ACAD_REACTORS
330
A97E
102
}
330
A97E
100
AcDbXrecord
280
     1
102
RTVSPost2010Prop28
280
     0
102
RTVSPost2010PropOp28
 70
     1
102
RTVSPost2010Prop29
280
     1
102
RTVSPost2010PropOp29
 70
     1
102
RTVSPost2010Prop30
280
     1
102
RTVSPost2010PropOp30
 70
     1
102
RTVSPost2010Prop31
280
     0
102
RTVSPost2010PropOp31
 70
     1
102
RTVSPost2010Prop32
280
     0
102
RTVSPost2010PropOp32
 70
     1
102
RTVSPost2010Prop33
280
     0
102
RTVSPost2010PropOp33
 70
     1
102
RTVSPost2010Prop34
280
     0
102
RTVSPost2010PropOp34
 70
     1
102
RTVSPost2010Prop35
280
     0
102
RTVSPost2010PropOp35
 70
     1
102
RTVSPost2010Prop36
280
     0
102
RTVSPost2010PropOp36
 70
     1
102
RTVSPost2010Prop37
 90
       50
102
RTVSPost2010PropOp37
 70
     0
102
RTVSPost2010Prop38
140
0.0
102
RTVSPost2010PropOp38
 70
     0
102
RTVSPost2010Prop39
140
1.0
102
RTVSPost2010PropOp39
 70
     0
102
RTVSPost2010Prop40
 90
        0
102
RTVSPost2010PropOp40
 70
     0
102
RTVSPost2010Prop41ColorIndex
 90
       18
102
RTVSPost2010Prop41ColorRGB
 90
        0
102
RTVSPost2010PropOp41
 70
     0
102
RTVSPost2010Prop42
 90
       50
102
RTVSPost2010PropOp42
 70
     0
102
RTVSPost2010Prop43
 90
        3
102
RTVSPost2010PropOp43
 70
     0
102
RTVSPost2010Prop44ColorIndex
 90
        5
102
RTVSPost2010Prop44ColorRGB
 90
      255
102
RTVSPost2010PropOp44
 70
     0
102
RTVSPost2010Prop45
280
     0
102
RTVSPost2010PropOp45
 70
     1
102
RTVSPost2010Prop46
 90
       50
102
RTVSPost2010PropOp46
 70
     0
102
RTVSPost2010Prop47
 90
       50
102
RTVSPost2010PropOp47
 70
     0
102
RTVSPost2010Prop48
 90
       50
102
RTVSPost2010PropOp48
 70
     0
102
RTVSPost2010Prop49
280
     0
102
RTVSPost2010PropOp49
 70
     1
102
RTVSPost2010Prop50
 90
       50
102
RTVSPost2010PropOp50
 70
     0
102
RTVSPost2010Prop51ColorIndex
 90
      256
102
RTVSPost2010Prop51ColorRGB
 90
-16777216
102
RTVSPost2010PropOp51
 70
     0
102
RTVSPost2010Prop52
140
1.0
102
RTVSPost2010PropOp52
 70
     0
102
RTVSPost2010Prop53
 90
        2
102
RTVSPost2010PropOp53
 70
     0
102
RTVSPost2010Prop54
  1
strokes_ogs.tif
102
RTVSPost2010PropOp54
 70
     0
102
RTVSPost2010Prop55
280
     0
102
RTVSPost2010PropOp55
 70
     1
102
RTVSPost2010Prop56
140
1.0
102
RTVSPost2010PropOp56
 70
     0
102
RTVSPost2010Prop57
140
1.0
102
RTVSPost2010PropOp57
 70
     0
102
RTVSPropertyOp0
 70
     0
102
RTVSPropertyOp1
 70
     0
102
RTVSPropertyOp2
 70
     0
102
RTVSPropertyOp3
 70
     0
102
RTVSPropertyOp4
 70
     0
102
RTVSPropertyOp5
 70
     0
102
RTVSPropertyOp6
 70
     0
102
RTVSPropertyOp7
 70
     0
102
RTVSPropertyOp8
 70
     0
102
RTVSPropertyOp9
 70
     0
102
RTVSPropertyOp10
 70
     0
102
RTVSPropertyOp11
 70
     0
102
RTVSPropertyOp12
 70
     0
102
RTVSPropertyOp13
 70
     0
102
RTVSPropertyOp14
 70
     2
102
RTVSPropertyOp15
 70
     0
102
RTVSPropertyOp16
 70
     0
102
RTVSPropertyOp17
 70
     0
102
RTVSPropertyOp18
 70
     0
102
RTVSPropertyOp19
 70
     0
102
RTVSPropertyOp20
 70
     0
102
RTVSPropertyOp21
 70
     0
102
RTVSPropertyOp22
 70
     0
102
RTVSPropertyOp23
 70
     0
102
RTVSPropertyOp24
 70
     0
102
RTVSPropertyOp25
 70
     0
102
RTVSPropertyOp26
 70
     0
102
RTVSPropertyOp27
 70
     0
102
RTVSPropertyOp28
 70
     1
102
RTVSPropertyOp29
 70
     1
102
RTVSPropertyOp30
 70
     1
102
RTVSPropertyOp31
 70
     1
102
RTVSPropertyOp32
 70
     1
102
RTVSPropertyOp33
 70
     1
102
RTVSPropertyOp34
 70
     1
102
RTVSPropertyOp35
 70
     1
102
RTVSPropertyOp36
 70
     1
102
RTVSPropertyOp37
 70
     0
102
RTVSPropertyOp38
 70
     0
102
RTVSPropertyOp39
 70
     0
102
RTVSPropertyOp40
 70
     0
102
RTVSPropertyOp41
 70
     0
102
RTVSPropertyOp42
 70
     0
102
RTVSPropertyOp43
 70
     0
102
RTVSPropertyOp44
 70
     0
102
RTVSPropertyOp45
 70
     1
102
RTVSPropertyOp46
 70
     0
102
RTVSPropertyOp47
 70
     0
102
RTVSPropertyOp48
 70
     0
102
RTVSPropertyOp49
 70
     1
102
RTVSPropertyOp50
 70
     0
102
RTVSPropertyOp51
 70
     0
102
RTVSPropertyOp52
 70
     0
102
RTVSPropertyOp53
 70
     0
102
RTVSPropertyOp54
 70
     0
102
RTVSPropertyOp55
 70
     1
102
RTVSPropertyOp56
 70
     0
102
RTVSPropertyOp57
 70
     0
102
RTVSPropertyOp58
 70
     0
102
RTVSPropertyOp59
 70
     0
102
RTVSPropertyOp60
 70
     0
102
RTVSPropertyOp61
 70
     0
102
RTVSPropertyOp62
 70
     0
  0
XRECORD
  5
A96D
102
{ACAD_REACTORS
330
A96C
102
}
330
A96C
100
AcDbXrecord
280
     1
102
RTVSPost2010Prop28
280
     0
102
RTVSPost2010PropOp28
 70
     1
102
RTVSPost2010Prop29
280
     1
102
RTVSPost2010PropOp29
 70
     1
102
RTVSPost2010Prop30
280
     1
102
RTVSPost2010PropOp30
 70
     1
102
RTVSPost2010Prop31
280
     0
102
RTVSPost2010PropOp31
 70
     1
102
RTVSPost2010Prop32
280
     0
102
RTVSPost2010PropOp32
 70
     1
102
RTVSPost2010Prop33
280
     0
102
RTVSPost2010PropOp33
 70
     1
102
RTVSPost2010Prop34
280
     0
102
RTVSPost2010PropOp34
 70
     1
102
RTVSPost2010Prop35
280
     0
102
RTVSPost2010PropOp35
 70
     1
102
RTVSPost2010Prop36
280
     0
102
RTVSPost2010PropOp36
 70
     1
102
RTVSPost2010Prop37
 90
       50
102
RTVSPost2010PropOp37
 70
     1
102
RTVSPost2010Prop38
140
0.0
102
RTVSPost2010PropOp38
 70
     1
102
RTVSPost2010Prop39
140
1.0
102
RTVSPost2010PropOp39
 70
     1
102
RTVSPost2010Prop40
 90
        0
102
RTVSPost2010PropOp40
 70
     1
102
RTVSPost2010Prop41ColorIndex
 90
       18
102
RTVSPost2010Prop41ColorRGB
 90
        0
102
RTVSPost2010PropOp41
 70
     1
102
RTVSPost2010Prop42
 90
       50
102
RTVSPost2010PropOp42
 70
     1
102
RTVSPost2010Prop43
 90
        3
102
RTVSPost2010PropOp43
 70
     1
102
RTVSPost2010Prop44ColorIndex
 90
        5
102
RTVSPost2010Prop44ColorRGB
 90
      255
102
RTVSPost2010PropOp44
 70
     1
102
RTVSPost2010Prop45
280
     0
102
RTVSPost2010PropOp45
 70
     1
102
RTVSPost2010Prop46
 90
       50
102
RTVSPost2010PropOp46
 70
     1
102
RTVSPost2010Prop47
 90
       50
102
RTVSPost2010PropOp47
 70
     1
102
RTVSPost2010Prop48
 90
       50
102
RTVSPost2010PropOp48
 70
     1
102
RTVSPost2010Prop49
280
     0
102
RTVSPost2010PropOp49
 70
     1
102
RTVSPost2010Prop50
 90
       50
102
RTVSPost2010PropOp50
 70
     1
102
RTVSPost2010Prop51ColorIndex
 90
      256
102
RTVSPost2010Prop51ColorRGB
 90
-16777216
102
RTVSPost2010PropOp51
 70
     0
102
RTVSPost2010Prop52
140
1.0
102
RTVSPost2010PropOp52
 70
     0
102
RTVSPost2010Prop53
 90
        2
102
RTVSPost2010PropOp53
 70
     1
102
RTVSPost2010Prop54
  1
strokes_ogs.tif
102
RTVSPost2010PropOp54
 70
     1
102
RTVSPost2010Prop55
280
     0
102
RTVSPost2010PropOp55
 70
     1
102
RTVSPost2010Prop56
140
1.0
102
RTVSPost2010PropOp56
 70
     1
102
RTVSPost2010Prop57
140
1.0
102
RTVSPost2010PropOp57
 70
     1
102
RTVSPropertyOp0
 70
     1
102
RTVSPropertyOp1
 70
     1
102
RTVSPropertyOp2
 70
     1
102
RTVSPropertyOp3
 70
     1
102
RTVSPropertyOp4
 70
     1
102
RTVSPropertyOp5
 70
     1
102
RTVSPropertyOp6
 70
     1
102
RTVSPropertyOp7
 70
     1
102
RTVSPropertyOp8
 70
     1
102
RTVSPropertyOp9
 70
     1
102
RTVSPropertyOp10
 70
     1
102
RTVSPropertyOp11
 70
     1
102
RTVSPropertyOp12
 70
     1
102
RTVSPropertyOp13
 70
     1
102
RTVSPropertyOp14
 70
     1
102
RTVSPropertyOp15
 70
     1
102
RTVSPropertyOp16
 70
     1
102
RTVSPropertyOp17
 70
     1
102
RTVSPropertyOp18
 70
     1
102
RTVSPropertyOp19
 70
     1
102
RTVSPropertyOp20
 70
     1
102
RTVSPropertyOp21
 70
     1
102
RTVSPropertyOp22
 70
     1
102
RTVSPropertyOp23
 70
     1
102
RTVSPropertyOp24
 70
     1
102
RTVSPropertyOp25
 70
     1
102
RTVSPropertyOp26
 70
     1
102
RTVSPropertyOp27
 70
     1
102
RTVSPropertyOp28
 70
     1
102
RTVSPropertyOp29
 70
     1
102
RTVSPropertyOp30
 70
     1
102
RTVSPropertyOp31
 70
     1
102
RTVSPropertyOp32
 70
     1
102
RTVSPropertyOp33
 70
     1
102
RTVSPropertyOp34
 70
     1
102
RTVSPropertyOp35
 70
     1
102
RTVSPropertyOp36
 70
     1
102
RTVSPropertyOp37
 70
     1
102
RTVSPropertyOp38
 70
     1
102
RTVSPropertyOp39
 70
     1
102
RTVSPropertyOp40
 70
     1
102
RTVSPropertyOp41
 70
     1
102
RTVSPropertyOp42
 70
     1
102
RTVSPropertyOp43
 70
     1
102
RTVSPropertyOp44
 70
     1
102
RTVSPropertyOp45
 70
     1
102
RTVSPropertyOp46
 70
     1
102
RTVSPropertyOp47
 70
     1
102
RTVSPropertyOp48
 70
     1
102
RTVSPropertyOp49
 70
     1
102
RTVSPropertyOp50
 70
     1
102
RTVSPropertyOp51
 70
     0
102
RTVSPropertyOp52
 70
     0
102
RTVSPropertyOp53
 70
     1
102
RTVSPropertyOp54
 70
     1
102
RTVSPropertyOp55
 70
     1
102
RTVSPropertyOp56
 70
     1
102
RTVSPropertyOp57
 70
     1
102
RTVSPropertyOp58
 70
     1
102
RTVSPropertyOp59
 70
     1
102
RTVSPropertyOp60
 70
     1
102
RTVSPropertyOp61
 70
     1
102
RTVSPropertyOp62
 70
     1
  0
XRECORD
  5
A951
102
{ACAD_REACTORS
330
A950
102
}
330
A950
100
AcDbXrecord
280
     1
102
RTVSPost2010Prop28
280
     0
102
RTVSPost2010PropOp28
 70
     1
102
RTVSPost2010Prop29
280
     1
102
RTVSPost2010PropOp29
 70
     1
102
RTVSPost2010Prop30
280
     1
102
RTVSPost2010PropOp30
 70
     1
102
RTVSPost2010Prop31
280
     0
102
RTVSPost2010PropOp31
 70
     1
102
RTVSPost2010Prop32
280
     0
102
RTVSPost2010PropOp32
 70
     1
102
RTVSPost2010Prop33
280
     0
102
RTVSPost2010PropOp33
 70
     1
102
RTVSPost2010Prop34
280
     0
102
RTVSPost2010PropOp34
 70
     1
102
RTVSPost2010Prop35
280
     0
102
RTVSPost2010PropOp35
 70
     1
102
RTVSPost2010Prop36
280
     0
102
RTVSPost2010PropOp36
 70
     1
102
RTVSPost2010Prop37
 90
       50
102
RTVSPost2010PropOp37
 70
     1
102
RTVSPost2010Prop38
140
0.0
102
RTVSPost2010PropOp38
 70
     1
102
RTVSPost2010Prop39
140
1.0
102
RTVSPost2010PropOp39
 70
     1
102
RTVSPost2010Prop40
 90
        0
102
RTVSPost2010PropOp40
 70
     1
102
RTVSPost2010Prop41ColorIndex
 90
       18
102
RTVSPost2010Prop41ColorRGB
 90
        0
102
RTVSPost2010PropOp41
 70
     1
102
RTVSPost2010Prop42
 90
       50
102
RTVSPost2010PropOp42
 70
     1
102
RTVSPost2010Prop43
 90
        3
102
RTVSPost2010PropOp43
 70
     1
102
RTVSPost2010Prop44ColorIndex
 90
        5
102
RTVSPost2010Prop44ColorRGB
 90
      255
102
RTVSPost2010PropOp44
 70
     1
102
RTVSPost2010Prop45
280
     0
102
RTVSPost2010PropOp45
 70
     1
102
RTVSPost2010Prop46
 90
       50
102
RTVSPost2010PropOp46
 70
     1
102
RTVSPost2010Prop47
 90
       50
102
RTVSPost2010PropOp47
 70
     1
102
RTVSPost2010Prop48
 90
       50
102
RTVSPost2010PropOp48
 70
     1
102
RTVSPost2010Prop49
280
     0
102
RTVSPost2010PropOp49
 70
     1
102
RTVSPost2010Prop50
 90
       50
102
RTVSPost2010PropOp50
 70
     1
102
RTVSPost2010Prop51ColorIndex
 90
      256
102
RTVSPost2010Prop51ColorRGB
 90
-16777216
102
RTVSPost2010PropOp51
 70
     0
102
RTVSPost2010Prop52
140
1.0
102
RTVSPost2010PropOp52
 70
     0
102
RTVSPost2010Prop53
 90
        2
102
RTVSPost2010PropOp53
 70
     1
102
RTVSPost2010Prop54
  1
strokes_ogs.tif
102
RTVSPost2010PropOp54
 70
     1
102
RTVSPost2010Prop55
280
     0
102
RTVSPost2010PropOp55
 70
     1
102
RTVSPost2010Prop56
140
1.0
102
RTVSPost2010PropOp56
 70
     1
102
RTVSPost2010Prop57
140
1.0
102
RTVSPost2010PropOp57
 70
     1
102
RTVSPropertyOp0
 70
     1
102
RTVSPropertyOp1
 70
     1
102
RTVSPropertyOp2
 70
     1
102
RTVSPropertyOp3
 70
     1
102
RTVSPropertyOp4
 70
     1
102
RTVSPropertyOp5
 70
     1
102
RTVSPropertyOp6
 70
     1
102
RTVSPropertyOp7
 70
     1
102
RTVSPropertyOp8
 70
     1
102
RTVSPropertyOp9
 70
     1
102
RTVSPropertyOp10
 70
     1
102
RTVSPropertyOp11
 70
     1
102
RTVSPropertyOp12
 70
     1
102
RTVSPropertyOp13
 70
     1
102
RTVSPropertyOp14
 70
     1
102
RTVSPropertyOp15
 70
     1
102
RTVSPropertyOp16
 70
     1
102
RTVSPropertyOp17
 70
     1
102
RTVSPropertyOp18
 70
     1
102
RTVSPropertyOp19
 70
     1
102
RTVSPropertyOp20
 70
     1
102
RTVSPropertyOp21
 70
     1
102
RTVSPropertyOp22
 70
     1
102
RTVSPropertyOp23
 70
     1
102
RTVSPropertyOp24
 70
     1
102
RTVSPropertyOp25
 70
     1
102
RTVSPropertyOp26
 70
     1
102
RTVSPropertyOp27
 70
     1
102
RTVSPropertyOp28
 70
     1
102
RTVSPropertyOp29
 70
     1
102
RTVSPropertyOp30
 70
     1
102
RTVSPropertyOp31
 70
     1
102
RTVSPropertyOp32
 70
     1
102
RTVSPropertyOp33
 70
     1
102
RTVSPropertyOp34
 70
     1
102
RTVSPropertyOp35
 70
     1
102
RTVSPropertyOp36
 70
     1
102
RTVSPropertyOp37
 70
     1
102
RTVSPropertyOp38
 70
     1
102
RTVSPropertyOp39
 70
     1
102
RTVSPropertyOp40
 70
     1
102
RTVSPropertyOp41
 70
     1
102
RTVSPropertyOp42
 70
     1
102
RTVSPropertyOp43
 70
     1
102
RTVSPropertyOp44
 70
     1
102
RTVSPropertyOp45
 70
     1
102
RTVSPropertyOp46
 70
     1
102
RTVSPropertyOp47
 70
     1
102
RTVSPropertyOp48
 70
     1
102
RTVSPropertyOp49
 70
     1
102
RTVSPropertyOp50
 70
     1
102
RTVSPropertyOp51
 70
     0
102
RTVSPropertyOp52
 70
     0
102
RTVSPropertyOp53
 70
     1
102
RTVSPropertyOp54
 70
     1
102
RTVSPropertyOp55
 70
     1
102
RTVSPropertyOp56
 70
     1
102
RTVSPropertyOp57
 70
     1
102
RTVSPropertyOp58
 70
     1
102
RTVSPropertyOp59
 70
     1
102
RTVSPropertyOp60
 70
     1
102
RTVSPropertyOp61
 70
     1
102
RTVSPropertyOp62
 70
     1
  0
XRECORD
  5
A953
102
{ACAD_REACTORS
330
A952
102
}
330
A952
100
AcDbXrecord
280
     1
102
RTVSPost2010Prop28
280
     0
102
RTVSPost2010PropOp28
 70
     1
102
RTVSPost2010Prop29
280
     1
102
RTVSPost2010PropOp29
 70
     1
102
RTVSPost2010Prop30
280
     1
102
RTVSPost2010PropOp30
 70
     1
102
RTVSPost2010Prop31
280
     0
102
RTVSPost2010PropOp31
 70
     1
102
RTVSPost2010Prop32
280
     0
102
RTVSPost2010PropOp32
 70
     1
102
RTVSPost2010Prop33
280
     0
102
RTVSPost2010PropOp33
 70
     1
102
RTVSPost2010Prop34
280
     0
102
RTVSPost2010PropOp34
 70
     1
102
RTVSPost2010Prop35
280
     0
102
RTVSPost2010PropOp35
 70
     1
102
RTVSPost2010Prop36
280
     0
102
RTVSPost2010PropOp36
 70
     1
102
RTVSPost2010Prop37
 90
       50
102
RTVSPost2010PropOp37
 70
     1
102
RTVSPost2010Prop38
140
0.0
102
RTVSPost2010PropOp38
 70
     1
102
RTVSPost2010Prop39
140
1.0
102
RTVSPost2010PropOp39
 70
     1
102
RTVSPost2010Prop40
 90
        0
102
RTVSPost2010PropOp40
 70
     1
102
RTVSPost2010Prop41ColorIndex
 90
       18
102
RTVSPost2010Prop41ColorRGB
 90
        0
102
RTVSPost2010PropOp41
 70
     1
102
RTVSPost2010Prop42
 90
       50
102
RTVSPost2010PropOp42
 70
     1
102
RTVSPost2010Prop43
 90
        3
102
RTVSPost2010PropOp43
 70
     1
102
RTVSPost2010Prop44ColorIndex
 90
        5
102
RTVSPost2010Prop44ColorRGB
 90
      255
102
RTVSPost2010PropOp44
 70
     1
102
RTVSPost2010Prop45
280
     0
102
RTVSPost2010PropOp45
 70
     1
102
RTVSPost2010Prop46
 90
       50
102
RTVSPost2010PropOp46
 70
     1
102
RTVSPost2010Prop47
 90
       50
102
RTVSPost2010PropOp47
 70
     1
102
RTVSPost2010Prop48
 90
       50
102
RTVSPost2010PropOp48
 70
     1
102
RTVSPost2010Prop49
280
     0
102
RTVSPost2010PropOp49
 70
     1
102
RTVSPost2010Prop50
 90
       50
102
RTVSPost2010PropOp50
 70
     1
102
RTVSPost2010Prop51ColorIndex
 90
      256
102
RTVSPost2010Prop51ColorRGB
 90
-16777216
102
RTVSPost2010PropOp51
 70
     0
102
RTVSPost2010Prop52
140
1.0
102
RTVSPost2010PropOp52
 70
     0
102
RTVSPost2010Prop53
 90
        2
102
RTVSPost2010PropOp53
 70
     1
102
RTVSPost2010Prop54
  1
strokes_ogs.tif
102
RTVSPost2010PropOp54
 70
     1
102
RTVSPost2010Prop55
280
     0
102
RTVSPost2010PropOp55
 70
     1
102
RTVSPost2010Prop56
140
1.0
102
RTVSPost2010PropOp56
 70
     1
102
RTVSPost2010Prop57
140
1.0
102
RTVSPost2010PropOp57
 70
     1
102
RTVSPropertyOp0
 70
     1
102
RTVSPropertyOp1
 70
     1
102
RTVSPropertyOp2
 70
     1
102
RTVSPropertyOp3
 70
     1
102
RTVSPropertyOp4
 70
     1
102
RTVSPropertyOp5
 70
     1
102
RTVSPropertyOp6
 70
     1
102
RTVSPropertyOp7
 70
     1
102
RTVSPropertyOp8
 70
     1
102
RTVSPropertyOp9
 70
     1
102
RTVSPropertyOp10
 70
     1
102
RTVSPropertyOp11
 70
     1
102
RTVSPropertyOp12
 70
     1
102
RTVSPropertyOp13
 70
     1
102
RTVSPropertyOp14
 70
     1
102
RTVSPropertyOp15
 70
     1
102
RTVSPropertyOp16
 70
     1
102
RTVSPropertyOp17
 70
     1
102
RTVSPropertyOp18
 70
     1
102
RTVSPropertyOp19
 70
     1
102
RTVSPropertyOp20
 70
     1
102
RTVSPropertyOp21
 70
     1
102
RTVSPropertyOp22
 70
     1
102
RTVSPropertyOp23
 70
     1
102
RTVSPropertyOp24
 70
     1
102
RTVSPropertyOp25
 70
     1
102
RTVSPropertyOp26
 70
     1
102
RTVSPropertyOp27
 70
     1
102
RTVSPropertyOp28
 70
     1
102
RTVSPropertyOp29
 70
     1
102
RTVSPropertyOp30
 70
     1
102
RTVSPropertyOp31
 70
     1
102
RTVSPropertyOp32
 70
     1
102
RTVSPropertyOp33
 70
     1
102
RTVSPropertyOp34
 70
     1
102
RTVSPropertyOp35
 70
     1
102
RTVSPropertyOp36
 70
     1
102
RTVSPropertyOp37
 70
     1
102
RTVSPropertyOp38
 70
     1
102
RTVSPropertyOp39
 70
     1
102
RTVSPropertyOp40
 70
     1
102
RTVSPropertyOp41
 70
     1
102
RTVSPropertyOp42
 70
     1
102
RTVSPropertyOp43
 70
     1
102
RTVSPropertyOp44
 70
     1
102
RTVSPropertyOp45
 70
     1
102
RTVSPropertyOp46
 70
     1
102
RTVSPropertyOp47
 70
     1
102
RTVSPropertyOp48
 70
     1
102
RTVSPropertyOp49
 70
     1
102
RTVSPropertyOp50
 70
     1
102
RTVSPropertyOp51
 70
     0
102
RTVSPropertyOp52
 70
     0
102
RTVSPropertyOp53
 70
     1
102
RTVSPropertyOp54
 70
     1
102
RTVSPropertyOp55
 70
     1
102
RTVSPropertyOp56
 70
     1
102
RTVSPropertyOp57
 70
     1
102
RTVSPropertyOp58
 70
     1
102
RTVSPropertyOp59
 70
     1
102
RTVSPropertyOp60
 70
     1
102
RTVSPropertyOp61
 70
     1
102
RTVSPropertyOp62
 70
     1
  0
XRECORD
  5
A955
102
{ACAD_REACTORS
330
A954
102
}
330
A954
100
AcDbXrecord
280
     1
102
RTVSPost2010Prop28
280
     0
102
RTVSPost2010PropOp28
 70
     1
102
RTVSPost2010Prop29
280
     1
102
RTVSPost2010PropOp29
 70
     1
102
RTVSPost2010Prop30
280
     1
102
RTVSPost2010PropOp30
 70
     1
102
RTVSPost2010Prop31
280
     0
102
RTVSPost2010PropOp31
 70
     1
102
RTVSPost2010Prop32
280
     0
102
RTVSPost2010PropOp32
 70
     1
102
RTVSPost2010Prop33
280
     0
102
RTVSPost2010PropOp33
 70
     1
102
RTVSPost2010Prop34
280
     0
102
RTVSPost2010PropOp34
 70
     1
102
RTVSPost2010Prop35
280
     0
102
RTVSPost2010PropOp35
 70
     1
102
RTVSPost2010Prop36
280
     0
102
RTVSPost2010PropOp36
 70
     1
102
RTVSPost2010Prop37
 90
       50
102
RTVSPost2010PropOp37
 70
     1
102
RTVSPost2010Prop38
140
0.0
102
RTVSPost2010PropOp38
 70
     1
102
RTVSPost2010Prop39
140
1.0
102
RTVSPost2010PropOp39
 70
     1
102
RTVSPost2010Prop40
 90
        0
102
RTVSPost2010PropOp40
 70
     1
102
RTVSPost2010Prop41ColorIndex
 90
       18
102
RTVSPost2010Prop41ColorRGB
 90
        0
102
RTVSPost2010PropOp41
 70
     1
102
RTVSPost2010Prop42
 90
       50
102
RTVSPost2010PropOp42
 70
     1
102
RTVSPost2010Prop43
 90
        3
102
RTVSPost2010PropOp43
 70
     1
102
RTVSPost2010Prop44ColorIndex
 90
        5
102
RTVSPost2010Prop44ColorRGB
 90
      255
102
RTVSPost2010PropOp44
 70
     1
102
RTVSPost2010Prop45
280
     0
102
RTVSPost2010PropOp45
 70
     1
102
RTVSPost2010Prop46
 90
       50
102
RTVSPost2010PropOp46
 70
     1
102
RTVSPost2010Prop47
 90
       50
102
RTVSPost2010PropOp47
 70
     1
102
RTVSPost2010Prop48
 90
       50
102
RTVSPost2010PropOp48
 70
     1
102
RTVSPost2010Prop49
280
     0
102
RTVSPost2010PropOp49
 70
     1
102
RTVSPost2010Prop50
 90
       50
102
RTVSPost2010PropOp50
 70
     1
102
RTVSPost2010Prop51ColorIndex
 90
      256
102
RTVSPost2010Prop51ColorRGB
 90
-16777216
102
RTVSPost2010PropOp51
 70
     0
102
RTVSPost2010Prop52
140
1.0
102
RTVSPost2010PropOp52
 70
     0
102
RTVSPost2010Prop53
 90
        2
102
RTVSPost2010PropOp53
 70
     1
102
RTVSPost2010Prop54
  1
strokes_ogs.tif
102
RTVSPost2010PropOp54
 70
     1
102
RTVSPost2010Prop55
280
     0
102
RTVSPost2010PropOp55
 70
     1
102
RTVSPost2010Prop56
140
1.0
102
RTVSPost2010PropOp56
 70
     1
102
RTVSPost2010Prop57
140
1.0
102
RTVSPost2010PropOp57
 70
     1
102
RTVSPropertyOp0
 70
     1
102
RTVSPropertyOp1
 70
     1
102
RTVSPropertyOp2
 70
     1
102
RTVSPropertyOp3
 70
     1
102
RTVSPropertyOp4
 70
     1
102
RTVSPropertyOp5
 70
     1
102
RTVSPropertyOp6
 70
     1
102
RTVSPropertyOp7
 70
     1
102
RTVSPropertyOp8
 70
     1
102
RTVSPropertyOp9
 70
     1
102
RTVSPropertyOp10
 70
     1
102
RTVSPropertyOp11
 70
     1
102
RTVSPropertyOp12
 70
     1
102
RTVSPropertyOp13
 70
     1
102
RTVSPropertyOp14
 70
     1
102
RTVSPropertyOp15
 70
     1
102
RTVSPropertyOp16
 70
     1
102
RTVSPropertyOp17
 70
     1
102
RTVSPropertyOp18
 70
     1
102
RTVSPropertyOp19
 70
     1
102
RTVSPropertyOp20
 70
     1
102
RTVSPropertyOp21
 70
     1
102
RTVSPropertyOp22
 70
     1
102
RTVSPropertyOp23
 70
     1
102
RTVSPropertyOp24
 70
     1
102
RTVSPropertyOp25
 70
     1
102
RTVSPropertyOp26
 70
     1
102
RTVSPropertyOp27
 70
     1
102
RTVSPropertyOp28
 70
     1
102
RTVSPropertyOp29
 70
     1
102
RTVSPropertyOp30
 70
     1
102
RTVSPropertyOp31
 70
     1
102
RTVSPropertyOp32
 70
     1
102
RTVSPropertyOp33
 70
     1
102
RTVSPropertyOp34
 70
     1
102
RTVSPropertyOp35
 70
     1
102
RTVSPropertyOp36
 70
     1
102
RTVSPropertyOp37
 70
     1
102
RTVSPropertyOp38
 70
     1
102
RTVSPropertyOp39
 70
     1
102
RTVSPropertyOp40
 70
     1
102
RTVSPropertyOp41
 70
     1
102
RTVSPropertyOp42
 70
     1
102
RTVSPropertyOp43
 70
     1
102
RTVSPropertyOp44
 70
     1
102
RTVSPropertyOp45
 70
     1
102
RTVSPropertyOp46
 70
     1
102
RTVSPropertyOp47
 70
     1
102
RTVSPropertyOp48
 70
     1
102
RTVSPropertyOp49
 70
     1
102
RTVSPropertyOp50
 70
     1
102
RTVSPropertyOp51
 70
     0
102
RTVSPropertyOp52
 70
     0
102
RTVSPropertyOp53
 70
     1
102
RTVSPropertyOp54
 70
     1
102
RTVSPropertyOp55
 70
     1
102
RTVSPropertyOp56
 70
     1
102
RTVSPropertyOp57
 70
     1
102
RTVSPropertyOp58
 70
     1
102
RTVSPropertyOp59
 70
     1
102
RTVSPropertyOp60
 70
     1
102
RTVSPropertyOp61
 70
     1
102
RTVSPropertyOp62
 70
     1
  0
XRECORD
  5
A957
102
{ACAD_REACTORS
330
A956
102
}
330
A956
100
AcDbXrecord
280
     1
102
RTVSPost2010Prop28
280
     0
102
RTVSPost2010PropOp28
 70
     1
102
RTVSPost2010Prop29
280
     1
102
RTVSPost2010PropOp29
 70
     1
102
RTVSPost2010Prop30
280
     1
102
RTVSPost2010PropOp30
 70
     1
102
RTVSPost2010Prop31
280
     0
102
RTVSPost2010PropOp31
 70
     1
102
RTVSPost2010Prop32
280
     0
102
RTVSPost2010PropOp32
 70
     1
102
RTVSPost2010Prop33
280
     0
102
RTVSPost2010PropOp33
 70
     1
102
RTVSPost2010Prop34
280
     0
102
RTVSPost2010PropOp34
 70
     1
102
RTVSPost2010Prop35
280
     0
102
RTVSPost2010PropOp35
 70
     1
102
RTVSPost2010Prop36
280
     0
102
RTVSPost2010PropOp36
 70
     1
102
RTVSPost2010Prop37
 90
       50
102
RTVSPost2010PropOp37
 70
     1
102
RTVSPost2010Prop38
140
0.0
102
RTVSPost2010PropOp38
 70
     1
102
RTVSPost2010Prop39
140
1.0
102
RTVSPost2010PropOp39
 70
     1
102
RTVSPost2010Prop40
 90
        0
102
RTVSPost2010PropOp40
 70
     1
102
RTVSPost2010Prop41ColorIndex
 90
       18
102
RTVSPost2010Prop41ColorRGB
 90
        0
102
RTVSPost2010PropOp41
 70
     1
102
RTVSPost2010Prop42
 90
       50
102
RTVSPost2010PropOp42
 70
     1
102
RTVSPost2010Prop43
 90
        3
102
RTVSPost2010PropOp43
 70
     1
102
RTVSPost2010Prop44ColorIndex
 90
        5
102
RTVSPost2010Prop44ColorRGB
 90
      255
102
RTVSPost2010PropOp44
 70
     1
102
RTVSPost2010Prop45
280
     0
102
RTVSPost2010PropOp45
 70
     1
102
RTVSPost2010Prop46
 90
       50
102
RTVSPost2010PropOp46
 70
     1
102
RTVSPost2010Prop47
 90
       50
102
RTVSPost2010PropOp47
 70
     1
102
RTVSPost2010Prop48
 90
       50
102
RTVSPost2010PropOp48
 70
     1
102
RTVSPost2010Prop49
280
     0
102
RTVSPost2010PropOp49
 70
     1
102
RTVSPost2010Prop50
 90
       50
102
RTVSPost2010PropOp50
 70
     1
102
RTVSPost2010Prop51ColorIndex
 90
      256
102
RTVSPost2010Prop51ColorRGB
 90
-16777216
102
RTVSPost2010PropOp51
 70
     0
102
RTVSPost2010Prop52
140
1.0
102
RTVSPost2010PropOp52
 70
     0
102
RTVSPost2010Prop53
 90
        2
102
RTVSPost2010PropOp53
 70
     1
102
RTVSPost2010Prop54
  1
strokes_ogs.tif
102
RTVSPost2010PropOp54
 70
     1
102
RTVSPost2010Prop55
280
     0
102
RTVSPost2010PropOp55
 70
     1
102
RTVSPost2010Prop56
140
1.0
102
RTVSPost2010PropOp56
 70
     1
102
RTVSPost2010Prop57
140
1.0
102
RTVSPost2010PropOp57
 70
     1
102
RTVSPropertyOp0
 70
     1
102
RTVSPropertyOp1
 70
     1
102
RTVSPropertyOp2
 70
     1
102
RTVSPropertyOp3
 70
     1
102
RTVSPropertyOp4
 70
     1
102
RTVSPropertyOp5
 70
     1
102
RTVSPropertyOp6
 70
     1
102
RTVSPropertyOp7
 70
     1
102
RTVSPropertyOp8
 70
     1
102
RTVSPropertyOp9
 70
     1
102
RTVSPropertyOp10
 70
     1
102
RTVSPropertyOp11
 70
     1
102
RTVSPropertyOp12
 70
     1
102
RTVSPropertyOp13
 70
     1
102
RTVSPropertyOp14
 70
     1
102
RTVSPropertyOp15
 70
     1
102
RTVSPropertyOp16
 70
     1
102
RTVSPropertyOp17
 70
     1
102
RTVSPropertyOp18
 70
     1
102
RTVSPropertyOp19
 70
     1
102
RTVSPropertyOp20
 70
     1
102
RTVSPropertyOp21
 70
     1
102
RTVSPropertyOp22
 70
     1
102
RTVSPropertyOp23
 70
     1
102
RTVSPropertyOp24
 70
     1
102
RTVSPropertyOp25
 70
     1
102
RTVSPropertyOp26
 70
     1
102
RTVSPropertyOp27
 70
     1
102
RTVSPropertyOp28
 70
     1
102
RTVSPropertyOp29
 70
     1
102
RTVSPropertyOp30
 70
     1
102
RTVSPropertyOp31
 70
     1
102
RTVSPropertyOp32
 70
     1
102
RTVSPropertyOp33
 70
     1
102
RTVSPropertyOp34
 70
     1
102
RTVSPropertyOp35
 70
     1
102
RTVSPropertyOp36
 70
     1
102
RTVSPropertyOp37
 70
     1
102
RTVSPropertyOp38
 70
     1
102
RTVSPropertyOp39
 70
     1
102
RTVSPropertyOp40
 70
     1
102
RTVSPropertyOp41
 70
     1
102
RTVSPropertyOp42
 70
     1
102
RTVSPropertyOp43
 70
     1
102
RTVSPropertyOp44
 70
     1
102
RTVSPropertyOp45
 70
     1
102
RTVSPropertyOp46
 70
     1
102
RTVSPropertyOp47
 70
     1
102
RTVSPropertyOp48
 70
     1
102
RTVSPropertyOp49
 70
     1
102
RTVSPropertyOp50
 70
     1
102
RTVSPropertyOp51
 70
     0
102
RTVSPropertyOp52
 70
     0
102
RTVSPropertyOp53
 70
     1
102
RTVSPropertyOp54
 70
     1
102
RTVSPropertyOp55
 70
     1
102
RTVSPropertyOp56
 70
     1
102
RTVSPropertyOp57
 70
     1
102
RTVSPropertyOp58
 70
     1
102
RTVSPropertyOp59
 70
     1
102
RTVSPropertyOp60
 70
     1
102
RTVSPropertyOp61
 70
     1
102
RTVSPropertyOp62
 70
     1
  0
XRECORD
  5
A95F
102
{ACAD_REACTORS
330
A95E
102
}
330
A95E
100
AcDbXrecord
280
     1
102
RTVSPost2010Prop28
280
     0
102
RTVSPost2010PropOp28
 70
     1
102
RTVSPost2010Prop29
280
     1
102
RTVSPost2010PropOp29
 70
     1
102
RTVSPost2010Prop30
280
     1
102
RTVSPost2010PropOp30
 70
     1
102
RTVSPost2010Prop31
280
     0
102
RTVSPost2010PropOp31
 70
     1
102
RTVSPost2010Prop32
280
     0
102
RTVSPost2010PropOp32
 70
     1
102
RTVSPost2010Prop33
280
     0
102
RTVSPost2010PropOp33
 70
     1
102
RTVSPost2010Prop34
280
     0
102
RTVSPost2010PropOp34
 70
     1
102
RTVSPost2010Prop35
280
     0
102
RTVSPost2010PropOp35
 70
     1
102
RTVSPost2010Prop36
280
     0
102
RTVSPost2010PropOp36
 70
     1
102
RTVSPost2010Prop37
 90
       50
102
RTVSPost2010PropOp37
 70
     1
102
RTVSPost2010Prop38
140
0.0
102
RTVSPost2010PropOp38
 70
     1
102
RTVSPost2010Prop39
140
1.0
102
RTVSPost2010PropOp39
 70
     1
102
RTVSPost2010Prop40
 90
        0
102
RTVSPost2010PropOp40
 70
     1
102
RTVSPost2010Prop41ColorIndex
 90
       18
102
RTVSPost2010Prop41ColorRGB
 90
        0
102
RTVSPost2010PropOp41
 70
     1
102
RTVSPost2010Prop42
 90
       50
102
RTVSPost2010PropOp42
 70
     1
102
RTVSPost2010Prop43
 90
        3
102
RTVSPost2010PropOp43
 70
     1
102
RTVSPost2010Prop44ColorIndex
 90
        5
102
RTVSPost2010Prop44ColorRGB
 90
      255
102
RTVSPost2010PropOp44
 70
     1
102
RTVSPost2010Prop45
280
     0
102
RTVSPost2010PropOp45
 70
     1
102
RTVSPost2010Prop46
 90
       50
102
RTVSPost2010PropOp46
 70
     1
102
RTVSPost2010Prop47
 90
       50
102
RTVSPost2010PropOp47
 70
     1
102
RTVSPost2010Prop48
 90
       50
102
RTVSPost2010PropOp48
 70
     1
102
RTVSPost2010Prop49
280
     0
102
RTVSPost2010PropOp49
 70
     1
102
RTVSPost2010Prop50
 90
       50
102
RTVSPost2010PropOp50
 70
     1
102
RTVSPost2010Prop51ColorIndex
 90
      256
102
RTVSPost2010Prop51ColorRGB
 90
-16777216
102
RTVSPost2010PropOp51
 70
     0
102
RTVSPost2010Prop52
140
1.0
102
RTVSPost2010PropOp52
 70
     0
102
RTVSPost2010Prop53
 90
        2
102
RTVSPost2010PropOp53
 70
     1
102
RTVSPost2010Prop54
  1
strokes_ogs.tif
102
RTVSPost2010PropOp54
 70
     1
102
RTVSPost2010Prop55
280
     0
102
RTVSPost2010PropOp55
 70
     1
102
RTVSPost2010Prop56
140
1.0
102
RTVSPost2010PropOp56
 70
     1
102
RTVSPost2010Prop57
140
1.0
102
RTVSPost2010PropOp57
 70
     1
102
RTVSPropertyOp0
 70
     1
102
RTVSPropertyOp1
 70
     1
102
RTVSPropertyOp2
 70
     1
102
RTVSPropertyOp3
 70
     1
102
RTVSPropertyOp4
 70
     1
102
RTVSPropertyOp5
 70
     1
102
RTVSPropertyOp6
 70
     1
102
RTVSPropertyOp7
 70
     1
102
RTVSPropertyOp8
 70
     1
102
RTVSPropertyOp9
 70
     1
102
RTVSPropertyOp10
 70
     1
102
RTVSPropertyOp11
 70
     1
102
RTVSPropertyOp12
 70
     1
102
RTVSPropertyOp13
 70
     1
102
RTVSPropertyOp14
 70
     1
102
RTVSPropertyOp15
 70
     1
102
RTVSPropertyOp16
 70
     1
102
RTVSPropertyOp17
 70
     1
102
RTVSPropertyOp18
 70
     1
102
RTVSPropertyOp19
 70
     1
102
RTVSPropertyOp20
 70
     1
102
RTVSPropertyOp21
 70
     1
102
RTVSPropertyOp22
 70
     1
102
RTVSPropertyOp23
 70
     1
102
RTVSPropertyOp24
 70
     1
102
RTVSPropertyOp25
 70
     1
102
RTVSPropertyOp26
 70
     1
102
RTVSPropertyOp27
 70
     1
102
RTVSPropertyOp28
 70
     1
102
RTVSPropertyOp29
 70
     1
102
RTVSPropertyOp30
 70
     1
102
RTVSPropertyOp31
 70
     1
102
RTVSPropertyOp32
 70
     1
102
RTVSPropertyOp33
 70
     1
102
RTVSPropertyOp34
 70
     1
102
RTVSPropertyOp35
 70
     1
102
RTVSPropertyOp36
 70
     1
102
RTVSPropertyOp37
 70
     1
102
RTVSPropertyOp38
 70
     1
102
RTVSPropertyOp39
 70
     1
102
RTVSPropertyOp40
 70
     1
102
RTVSPropertyOp41
 70
     1
102
RTVSPropertyOp42
 70
     1
102
RTVSPropertyOp43
 70
     1
102
RTVSPropertyOp44
 70
     1
102
RTVSPropertyOp45
 70
     1
102
RTVSPropertyOp46
 70
     1
102
RTVSPropertyOp47
 70
     1
102
RTVSPropertyOp48
 70
     1
102
RTVSPropertyOp49
 70
     1
102
RTVSPropertyOp50
 70
     1
102
RTVSPropertyOp51
 70
     0
102
RTVSPropertyOp52
 70
     0
102
RTVSPropertyOp53
 70
     1
102
RTVSPropertyOp54
 70
     1
102
RTVSPropertyOp55
 70
     1
102
RTVSPropertyOp56
 70
     1
102
RTVSPropertyOp57
 70
     1
102
RTVSPropertyOp58
 70
     1
102
RTVSPropertyOp59
 70
     1
102
RTVSPropertyOp60
 70
     1
102
RTVSPropertyOp61
 70
     1
102
RTVSPropertyOp62
 70
     1
  0
XRECORD
  5
A97B
102
{ACAD_REACTORS
330
A97A
102
}
330
A97A
100
AcDbXrecord
280
     1
102
RTVSPost2010Prop28
280
     0
102
RTVSPost2010PropOp28
 70
     1
102
RTVSPost2010Prop29
280
     1
102
RTVSPost2010PropOp29
 70
     1
102
RTVSPost2010Prop30
280
     1
102
RTVSPost2010PropOp30
 70
     1
102
RTVSPost2010Prop31
280
     0
102
RTVSPost2010PropOp31
 70
     1
102
RTVSPost2010Prop32
280
     0
102
RTVSPost2010PropOp32
 70
     1
102
RTVSPost2010Prop33
280
     0
102
RTVSPost2010PropOp33
 70
     1
102
RTVSPost2010Prop34
280
     0
102
RTVSPost2010PropOp34
 70
     1
102
RTVSPost2010Prop35
280
     0
102
RTVSPost2010PropOp35
 70
     1
102
RTVSPost2010Prop36
280
     0
102
RTVSPost2010PropOp36
 70
     1
102
RTVSPost2010Prop37
 90
       50
102
RTVSPost2010PropOp37
 70
     0
102
RTVSPost2010Prop38
140
0.0
102
RTVSPost2010PropOp38
 70
     0
102
RTVSPost2010Prop39
140
1.0
102
RTVSPost2010PropOp39
 70
     0
102
RTVSPost2010Prop40
 90
        0
102
RTVSPost2010PropOp40
 70
     0
102
RTVSPost2010Prop41ColorIndex
 90
       18
102
RTVSPost2010Prop41ColorRGB
 90
        0
102
RTVSPost2010PropOp41
 70
     0
102
RTVSPost2010Prop42
 90
       50
102
RTVSPost2010PropOp42
 70
     0
102
RTVSPost2010Prop43
 90
        3
102
RTVSPost2010PropOp43
 70
     0
102
RTVSPost2010Prop44ColorIndex
 90
        5
102
RTVSPost2010Prop44ColorRGB
 90
      255
102
RTVSPost2010PropOp44
 70
     0
102
RTVSPost2010Prop45
280
     0
102
RTVSPost2010PropOp45
 70
     1
102
RTVSPost2010Prop46
 90
       50
102
RTVSPost2010PropOp46
 70
     0
102
RTVSPost2010Prop47
 90
       50
102
RTVSPost2010PropOp47
 70
     0
102
RTVSPost2010Prop48
 90
       50
102
RTVSPost2010PropOp48
 70
     0
102
RTVSPost2010Prop49
280
     0
102
RTVSPost2010PropOp49
 70
     1
102
RTVSPost2010Prop50
 90
       50
102
RTVSPost2010PropOp50
 70
     0
102
RTVSPost2010Prop51ColorIndex
 90
      256
102
RTVSPost2010Prop51ColorRGB
 90
-16777216
102
RTVSPost2010PropOp51
 70
     0
102
RTVSPost2010Prop52
140
1.0
102
RTVSPost2010PropOp52
 70
     0
102
RTVSPost2010Prop53
 90
        2
102
RTVSPost2010PropOp53
 70
     0
102
RTVSPost2010Prop54
  1
strokes_ogs.tif
102
RTVSPost2010PropOp54
 70
     0
102
RTVSPost2010Prop55
280
     0
102
RTVSPost2010PropOp55
 70
     1
102
RTVSPost2010Prop56
140
1.0
102
RTVSPost2010PropOp56
 70
     0
102
RTVSPost2010Prop57
140
1.0
102
RTVSPost2010PropOp57
 70
     0
102
RTVSPropertyOp0
 70
     0
102
RTVSPropertyOp1
 70
     0
102
RTVSPropertyOp2
 70
     0
102
RTVSPropertyOp3
 70
     0
102
RTVSPropertyOp4
 70
     0
102
RTVSPropertyOp5
 70
     0
102
RTVSPropertyOp6
 70
     0
102
RTVSPropertyOp7
 70
     0
102
RTVSPropertyOp8
 70
     0
102
RTVSPropertyOp9
 70
     0
102
RTVSPropertyOp10
 70
     0
102
RTVSPropertyOp11
 70
     0
102
RTVSPropertyOp12
 70
     0
102
RTVSPropertyOp13
 70
     0
102
RTVSPropertyOp14
 70
     2
102
RTVSPropertyOp15
 70
     0
102
RTVSPropertyOp16
 70
     0
102
RTVSPropertyOp17
 70
     0
102
RTVSPropertyOp18
 70
     0
102
RTVSPropertyOp19
 70
     0
102
RTVSPropertyOp20
 70
     0
102
RTVSPropertyOp21
 70
     0
102
RTVSPropertyOp22
 70
     0
102
RTVSPropertyOp23
 70
     0
102
RTVSPropertyOp24
 70
     0
102
RTVSPropertyOp25
 70
     0
102
RTVSPropertyOp26
 70
     0
102
RTVSPropertyOp27
 70
     0
102
RTVSPropertyOp28
 70
     1
102
RTVSPropertyOp29
 70
     1
102
RTVSPropertyOp30
 70
     1
102
RTVSPropertyOp31
 70
     1
102
RTVSPropertyOp32
 70
     1
102
RTVSPropertyOp33
 70
     1
102
RTVSPropertyOp34
 70
     1
102
RTVSPropertyOp35
 70
     1
102
RTVSPropertyOp36
 70
     1
102
RTVSPropertyOp37
 70
     0
102
RTVSPropertyOp38
 70
     0
102
RTVSPropertyOp39
 70
     0
102
RTVSPropertyOp40
 70
     0
102
RTVSPropertyOp41
 70
     0
102
RTVSPropertyOp42
 70
     0
102
RTVSPropertyOp43
 70
     0
102
RTVSPropertyOp44
 70
     0
102
RTVSPropertyOp45
 70
     1
102
RTVSPropertyOp46
 70
     0
102
RTVSPropertyOp47
 70
     0
102
RTVSPropertyOp48
 70
     0
102
RTVSPropertyOp49
 70
     1
102
RTVSPropertyOp50
 70
     0
102
RTVSPropertyOp51
 70
     0
102
RTVSPropertyOp52
 70
     0
102
RTVSPropertyOp53
 70
     0
102
RTVSPropertyOp54
 70
     0
102
RTVSPropertyOp55
 70
     1
102
RTVSPropertyOp56
 70
     0
102
RTVSPropertyOp57
 70
     0
102
RTVSPropertyOp58
 70
     0
102
RTVSPropertyOp59
 70
     0
102
RTVSPropertyOp60
 70
     0
102
RTVSPropertyOp61
 70
     0
102
RTVSPropertyOp62
 70
     0
  0
XRECORD
  5
A96B
102
{ACAD_REACTORS
330
A96A
102
}
330
A96A
100
AcDbXrecord
280
     1
102
RTVSPost2010Prop28
280
     0
102
RTVSPost2010PropOp28
 70
     1
102
RTVSPost2010Prop29
280
     1
102
RTVSPost2010PropOp29
 70
     1
102
RTVSPost2010Prop30
280
     1
102
RTVSPost2010PropOp30
 70
     1
102
RTVSPost2010Prop31
280
     0
102
RTVSPost2010PropOp31
 70
     1
102
RTVSPost2010Prop32
280
     0
102
RTVSPost2010PropOp32
 70
     1
102
RTVSPost2010Prop33
280
     0
102
RTVSPost2010PropOp33
 70
     1
102
RTVSPost2010Prop34
280
     0
102
RTVSPost2010PropOp34
 70
     1
102
RTVSPost2010Prop35
280
     0
102
RTVSPost2010PropOp35
 70
     1
102
RTVSPost2010Prop36
280
     0
102
RTVSPost2010PropOp36
 70
     1
102
RTVSPost2010Prop37
 90
       50
102
RTVSPost2010PropOp37
 70
     1
102
RTVSPost2010Prop38
140
0.0
102
RTVSPost2010PropOp38
 70
     1
102
RTVSPost2010Prop39
140
1.0
102
RTVSPost2010PropOp39
 70
     1
102
RTVSPost2010Prop40
 90
        0
102
RTVSPost2010PropOp40
 70
     1
102
RTVSPost2010Prop41ColorIndex
 90
       18
102
RTVSPost2010Prop41ColorRGB
 90
        0
102
RTVSPost2010PropOp41
 70
     1
102
RTVSPost2010Prop42
 90
       50
102
RTVSPost2010PropOp42
 70
     1
102
RTVSPost2010Prop43
 90
        3
102
RTVSPost2010PropOp43
 70
     1
102
RTVSPost2010Prop44ColorIndex
 90
        5
102
RTVSPost2010Prop44ColorRGB
 90
      255
102
RTVSPost2010PropOp44
 70
     1
102
RTVSPost2010Prop45
280
     0
102
RTVSPost2010PropOp45
 70
     1
102
RTVSPost2010Prop46
 90
       50
102
RTVSPost2010PropOp46
 70
     1
102
RTVSPost2010Prop47
 90
       50
102
RTVSPost2010PropOp47
 70
     1
102
RTVSPost2010Prop48
 90
       50
102
RTVSPost2010PropOp48
 70
     1
102
RTVSPost2010Prop49
280
     0
102
RTVSPost2010PropOp49
 70
     1
102
RTVSPost2010Prop50
 90
       50
102
RTVSPost2010PropOp50
 70
     1
102
RTVSPost2010Prop51ColorIndex
 90
      256
102
RTVSPost2010Prop51ColorRGB
 90
-16777216
102
RTVSPost2010PropOp51
 70
     0
102
RTVSPost2010Prop52
140
1.0
102
RTVSPost2010PropOp52
 70
     0
102
RTVSPost2010Prop53
 90
        2
102
RTVSPost2010PropOp53
 70
     1
102
RTVSPost2010Prop54
  1
strokes_ogs.tif
102
RTVSPost2010PropOp54
 70
     1
102
RTVSPost2010Prop55
280
     0
102
RTVSPost2010PropOp55
 70
     1
102
RTVSPost2010Prop56
140
1.0
102
RTVSPost2010PropOp56
 70
     1
102
RTVSPost2010Prop57
140
1.0
102
RTVSPost2010PropOp57
 70
     1
102
RTVSPropertyOp0
 70
     1
102
RTVSPropertyOp1
 70
     1
102
RTVSPropertyOp2
 70
     1
102
RTVSPropertyOp3
 70
     1
102
RTVSPropertyOp4
 70
     1
102
RTVSPropertyOp5
 70
     1
102
RTVSPropertyOp6
 70
     1
102
RTVSPropertyOp7
 70
     1
102
RTVSPropertyOp8
 70
     1
102
RTVSPropertyOp9
 70
     1
102
RTVSPropertyOp10
 70
     1
102
RTVSPropertyOp11
 70
     1
102
RTVSPropertyOp12
 70
     1
102
RTVSPropertyOp13
 70
     1
102
RTVSPropertyOp14
 70
     1
102
RTVSPropertyOp15
 70
     1
102
RTVSPropertyOp16
 70
     1
102
RTVSPropertyOp17
 70
     1
102
RTVSPropertyOp18
 70
     1
102
RTVSPropertyOp19
 70
     1
102
RTVSPropertyOp20
 70
     1
102
RTVSPropertyOp21
 70
     1
102
RTVSPropertyOp22
 70
     1
102
RTVSPropertyOp23
 70
     1
102
RTVSPropertyOp24
 70
     1
102
RTVSPropertyOp25
 70
     1
102
RTVSPropertyOp26
 70
     1
102
RTVSPropertyOp27
 70
     1
102
RTVSPropertyOp28
 70
     1
102
RTVSPropertyOp29
 70
     1
102
RTVSPropertyOp30
 70
     1
102
RTVSPropertyOp31
 70
     1
102
RTVSPropertyOp32
 70
     1
102
RTVSPropertyOp33
 70
     1
102
RTVSPropertyOp34
 70
     1
102
RTVSPropertyOp35
 70
     1
102
RTVSPropertyOp36
 70
     1
102
RTVSPropertyOp37
 70
     1
102
RTVSPropertyOp38
 70
     1
102
RTVSPropertyOp39
 70
     1
102
RTVSPropertyOp40
 70
     1
102
RTVSPropertyOp41
 70
     1
102
RTVSPropertyOp42
 70
     1
102
RTVSPropertyOp43
 70
     1
102
RTVSPropertyOp44
 70
     1
102
RTVSPropertyOp45
 70
     1
102
RTVSPropertyOp46
 70
     1
102
RTVSPropertyOp47
 70
     1
102
RTVSPropertyOp48
 70
     1
102
RTVSPropertyOp49
 70
     1
102
RTVSPropertyOp50
 70
     1
102
RTVSPropertyOp51
 70
     0
102
RTVSPropertyOp52
 70
     0
102
RTVSPropertyOp53
 70
     1
102
RTVSPropertyOp54
 70
     1
102
RTVSPropertyOp55
 70
     1
102
RTVSPropertyOp56
 70
     1
102
RTVSPropertyOp57
 70
     1
102
RTVSPropertyOp58
 70
     1
102
RTVSPropertyOp59
 70
     1
102
RTVSPropertyOp60
 70
     1
102
RTVSPropertyOp61
 70
     1
102
RTVSPropertyOp62
 70
     1
  0
XRECORD
  5
A97D
102
{ACAD_REACTORS
330
A97C
102
}
330
A97C
100
AcDbXrecord
280
     1
102
RTVSPost2010Prop28
280
     0
102
RTVSPost2010PropOp28
 70
     1
102
RTVSPost2010Prop29
280
     1
102
RTVSPost2010PropOp29
 70
     1
102
RTVSPost2010Prop30
280
     1
102
RTVSPost2010PropOp30
 70
     1
102
RTVSPost2010Prop31
280
     0
102
RTVSPost2010PropOp31
 70
     1
102
RTVSPost2010Prop32
280
     0
102
RTVSPost2010PropOp32
 70
     1
102
RTVSPost2010Prop33
280
     0
102
RTVSPost2010PropOp33
 70
     1
102
RTVSPost2010Prop34
280
     0
102
RTVSPost2010PropOp34
 70
     1
102
RTVSPost2010Prop35
280
     0
102
RTVSPost2010PropOp35
 70
     1
102
RTVSPost2010Prop36
280
     0
102
RTVSPost2010PropOp36
 70
     1
102
RTVSPost2010Prop37
 90
       50
102
RTVSPost2010PropOp37
 70
     0
102
RTVSPost2010Prop38
140
0.0
102
RTVSPost2010PropOp38
 70
     0
102
RTVSPost2010Prop39
140
1.0
102
RTVSPost2010PropOp39
 70
     0
102
RTVSPost2010Prop40
 90
        0
102
RTVSPost2010PropOp40
 70
     0
102
RTVSPost2010Prop41ColorIndex
 90
       18
102
RTVSPost2010Prop41ColorRGB
 90
        0
102
RTVSPost2010PropOp41
 70
     0
102
RTVSPost2010Prop42
 90
       50
102
RTVSPost2010PropOp42
 70
     0
102
RTVSPost2010Prop43
 90
        3
102
RTVSPost2010PropOp43
 70
     0
102
RTVSPost2010Prop44ColorIndex
 90
        5
102
RTVSPost2010Prop44ColorRGB
 90
      255
102
RTVSPost2010PropOp44
 70
     0
102
RTVSPost2010Prop45
280
     0
102
RTVSPost2010PropOp45
 70
     1
102
RTVSPost2010Prop46
 90
       50
102
RTVSPost2010PropOp46
 70
     0
102
RTVSPost2010Prop47
 90
       50
102
RTVSPost2010PropOp47
 70
     0
102
RTVSPost2010Prop48
 90
       50
102
RTVSPost2010PropOp48
 70
     0
102
RTVSPost2010Prop49
280
     0
102
RTVSPost2010PropOp49
 70
     1
102
RTVSPost2010Prop50
 90
       50
102
RTVSPost2010PropOp50
 70
     0
102
RTVSPost2010Prop51ColorIndex
 90
      256
102
RTVSPost2010Prop51ColorRGB
 90
-16777216
102
RTVSPost2010PropOp51
 70
     0
102
RTVSPost2010Prop52
140
1.0
102
RTVSPost2010PropOp52
 70
     0
102
RTVSPost2010Prop53
 90
        2
102
RTVSPost2010PropOp53
 70
     0
102
RTVSPost2010Prop54
  1
strokes_ogs.tif
102
RTVSPost2010PropOp54
 70
     0
102
RTVSPost2010Prop55
280
     0
102
RTVSPost2010PropOp55
 70
     1
102
RTVSPost2010Prop56
140
1.0
102
RTVSPost2010PropOp56
 70
     0
102
RTVSPost2010Prop57
140
1.0
102
RTVSPost2010PropOp57
 70
     0
102
RTVSPropertyOp0
 70
     0
102
RTVSPropertyOp1
 70
     0
102
RTVSPropertyOp2
 70
     0
102
RTVSPropertyOp3
 70
     0
102
RTVSPropertyOp4
 70
     0
102
RTVSPropertyOp5
 70
     0
102
RTVSPropertyOp6
 70
     0
102
RTVSPropertyOp7
 70
     0
102
RTVSPropertyOp8
 70
     0
102
RTVSPropertyOp9
 70
     0
102
RTVSPropertyOp10
 70
     0
102
RTVSPropertyOp11
 70
     0
102
RTVSPropertyOp12
 70
     0
102
RTVSPropertyOp13
 70
     0
102
RTVSPropertyOp14
 70
     2
102
RTVSPropertyOp15
 70
     0
102
RTVSPropertyOp16
 70
     0
102
RTVSPropertyOp17
 70
     0
102
RTVSPropertyOp18
 70
     0
102
RTVSPropertyOp19
 70
     0
102
RTVSPropertyOp20
 70
     0
102
RTVSPropertyOp21
 70
     0
102
RTVSPropertyOp22
 70
     0
102
RTVSPropertyOp23
 70
     0
102
RTVSPropertyOp24
 70
     0
102
RTVSPropertyOp25
 70
     0
102
RTVSPropertyOp26
 70
     0
102
RTVSPropertyOp27
 70
     0
102
RTVSPropertyOp28
 70
     1
102
RTVSPropertyOp29
 70
     1
102
RTVSPropertyOp30
 70
     1
102
RTVSPropertyOp31
 70
     1
102
RTVSPropertyOp32
 70
     1
102
RTVSPropertyOp33
 70
     1
102
RTVSPropertyOp34
 70
     1
102
RTVSPropertyOp35
 70
     1
102
RTVSPropertyOp36
 70
     1
102
RTVSPropertyOp37
 70
     0
102
RTVSPropertyOp38
 70
     0
102
RTVSPropertyOp39
 70
     0
102
RTVSPropertyOp40
 70
     0
102
RTVSPropertyOp41
 70
     0
102
RTVSPropertyOp42
 70
     0
102
RTVSPropertyOp43
 70
     0
102
RTVSPropertyOp44
 70
     0
102
RTVSPropertyOp45
 70
     1
102
RTVSPropertyOp46
 70
     0
102
RTVSPropertyOp47
 70
     0
102
RTVSPropertyOp48
 70
     0
102
RTVSPropertyOp49
 70
     1
102
RTVSPropertyOp50
 70
     0
102
RTVSPropertyOp51
 70
     0
102
RTVSPropertyOp52
 70
     0
102
RTVSPropertyOp53
 70
     0
102
RTVSPropertyOp54
 70
     0
102
RTVSPropertyOp55
 70
     1
102
RTVSPropertyOp56
 70
     0
102
RTVSPropertyOp57
 70
     0
102
RTVSPropertyOp58
 70
     0
102
RTVSPropertyOp59
 70
     0
102
RTVSPropertyOp60
 70
     0
102
RTVSPropertyOp61
 70
     0
102
RTVSPropertyOp62
 70
     0
  0
XRECORD
  5
A963
102
{ACAD_REACTORS
330
A962
102
}
330
A962
100
AcDbXrecord
280
     1
102
RTVSPost2010Prop28
280
     0
102
RTVSPost2010PropOp28
 70
     1
102
RTVSPost2010Prop29
280
     1
102
RTVSPost2010PropOp29
 70
     1
102
RTVSPost2010Prop30
280
     1
102
RTVSPost2010PropOp30
 70
     1
102
RTVSPost2010Prop31
280
     0
102
RTVSPost2010PropOp31
 70
     1
102
RTVSPost2010Prop32
280
     0
102
RTVSPost2010PropOp32
 70
     1
102
RTVSPost2010Prop33
280
     0
102
RTVSPost2010PropOp33
 70
     1
102
RTVSPost2010Prop34
280
     0
102
RTVSPost2010PropOp34
 70
     1
102
RTVSPost2010Prop35
280
     0
102
RTVSPost2010PropOp35
 70
     1
102
RTVSPost2010Prop36
280
     0
102
RTVSPost2010PropOp36
 70
     1
102
RTVSPost2010Prop37
 90
       50
102
RTVSPost2010PropOp37
 70
     1
102
RTVSPost2010Prop38
140
0.0
102
RTVSPost2010PropOp38
 70
     1
102
RTVSPost2010Prop39
140
1.0
102
RTVSPost2010PropOp39
 70
     1
102
RTVSPost2010Prop40
 90
        0
102
RTVSPost2010PropOp40
 70
     1
102
RTVSPost2010Prop41ColorIndex
 90
       18
102
RTVSPost2010Prop41ColorRGB
 90
        0
102
RTVSPost2010PropOp41
 70
     1
102
RTVSPost2010Prop42
 90
       50
102
RTVSPost2010PropOp42
 70
     1
102
RTVSPost2010Prop43
 90
        3
102
RTVSPost2010PropOp43
 70
     1
102
RTVSPost2010Prop44ColorIndex
 90
        5
102
RTVSPost2010Prop44ColorRGB
 90
      255
102
RTVSPost2010PropOp44
 70
     1
102
RTVSPost2010Prop45
280
     0
102
RTVSPost2010PropOp45
 70
     1
102
RTVSPost2010Prop46
 90
       50
102
RTVSPost2010PropOp46
 70
     1
102
RTVSPost2010Prop47
 90
       50
102
RTVSPost2010PropOp47
 70
     1
102
RTVSPost2010Prop48
 90
       50
102
RTVSPost2010PropOp48
 70
     1
102
RTVSPost2010Prop49
280
     0
102
RTVSPost2010PropOp49
 70
     1
102
RTVSPost2010Prop50
 90
       50
102
RTVSPost2010PropOp50
 70
     1
102
RTVSPost2010Prop51ColorIndex
 90
      256
102
RTVSPost2010Prop51ColorRGB
 90
-16777216
102
RTVSPost2010PropOp51
 70
     0
102
RTVSPost2010Prop52
140
1.0
102
RTVSPost2010PropOp52
 70
     0
102
RTVSPost2010Prop53
 90
        2
102
RTVSPost2010PropOp53
 70
     1
102
RTVSPost2010Prop54
  1
strokes_ogs.tif
102
RTVSPost2010PropOp54
 70
     1
102
RTVSPost2010Prop55
280
     0
102
RTVSPost2010PropOp55
 70
     1
102
RTVSPost2010Prop56
140
1.0
102
RTVSPost2010PropOp56
 70
     1
102
RTVSPost2010Prop57
140
1.0
102
RTVSPost2010PropOp57
 70
     1
102
RTVSPropertyOp0
 70
     1
102
RTVSPropertyOp1
 70
     1
102
RTVSPropertyOp2
 70
     1
102
RTVSPropertyOp3
 70
     1
102
RTVSPropertyOp4
 70
     1
102
RTVSPropertyOp5
 70
     1
102
RTVSPropertyOp6
 70
     1
102
RTVSPropertyOp7
 70
     1
102
RTVSPropertyOp8
 70
     1
102
RTVSPropertyOp9
 70
     1
102
RTVSPropertyOp10
 70
     1
102
RTVSPropertyOp11
 70
     1
102
RTVSPropertyOp12
 70
     1
102
RTVSPropertyOp13
 70
     1
102
RTVSPropertyOp14
 70
     1
102
RTVSPropertyOp15
 70
     1
102
RTVSPropertyOp16
 70
     1
102
RTVSPropertyOp17
 70
     1
102
RTVSPropertyOp18
 70
     1
102
RTVSPropertyOp19
 70
     1
102
RTVSPropertyOp20
 70
     1
102
RTVSPropertyOp21
 70
     1
102
RTVSPropertyOp22
 70
     1
102
RTVSPropertyOp23
 70
     1
102
RTVSPropertyOp24
 70
     1
102
RTVSPropertyOp25
 70
     1
102
RTVSPropertyOp26
 70
     1
102
RTVSPropertyOp27
 70
     1
102
RTVSPropertyOp28
 70
     1
102
RTVSPropertyOp29
 70
     1
102
RTVSPropertyOp30
 70
     1
102
RTVSPropertyOp31
 70
     1
102
RTVSPropertyOp32
 70
     1
102
RTVSPropertyOp33
 70
     1
102
RTVSPropertyOp34
 70
     1
102
RTVSPropertyOp35
 70
     1
102
RTVSPropertyOp36
 70
     1
102
RTVSPropertyOp37
 70
     1
102
RTVSPropertyOp38
 70
     1
102
RTVSPropertyOp39
 70
     1
102
RTVSPropertyOp40
 70
     1
102
RTVSPropertyOp41
 70
     1
102
RTVSPropertyOp42
 70
     1
102
RTVSPropertyOp43
 70
     1
102
RTVSPropertyOp44
 70
     1
102
RTVSPropertyOp45
 70
     1
102
RTVSPropertyOp46
 70
     1
102
RTVSPropertyOp47
 70
     1
102
RTVSPropertyOp48
 70
     1
102
RTVSPropertyOp49
 70
     1
102
RTVSPropertyOp50
 70
     1
102
RTVSPropertyOp51
 70
     0
102
RTVSPropertyOp52
 70
     0
102
RTVSPropertyOp53
 70
     1
102
RTVSPropertyOp54
 70
     1
102
RTVSPropertyOp55
 70
     1
102
RTVSPropertyOp56
 70
     1
102
RTVSPropertyOp57
 70
     1
102
RTVSPropertyOp58
 70
     1
102
RTVSPropertyOp59
 70
     1
102
RTVSPropertyOp60
 70
     1
102
RTVSPropertyOp61
 70
     1
102
RTVSPropertyOp62
 70
     1
  0
XRECORD
  5
A979
102
{ACAD_REACTORS
330
A978
102
}
330
A978
100
AcDbXrecord
280
     1
102
RTVSPost2010Prop28
280
     0
102
RTVSPost2010PropOp28
 70
     1
102
RTVSPost2010Prop29
280
     1
102
RTVSPost2010PropOp29
 70
     1
102
RTVSPost2010Prop30
280
     1
102
RTVSPost2010PropOp30
 70
     1
102
RTVSPost2010Prop31
280
     0
102
RTVSPost2010PropOp31
 70
     1
102
RTVSPost2010Prop32
280
     0
102
RTVSPost2010PropOp32
 70
     1
102
RTVSPost2010Prop33
280
     0
102
RTVSPost2010PropOp33
 70
     1
102
RTVSPost2010Prop34
280
     0
102
RTVSPost2010PropOp34
 70
     1
102
RTVSPost2010Prop35
280
     0
102
RTVSPost2010PropOp35
 70
     1
102
RTVSPost2010Prop36
280
     0
102
RTVSPost2010PropOp36
 70
     1
102
RTVSPost2010Prop37
 90
       50
102
RTVSPost2010PropOp37
 70
     1
102
RTVSPost2010Prop38
140
0.0
102
RTVSPost2010PropOp38
 70
     1
102
RTVSPost2010Prop39
140
1.0
102
RTVSPost2010PropOp39
 70
     1
102
RTVSPost2010Prop40
 90
        0
102
RTVSPost2010PropOp40
 70
     1
102
RTVSPost2010Prop41ColorIndex
 90
       18
102
RTVSPost2010Prop41ColorRGB
 90
        0
102
RTVSPost2010PropOp41
 70
     1
102
RTVSPost2010Prop42
 90
       50
102
RTVSPost2010PropOp42
 70
     1
102
RTVSPost2010Prop43
 90
        3
102
RTVSPost2010PropOp43
 70
     1
102
RTVSPost2010Prop44ColorIndex
 90
        5
102
RTVSPost2010Prop44ColorRGB
 90
      255
102
RTVSPost2010PropOp44
 70
     1
102
RTVSPost2010Prop45
280
     0
102
RTVSPost2010PropOp45
 70
     1
102
RTVSPost2010Prop46
 90
       50
102
RTVSPost2010PropOp46
 70
     1
102
RTVSPost2010Prop47
 90
       50
102
RTVSPost2010PropOp47
 70
     1
102
RTVSPost2010Prop48
 90
       50
102
RTVSPost2010PropOp48
 70
     1
102
RTVSPost2010Prop49
280
     0
102
RTVSPost2010PropOp49
 70
     1
102
RTVSPost2010Prop50
 90
       50
102
RTVSPost2010PropOp50
 70
     1
102
RTVSPost2010Prop51ColorIndex
 90
      256
102
RTVSPost2010Prop51ColorRGB
 90
-16777216
102
RTVSPost2010PropOp51
 70
     0
102
RTVSPost2010Prop52
140
1.0
102
RTVSPost2010PropOp52
 70
     0
102
RTVSPost2010Prop53
 90
        2
102
RTVSPost2010PropOp53
 70
     1
102
RTVSPost2010Prop54
  1
strokes_ogs.tif
102
RTVSPost2010PropOp54
 70
     1
102
RTVSPost2010Prop55
280
     0
102
RTVSPost2010PropOp55
 70
     1
102
RTVSPost2010Prop56
140
1.0
102
RTVSPost2010PropOp56
 70
     1
102
RTVSPost2010Prop57
140
1.0
102
RTVSPost2010PropOp57
 70
     1
102
RTVSPropertyOp0
 70
     1
102
RTVSPropertyOp1
 70
     1
102
RTVSPropertyOp2
 70
     1
102
RTVSPropertyOp3
 70
     1
102
RTVSPropertyOp4
 70
     1
102
RTVSPropertyOp5
 70
     1
102
RTVSPropertyOp6
 70
     1
102
RTVSPropertyOp7
 70
     1
102
RTVSPropertyOp8
 70
     1
102
RTVSPropertyOp9
 70
     1
102
RTVSPropertyOp10
 70
     1
102
RTVSPropertyOp11
 70
     1
102
RTVSPropertyOp12
 70
     1
102
RTVSPropertyOp13
 70
     1
102
RTVSPropertyOp14
 70
     1
102
RTVSPropertyOp15
 70
     1
102
RTVSPropertyOp16
 70
     1
102
RTVSPropertyOp17
 70
     1
102
RTVSPropertyOp18
 70
     1
102
RTVSPropertyOp19
 70
     1
102
RTVSPropertyOp20
 70
     1
102
RTVSPropertyOp21
 70
     1
102
RTVSPropertyOp22
 70
     1
102
RTVSPropertyOp23
 70
     1
102
RTVSPropertyOp24
 70
     1
102
RTVSPropertyOp25
 70
     1
102
RTVSPropertyOp26
 70
     1
102
RTVSPropertyOp27
 70
     1
102
RTVSPropertyOp28
 70
     1
102
RTVSPropertyOp29
 70
     1
102
RTVSPropertyOp30
 70
     1
102
RTVSPropertyOp31
 70
     1
102
RTVSPropertyOp32
 70
     1
102
RTVSPropertyOp33
 70
     1
102
RTVSPropertyOp34
 70
     1
102
RTVSPropertyOp35
 70
     1
102
RTVSPropertyOp36
 70
     1
102
RTVSPropertyOp37
 70
     1
102
RTVSPropertyOp38
 70
     1
102
RTVSPropertyOp39
 70
     1
102
RTVSPropertyOp40
 70
     1
102
RTVSPropertyOp41
 70
     1
102
RTVSPropertyOp42
 70
     1
102
RTVSPropertyOp43
 70
     1
102
RTVSPropertyOp44
 70
     1
102
RTVSPropertyOp45
 70
     1
102
RTVSPropertyOp46
 70
     1
102
RTVSPropertyOp47
 70
     1
102
RTVSPropertyOp48
 70
     1
102
RTVSPropertyOp49
 70
     1
102
RTVSPropertyOp50
 70
     1
102
RTVSPropertyOp51
 70
     0
102
RTVSPropertyOp52
 70
     0
102
RTVSPropertyOp53
 70
     1
102
RTVSPropertyOp54
 70
     1
102
RTVSPropertyOp55
 70
     1
102
RTVSPropertyOp56
 70
     1
102
RTVSPropertyOp57
 70
     1
102
RTVSPropertyOp58
 70
     1
102
RTVSPropertyOp59
 70
     1
102
RTVSPropertyOp60
 70
     1
102
RTVSPropertyOp61
 70
     1
102
RTVSPropertyOp62
 70
     1
  0
XRECORD
  5
A977
102
{ACAD_REACTORS
330
A976
102
}
330
A976
100
AcDbXrecord
280
     1
102
RTVSPost2010Prop28
280
     0
102
RTVSPost2010PropOp28
 70
     1
102
RTVSPost2010Prop29
280
     1
102
RTVSPost2010PropOp29
 70
     1
102
RTVSPost2010Prop30
280
     1
102
RTVSPost2010PropOp30
 70
     1
102
RTVSPost2010Prop31
280
     0
102
RTVSPost2010PropOp31
 70
     1
102
RTVSPost2010Prop32
280
     0
102
RTVSPost2010PropOp32
 70
     1
102
RTVSPost2010Prop33
280
     0
102
RTVSPost2010PropOp33
 70
     1
102
RTVSPost2010Prop34
280
     0
102
RTVSPost2010PropOp34
 70
     1
102
RTVSPost2010Prop35
280
     0
102
RTVSPost2010PropOp35
 70
     1
102
RTVSPost2010Prop36
280
     0
102
RTVSPost2010PropOp36
 70
     1
102
RTVSPost2010Prop37
 90
       50
102
RTVSPost2010PropOp37
 70
     1
102
RTVSPost2010Prop38
140
0.0
102
RTVSPost2010PropOp38
 70
     1
102
RTVSPost2010Prop39
140
1.0
102
RTVSPost2010PropOp39
 70
     1
102
RTVSPost2010Prop40
 90
        0
102
RTVSPost2010PropOp40
 70
     1
102
RTVSPost2010Prop41ColorIndex
 90
       18
102
RTVSPost2010Prop41ColorRGB
 90
        0
102
RTVSPost2010PropOp41
 70
     1
102
RTVSPost2010Prop42
 90
       50
102
RTVSPost2010PropOp42
 70
     1
102
RTVSPost2010Prop43
 90
        3
102
RTVSPost2010PropOp43
 70
     1
102
RTVSPost2010Prop44ColorIndex
 90
        5
102
RTVSPost2010Prop44ColorRGB
 90
      255
102
RTVSPost2010PropOp44
 70
     1
102
RTVSPost2010Prop45
280
     0
102
RTVSPost2010PropOp45
 70
     1
102
RTVSPost2010Prop46
 90
       50
102
RTVSPost2010PropOp46
 70
     1
102
RTVSPost2010Prop47
 90
       50
102
RTVSPost2010PropOp47
 70
     1
102
RTVSPost2010Prop48
 90
       50
102
RTVSPost2010PropOp48
 70
     1
102
RTVSPost2010Prop49
280
     0
102
RTVSPost2010PropOp49
 70
     1
102
RTVSPost2010Prop50
 90
       50
102
RTVSPost2010PropOp50
 70
     1
102
RTVSPost2010Prop51ColorIndex
 90
      256
102
RTVSPost2010Prop51ColorRGB
 90
-16777216
102
RTVSPost2010PropOp51
 70
     0
102
RTVSPost2010Prop52
140
1.0
102
RTVSPost2010PropOp52
 70
     0
102
RTVSPost2010Prop53
 90
        2
102
RTVSPost2010PropOp53
 70
     1
102
RTVSPost2010Prop54
  1
strokes_ogs.tif
102
RTVSPost2010PropOp54
 70
     1
102
RTVSPost2010Prop55
280
     0
102
RTVSPost2010PropOp55
 70
     1
102
RTVSPost2010Prop56
140
1.0
102
RTVSPost2010PropOp56
 70
     1
102
RTVSPost2010Prop57
140
1.0
102
RTVSPost2010PropOp57
 70
     1
102
RTVSPropertyOp0
 70
     1
102
RTVSPropertyOp1
 70
     1
102
RTVSPropertyOp2
 70
     1
102
RTVSPropertyOp3
 70
     1
102
RTVSPropertyOp4
 70
     1
102
RTVSPropertyOp5
 70
     1
102
RTVSPropertyOp6
 70
     1
102
RTVSPropertyOp7
 70
     1
102
RTVSPropertyOp8
 70
     1
102
RTVSPropertyOp9
 70
     1
102
RTVSPropertyOp10
 70
     1
102
RTVSPropertyOp11
 70
     1
102
RTVSPropertyOp12
 70
     1
102
RTVSPropertyOp13
 70
     1
102
RTVSPropertyOp14
 70
     1
102
RTVSPropertyOp15
 70
     1
102
RTVSPropertyOp16
 70
     1
102
RTVSPropertyOp17
 70
     1
102
RTVSPropertyOp18
 70
     1
102
RTVSPropertyOp19
 70
     1
102
RTVSPropertyOp20
 70
     1
102
RTVSPropertyOp21
 70
     1
102
RTVSPropertyOp22
 70
     1
102
RTVSPropertyOp23
 70
     1
102
RTVSPropertyOp24
 70
     1
102
RTVSPropertyOp25
 70
     1
102
RTVSPropertyOp26
 70
     1
102
RTVSPropertyOp27
 70
     1
102
RTVSPropertyOp28
 70
     1
102
RTVSPropertyOp29
 70
     1
102
RTVSPropertyOp30
 70
     1
102
RTVSPropertyOp31
 70
     1
102
RTVSPropertyOp32
 70
     1
102
RTVSPropertyOp33
 70
     1
102
RTVSPropertyOp34
 70
     1
102
RTVSPropertyOp35
 70
     1
102
RTVSPropertyOp36
 70
     1
102
RTVSPropertyOp37
 70
     1
102
RTVSPropertyOp38
 70
     1
102
RTVSPropertyOp39
 70
     1
102
RTVSPropertyOp40
 70
     1
102
RTVSPropertyOp41
 70
     1
102
RTVSPropertyOp42
 70
     1
102
RTVSPropertyOp43
 70
     1
102
RTVSPropertyOp44
 70
     1
102
RTVSPropertyOp45
 70
     1
102
RTVSPropertyOp46
 70
     1
102
RTVSPropertyOp47
 70
     1
102
RTVSPropertyOp48
 70
     1
102
RTVSPropertyOp49
 70
     1
102
RTVSPropertyOp50
 70
     1
102
RTVSPropertyOp51
 70
     0
102
RTVSPropertyOp52
 70
     0
102
RTVSPropertyOp53
 70
     1
102
RTVSPropertyOp54
 70
     1
102
RTVSPropertyOp55
 70
     1
102
RTVSPropertyOp56
 70
     1
102
RTVSPropertyOp57
 70
     1
102
RTVSPropertyOp58
 70
     1
102
RTVSPropertyOp59
 70
     1
102
RTVSPropertyOp60
 70
     1
102
RTVSPropertyOp61
 70
     1
102
RTVSPropertyOp62
 70
     1
  0
XRECORD
  5
A971
102
{ACAD_REACTORS
330
A970
102
}
330
A970
100
AcDbXrecord
280
     1
102
RTVSPost2010Prop28
280
     0
102
RTVSPost2010PropOp28
 70
     1
102
RTVSPost2010Prop29
280
     1
102
RTVSPost2010PropOp29
 70
     1
102
RTVSPost2010Prop30
280
     1
102
RTVSPost2010PropOp30
 70
     1
102
RTVSPost2010Prop31
280
     0
102
RTVSPost2010PropOp31
 70
     1
102
RTVSPost2010Prop32
280
     0
102
RTVSPost2010PropOp32
 70
     1
102
RTVSPost2010Prop33
280
     0
102
RTVSPost2010PropOp33
 70
     1
102
RTVSPost2010Prop34
280
     0
102
RTVSPost2010PropOp34
 70
     1
102
RTVSPost2010Prop35
280
     0
102
RTVSPost2010PropOp35
 70
     1
102
RTVSPost2010Prop36
280
     0
102
RTVSPost2010PropOp36
 70
     1
102
RTVSPost2010Prop37
 90
       50
102
RTVSPost2010PropOp37
 70
     1
102
RTVSPost2010Prop38
140
0.0
102
RTVSPost2010PropOp38
 70
     1
102
RTVSPost2010Prop39
140
1.0
102
RTVSPost2010PropOp39
 70
     1
102
RTVSPost2010Prop40
 90
        0
102
RTVSPost2010PropOp40
 70
     1
102
RTVSPost2010Prop41ColorIndex
 90
       18
102
RTVSPost2010Prop41ColorRGB
 90
        0
102
RTVSPost2010PropOp41
 70
     1
102
RTVSPost2010Prop42
 90
       50
102
RTVSPost2010PropOp42
 70
     1
102
RTVSPost2010Prop43
 90
        3
102
RTVSPost2010PropOp43
 70
     1
102
RTVSPost2010Prop44ColorIndex
 90
        5
102
RTVSPost2010Prop44ColorRGB
 90
      255
102
RTVSPost2010PropOp44
 70
     1
102
RTVSPost2010Prop45
280
     0
102
RTVSPost2010PropOp45
 70
     1
102
RTVSPost2010Prop46
 90
       50
102
RTVSPost2010PropOp46
 70
     1
102
RTVSPost2010Prop47
 90
       50
102
RTVSPost2010PropOp47
 70
     1
102
RTVSPost2010Prop48
 90
       50
102
RTVSPost2010PropOp48
 70
     1
102
RTVSPost2010Prop49
280
     0
102
RTVSPost2010PropOp49
 70
     1
102
RTVSPost2010Prop50
 90
       50
102
RTVSPost2010PropOp50
 70
     1
102
RTVSPost2010Prop51ColorIndex
 90
      256
102
RTVSPost2010Prop51ColorRGB
 90
-16777216
102
RTVSPost2010PropOp51
 70
     0
102
RTVSPost2010Prop52
140
1.0
102
RTVSPost2010PropOp52
 70
     0
102
RTVSPost2010Prop53
 90
        2
102
RTVSPost2010PropOp53
 70
     1
102
RTVSPost2010Prop54
  1
strokes_ogs.tif
102
RTVSPost2010PropOp54
 70
     1
102
RTVSPost2010Prop55
280
     0
102
RTVSPost2010PropOp55
 70
     1
102
RTVSPost2010Prop56
140
1.0
102
RTVSPost2010PropOp56
 70
     1
102
RTVSPost2010Prop57
140
1.0
102
RTVSPost2010PropOp57
 70
     1
102
RTVSPropertyOp0
 70
     1
102
RTVSPropertyOp1
 70
     1
102
RTVSPropertyOp2
 70
     1
102
RTVSPropertyOp3
 70
     1
102
RTVSPropertyOp4
 70
     1
102
RTVSPropertyOp5
 70
     1
102
RTVSPropertyOp6
 70
     1
102
RTVSPropertyOp7
 70
     1
102
RTVSPropertyOp8
 70
     1
102
RTVSPropertyOp9
 70
     1
102
RTVSPropertyOp10
 70
     1
102
RTVSPropertyOp11
 70
     1
102
RTVSPropertyOp12
 70
     1
102
RTVSPropertyOp13
 70
     1
102
RTVSPropertyOp14
 70
     1
102
RTVSPropertyOp15
 70
     1
102
RTVSPropertyOp16
 70
     1
102
RTVSPropertyOp17
 70
     1
102
RTVSPropertyOp18
 70
     1
102
RTVSPropertyOp19
 70
     1
102
RTVSPropertyOp20
 70
     1
102
RTVSPropertyOp21
 70
     1
102
RTVSPropertyOp22
 70
     1
102
RTVSPropertyOp23
 70
     1
102
RTVSPropertyOp24
 70
     1
102
RTVSPropertyOp25
 70
     1
102
RTVSPropertyOp26
 70
     1
102
RTVSPropertyOp27
 70
     1
102
RTVSPropertyOp28
 70
     1
102
RTVSPropertyOp29
 70
     1
102
RTVSPropertyOp30
 70
     1
102
RTVSPropertyOp31
 70
     1
102
RTVSPropertyOp32
 70
     1
102
RTVSPropertyOp33
 70
     1
102
RTVSPropertyOp34
 70
     1
102
RTVSPropertyOp35
 70
     1
102
RTVSPropertyOp36
 70
     1
102
RTVSPropertyOp37
 70
     1
102
RTVSPropertyOp38
 70
     1
102
RTVSPropertyOp39
 70
     1
102
RTVSPropertyOp40
 70
     1
102
RTVSPropertyOp41
 70
     1
102
RTVSPropertyOp42
 70
     1
102
RTVSPropertyOp43
 70
     1
102
RTVSPropertyOp44
 70
     1
102
RTVSPropertyOp45
 70
     1
102
RTVSPropertyOp46
 70
     1
102
RTVSPropertyOp47
 70
     1
102
RTVSPropertyOp48
 70
     1
102
RTVSPropertyOp49
 70
     1
102
RTVSPropertyOp50
 70
     1
102
RTVSPropertyOp51
 70
     0
102
RTVSPropertyOp52
 70
     0
102
RTVSPropertyOp53
 70
     1
102
RTVSPropertyOp54
 70
     1
102
RTVSPropertyOp55
 70
     1
102
RTVSPropertyOp56
 70
     1
102
RTVSPropertyOp57
 70
     1
102
RTVSPropertyOp58
 70
     1
102
RTVSPropertyOp59
 70
     1
102
RTVSPropertyOp60
 70
     1
102
RTVSPropertyOp61
 70
     1
102
RTVSPropertyOp62
 70
     1
  0
XRECORD
  5
A973
102
{ACAD_REACTORS
330
A972
102
}
330
A972
100
AcDbXrecord
280
     1
102
RTVSPost2010Prop28
280
     0
102
RTVSPost2010PropOp28
 70
     1
102
RTVSPost2010Prop29
280
     1
102
RTVSPost2010PropOp29
 70
     1
102
RTVSPost2010Prop30
280
     1
102
RTVSPost2010PropOp30
 70
     1
102
RTVSPost2010Prop31
280
     0
102
RTVSPost2010PropOp31
 70
     1
102
RTVSPost2010Prop32
280
     0
102
RTVSPost2010PropOp32
 70
     1
102
RTVSPost2010Prop33
280
     0
102
RTVSPost2010PropOp33
 70
     1
102
RTVSPost2010Prop34
280
     0
102
RTVSPost2010PropOp34
 70
     1
102
RTVSPost2010Prop35
280
     0
102
RTVSPost2010PropOp35
 70
     1
102
RTVSPost2010Prop36
280
     0
102
RTVSPost2010PropOp36
 70
     1
102
RTVSPost2010Prop37
 90
       50
102
RTVSPost2010PropOp37
 70
     1
102
RTVSPost2010Prop38
140
0.0
102
RTVSPost2010PropOp38
 70
     1
102
RTVSPost2010Prop39
140
1.0
102
RTVSPost2010PropOp39
 70
     1
102
RTVSPost2010Prop40
 90
        0
102
RTVSPost2010PropOp40
 70
     1
102
RTVSPost2010Prop41ColorIndex
 90
       18
102
RTVSPost2010Prop41ColorRGB
 90
        0
102
RTVSPost2010PropOp41
 70
     1
102
RTVSPost2010Prop42
 90
       50
102
RTVSPost2010PropOp42
 70
     1
102
RTVSPost2010Prop43
 90
        3
102
RTVSPost2010PropOp43
 70
     1
102
RTVSPost2010Prop44ColorIndex
 90
        5
102
RTVSPost2010Prop44ColorRGB
 90
      255
102
RTVSPost2010PropOp44
 70
     1
102
RTVSPost2010Prop45
280
     0
102
RTVSPost2010PropOp45
 70
     1
102
RTVSPost2010Prop46
 90
       50
102
RTVSPost2010PropOp46
 70
     1
102
RTVSPost2010Prop47
 90
       50
102
RTVSPost2010PropOp47
 70
     1
102
RTVSPost2010Prop48
 90
       50
102
RTVSPost2010PropOp48
 70
     1
102
RTVSPost2010Prop49
280
     0
102
RTVSPost2010PropOp49
 70
     1
102
RTVSPost2010Prop50
 90
       50
102
RTVSPost2010PropOp50
 70
     1
102
RTVSPost2010Prop51ColorIndex
 90
      256
102
RTVSPost2010Prop51ColorRGB
 90
-16777216
102
RTVSPost2010PropOp51
 70
     0
102
RTVSPost2010Prop52
140
1.0
102
RTVSPost2010PropOp52
 70
     0
102
RTVSPost2010Prop53
 90
        2
102
RTVSPost2010PropOp53
 70
     1
102
RTVSPost2010Prop54
  1
strokes_ogs.tif
102
RTVSPost2010PropOp54
 70
     1
102
RTVSPost2010Prop55
280
     0
102
RTVSPost2010PropOp55
 70
     1
102
RTVSPost2010Prop56
140
1.0
102
RTVSPost2010PropOp56
 70
     1
102
RTVSPost2010Prop57
140
1.0
102
RTVSPost2010PropOp57
 70
     1
102
RTVSPropertyOp0
 70
     1
102
RTVSPropertyOp1
 70
     1
102
RTVSPropertyOp2
 70
     1
102
RTVSPropertyOp3
 70
     1
102
RTVSPropertyOp4
 70
     1
102
RTVSPropertyOp5
 70
     1
102
RTVSPropertyOp6
 70
     1
102
RTVSPropertyOp7
 70
     1
102
RTVSPropertyOp8
 70
     1
102
RTVSPropertyOp9
 70
     1
102
RTVSPropertyOp10
 70
     1
102
RTVSPropertyOp11
 70
     1
102
RTVSPropertyOp12
 70
     1
102
RTVSPropertyOp13
 70
     1
102
RTVSPropertyOp14
 70
     1
102
RTVSPropertyOp15
 70
     1
102
RTVSPropertyOp16
 70
     1
102
RTVSPropertyOp17
 70
     1
102
RTVSPropertyOp18
 70
     1
102
RTVSPropertyOp19
 70
     1
102
RTVSPropertyOp20
 70
     1
102
RTVSPropertyOp21
 70
     1
102
RTVSPropertyOp22
 70
     1
102
RTVSPropertyOp23
 70
     1
102
RTVSPropertyOp24
 70
     1
102
RTVSPropertyOp25
 70
     1
102
RTVSPropertyOp26
 70
     1
102
RTVSPropertyOp27
 70
     1
102
RTVSPropertyOp28
 70
     1
102
RTVSPropertyOp29
 70
     1
102
RTVSPropertyOp30
 70
     1
102
RTVSPropertyOp31
 70
     1
102
RTVSPropertyOp32
 70
     1
102
RTVSPropertyOp33
 70
     1
102
RTVSPropertyOp34
 70
     1
102
RTVSPropertyOp35
 70
     1
102
RTVSPropertyOp36
 70
     1
102
RTVSPropertyOp37
 70
     1
102
RTVSPropertyOp38
 70
     1
102
RTVSPropertyOp39
 70
     1
102
RTVSPropertyOp40
 70
     1
102
RTVSPropertyOp41
 70
     1
102
RTVSPropertyOp42
 70
     1
102
RTVSPropertyOp43
 70
     1
102
RTVSPropertyOp44
 70
     1
102
RTVSPropertyOp45
 70
     1
102
RTVSPropertyOp46
 70
     1
102
RTVSPropertyOp47
 70
     1
102
RTVSPropertyOp48
 70
     1
102
RTVSPropertyOp49
 70
     1
102
RTVSPropertyOp50
 70
     1
102
RTVSPropertyOp51
 70
     0
102
RTVSPropertyOp52
 70
     0
102
RTVSPropertyOp53
 70
     1
102
RTVSPropertyOp54
 70
     1
102
RTVSPropertyOp55
 70
     1
102
RTVSPropertyOp56
 70
     1
102
RTVSPropertyOp57
 70
     1
102
RTVSPropertyOp58
 70
     1
102
RTVSPropertyOp59
 70
     1
102
RTVSPropertyOp60
 70
     1
102
RTVSPropertyOp61
 70
     1
102
RTVSPropertyOp62
 70
     1
  0
XRECORD
  5
A969
102
{ACAD_REACTORS
330
A968
102
}
330
A968
100
AcDbXrecord
280
     1
102
RTVSPost2010Prop28
280
     0
102
RTVSPost2010PropOp28
 70
     1
102
RTVSPost2010Prop29
280
     1
102
RTVSPost2010PropOp29
 70
     1
102
RTVSPost2010Prop30
280
     1
102
RTVSPost2010PropOp30
 70
     1
102
RTVSPost2010Prop31
280
     0
102
RTVSPost2010PropOp31
 70
     1
102
RTVSPost2010Prop32
280
     0
102
RTVSPost2010PropOp32
 70
     1
102
RTVSPost2010Prop33
280
     0
102
RTVSPost2010PropOp33
 70
     1
102
RTVSPost2010Prop34
280
     0
102
RTVSPost2010PropOp34
 70
     1
102
RTVSPost2010Prop35
280
     0
102
RTVSPost2010PropOp35
 70
     1
102
RTVSPost2010Prop36
280
     0
102
RTVSPost2010PropOp36
 70
     1
102
RTVSPost2010Prop37
 90
       50
102
RTVSPost2010PropOp37
 70
     1
102
RTVSPost2010Prop38
140
0.0
102
RTVSPost2010PropOp38
 70
     1
102
RTVSPost2010Prop39
140
1.0
102
RTVSPost2010PropOp39
 70
     1
102
RTVSPost2010Prop40
 90
        0
102
RTVSPost2010PropOp40
 70
     1
102
RTVSPost2010Prop41ColorIndex
 90
       18
102
RTVSPost2010Prop41ColorRGB
 90
        0
102
RTVSPost2010PropOp41
 70
     1
102
RTVSPost2010Prop42
 90
       50
102
RTVSPost2010PropOp42
 70
     1
102
RTVSPost2010Prop43
 90
        3
102
RTVSPost2010PropOp43
 70
     1
102
RTVSPost2010Prop44ColorIndex
 90
        5
102
RTVSPost2010Prop44ColorRGB
 90
      255
102
RTVSPost2010PropOp44
 70
     1
102
RTVSPost2010Prop45
280
     0
102
RTVSPost2010PropOp45
 70
     1
102
RTVSPost2010Prop46
 90
       50
102
RTVSPost2010PropOp46
 70
     1
102
RTVSPost2010Prop47
 90
       50
102
RTVSPost2010PropOp47
 70
     1
102
RTVSPost2010Prop48
 90
       50
102
RTVSPost2010PropOp48
 70
     1
102
RTVSPost2010Prop49
280
     0
102
RTVSPost2010PropOp49
 70
     1
102
RTVSPost2010Prop50
 90
       50
102
RTVSPost2010PropOp50
 70
     1
102
RTVSPost2010Prop51ColorIndex
 90
      256
102
RTVSPost2010Prop51ColorRGB
 90
-16777216
102
RTVSPost2010PropOp51
 70
     0
102
RTVSPost2010Prop52
140
1.0
102
RTVSPost2010PropOp52
 70
     0
102
RTVSPost2010Prop53
 90
        2
102
RTVSPost2010PropOp53
 70
     1
102
RTVSPost2010Prop54
  1
strokes_ogs.tif
102
RTVSPost2010PropOp54
 70
     1
102
RTVSPost2010Prop55
280
     0
102
RTVSPost2010PropOp55
 70
     1
102
RTVSPost2010Prop56
140
1.0
102
RTVSPost2010PropOp56
 70
     1
102
RTVSPost2010Prop57
140
1.0
102
RTVSPost2010PropOp57
 70
     1
102
RTVSPropertyOp0
 70
     1
102
RTVSPropertyOp1
 70
     1
102
RTVSPropertyOp2
 70
     1
102
RTVSPropertyOp3
 70
     1
102
RTVSPropertyOp4
 70
     1
102
RTVSPropertyOp5
 70
     1
102
RTVSPropertyOp6
 70
     1
102
RTVSPropertyOp7
 70
     1
102
RTVSPropertyOp8
 70
     1
102
RTVSPropertyOp9
 70
     1
102
RTVSPropertyOp10
 70
     1
102
RTVSPropertyOp11
 70
     1
102
RTVSPropertyOp12
 70
     1
102
RTVSPropertyOp13
 70
     1
102
RTVSPropertyOp14
 70
     1
102
RTVSPropertyOp15
 70
     1
102
RTVSPropertyOp16
 70
     1
102
RTVSPropertyOp17
 70
     1
102
RTVSPropertyOp18
 70
     1
102
RTVSPropertyOp19
 70
     1
102
RTVSPropertyOp20
 70
     1
102
RTVSPropertyOp21
 70
     1
102
RTVSPropertyOp22
 70
     1
102
RTVSPropertyOp23
 70
     1
102
RTVSPropertyOp24
 70
     1
102
RTVSPropertyOp25
 70
     1
102
RTVSPropertyOp26
 70
     1
102
RTVSPropertyOp27
 70
     1
102
RTVSPropertyOp28
 70
     1
102
RTVSPropertyOp29
 70
     1
102
RTVSPropertyOp30
 70
     1
102
RTVSPropertyOp31
 70
     1
102
RTVSPropertyOp32
 70
     1
102
RTVSPropertyOp33
 70
     1
102
RTVSPropertyOp34
 70
     1
102
RTVSPropertyOp35
 70
     1
102
RTVSPropertyOp36
 70
     1
102
RTVSPropertyOp37
 70
     1
102
RTVSPropertyOp38
 70
     1
102
RTVSPropertyOp39
 70
     1
102
RTVSPropertyOp40
 70
     1
102
RTVSPropertyOp41
 70
     1
102
RTVSPropertyOp42
 70
     1
102
RTVSPropertyOp43
 70
     1
102
RTVSPropertyOp44
 70
     1
102
RTVSPropertyOp45
 70
     1
102
RTVSPropertyOp46
 70
     1
102
RTVSPropertyOp47
 70
     1
102
RTVSPropertyOp48
 70
     1
102
RTVSPropertyOp49
 70
     1
102
RTVSPropertyOp50
 70
     1
102
RTVSPropertyOp51
 70
     0
102
RTVSPropertyOp52
 70
     0
102
RTVSPropertyOp53
 70
     1
102
RTVSPropertyOp54
 70
     1
102
RTVSPropertyOp55
 70
     1
102
RTVSPropertyOp56
 70
     1
102
RTVSPropertyOp57
 70
     1
102
RTVSPropertyOp58
 70
     1
102
RTVSPropertyOp59
 70
     1
102
RTVSPropertyOp60
 70
     1
102
RTVSPropertyOp61
 70
     1
102
RTVSPropertyOp62
 70
     1
  0
XRECORD
  5
A95D
102
{ACAD_REACTORS
330
A95C
102
}
330
A95C
100
AcDbXrecord
280
     1
102
RTVSPost2010Prop28
280
     0
102
RTVSPost2010PropOp28
 70
     1
102
RTVSPost2010Prop29
280
     1
102
RTVSPost2010PropOp29
 70
     1
102
RTVSPost2010Prop30
280
     1
102
RTVSPost2010PropOp30
 70
     1
102
RTVSPost2010Prop31
280
     0
102
RTVSPost2010PropOp31
 70
     1
102
RTVSPost2010Prop32
280
     0
102
RTVSPost2010PropOp32
 70
     1
102
RTVSPost2010Prop33
280
     0
102
RTVSPost2010PropOp33
 70
     1
102
RTVSPost2010Prop34
280
     0
102
RTVSPost2010PropOp34
 70
     1
102
RTVSPost2010Prop35
280
     0
102
RTVSPost2010PropOp35
 70
     1
102
RTVSPost2010Prop36
280
     0
102
RTVSPost2010PropOp36
 70
     1
102
RTVSPost2010Prop37
 90
       50
102
RTVSPost2010PropOp37
 70
     1
102
RTVSPost2010Prop38
140
0.0
102
RTVSPost2010PropOp38
 70
     1
102
RTVSPost2010Prop39
140
1.0
102
RTVSPost2010PropOp39
 70
     1
102
RTVSPost2010Prop40
 90
        0
102
RTVSPost2010PropOp40
 70
     1
102
RTVSPost2010Prop41ColorIndex
 90
       18
102
RTVSPost2010Prop41ColorRGB
 90
        0
102
RTVSPost2010PropOp41
 70
     1
102
RTVSPost2010Prop42
 90
       50
102
RTVSPost2010PropOp42
 70
     1
102
RTVSPost2010Prop43
 90
        3
102
RTVSPost2010PropOp43
 70
     1
102
RTVSPost2010Prop44ColorIndex
 90
        5
102
RTVSPost2010Prop44ColorRGB
 90
      255
102
RTVSPost2010PropOp44
 70
     1
102
RTVSPost2010Prop45
280
     0
102
RTVSPost2010PropOp45
 70
     1
102
RTVSPost2010Prop46
 90
       50
102
RTVSPost2010PropOp46
 70
     1
102
RTVSPost2010Prop47
 90
       50
102
RTVSPost2010PropOp47
 70
     1
102
RTVSPost2010Prop48
 90
       50
102
RTVSPost2010PropOp48
 70
     1
102
RTVSPost2010Prop49
280
     0
102
RTVSPost2010PropOp49
 70
     1
102
RTVSPost2010Prop50
 90
       50
102
RTVSPost2010PropOp50
 70
     1
102
RTVSPost2010Prop51ColorIndex
 90
      256
102
RTVSPost2010Prop51ColorRGB
 90
-16777216
102
RTVSPost2010PropOp51
 70
     0
102
RTVSPost2010Prop52
140
1.0
102
RTVSPost2010PropOp52
 70
     0
102
RTVSPost2010Prop53
 90
        2
102
RTVSPost2010PropOp53
 70
     1
102
RTVSPost2010Prop54
  1
strokes_ogs.tif
102
RTVSPost2010PropOp54
 70
     1
102
RTVSPost2010Prop55
280
     0
102
RTVSPost2010PropOp55
 70
     1
102
RTVSPost2010Prop56
140
1.0
102
RTVSPost2010PropOp56
 70
     1
102
RTVSPost2010Prop57
140
1.0
102
RTVSPost2010PropOp57
 70
     1
102
RTVSPropertyOp0
 70
     1
102
RTVSPropertyOp1
 70
     1
102
RTVSPropertyOp2
 70
     1
102
RTVSPropertyOp3
 70
     1
102
RTVSPropertyOp4
 70
     1
102
RTVSPropertyOp5
 70
     1
102
RTVSPropertyOp6
 70
     1
102
RTVSPropertyOp7
 70
     1
102
RTVSPropertyOp8
 70
     1
102
RTVSPropertyOp9
 70
     1
102
RTVSPropertyOp10
 70
     1
102
RTVSPropertyOp11
 70
     1
102
RTVSPropertyOp12
 70
     1
102
RTVSPropertyOp13
 70
     1
102
RTVSPropertyOp14
 70
     1
102
RTVSPropertyOp15
 70
     1
102
RTVSPropertyOp16
 70
     1
102
RTVSPropertyOp17
 70
     1
102
RTVSPropertyOp18
 70
     1
102
RTVSPropertyOp19
 70
     1
102
RTVSPropertyOp20
 70
     1
102
RTVSPropertyOp21
 70
     1
102
RTVSPropertyOp22
 70
     1
102
RTVSPropertyOp23
 70
     1
102
RTVSPropertyOp24
 70
     1
102
RTVSPropertyOp25
 70
     1
102
RTVSPropertyOp26
 70
     1
102
RTVSPropertyOp27
 70
     1
102
RTVSPropertyOp28
 70
     1
102
RTVSPropertyOp29
 70
     1
102
RTVSPropertyOp30
 70
     1
102
RTVSPropertyOp31
 70
     1
102
RTVSPropertyOp32
 70
     1
102
RTVSPropertyOp33
 70
     1
102
RTVSPropertyOp34
 70
     1
102
RTVSPropertyOp35
 70
     1
102
RTVSPropertyOp36
 70
     1
102
RTVSPropertyOp37
 70
     1
102
RTVSPropertyOp38
 70
     1
102
RTVSPropertyOp39
 70
     1
102
RTVSPropertyOp40
 70
     1
102
RTVSPropertyOp41
 70
     1
102
RTVSPropertyOp42
 70
     1
102
RTVSPropertyOp43
 70
     1
102
RTVSPropertyOp44
 70
     1
102
RTVSPropertyOp45
 70
     1
102
RTVSPropertyOp46
 70
     1
102
RTVSPropertyOp47
 70
     1
102
RTVSPropertyOp48
 70
     1
102
RTVSPropertyOp49
 70
     1
102
RTVSPropertyOp50
 70
     1
102
RTVSPropertyOp51
 70
     0
102
RTVSPropertyOp52
 70
     0
102
RTVSPropertyOp53
 70
     1
102
RTVSPropertyOp54
 70
     1
102
RTVSPropertyOp55
 70
     1
102
RTVSPropertyOp56
 70
     1
102
RTVSPropertyOp57
 70
     1
102
RTVSPropertyOp58
 70
     1
102
RTVSPropertyOp59
 70
     1
102
RTVSPropertyOp60
 70
     1
102
RTVSPropertyOp61
 70
     1
102
RTVSPropertyOp62
 70
     1
  0
XRECORD
  5
A975
102
{ACAD_REACTORS
330
A974
102
}
330
A974
100
AcDbXrecord
280
     1
102
RTVSPost2010Prop28
280
     0
102
RTVSPost2010PropOp28
 70
     1
102
RTVSPost2010Prop29
280
     1
102
RTVSPost2010PropOp29
 70
     1
102
RTVSPost2010Prop30
280
     1
102
RTVSPost2010PropOp30
 70
     1
102
RTVSPost2010Prop31
280
     0
102
RTVSPost2010PropOp31
 70
     1
102
RTVSPost2010Prop32
280
     0
102
RTVSPost2010PropOp32
 70
     1
102
RTVSPost2010Prop33
280
     0
102
RTVSPost2010PropOp33
 70
     1
102
RTVSPost2010Prop34
280
     0
102
RTVSPost2010PropOp34
 70
     1
102
RTVSPost2010Prop35
280
     0
102
RTVSPost2010PropOp35
 70
     1
102
RTVSPost2010Prop36
280
     0
102
RTVSPost2010PropOp36
 70
     1
102
RTVSPost2010Prop37
 90
       50
102
RTVSPost2010PropOp37
 70
     1
102
RTVSPost2010Prop38
140
0.0
102
RTVSPost2010PropOp38
 70
     1
102
RTVSPost2010Prop39
140
1.0
102
RTVSPost2010PropOp39
 70
     1
102
RTVSPost2010Prop40
 90
        0
102
RTVSPost2010PropOp40
 70
     1
102
RTVSPost2010Prop41ColorIndex
 90
       18
102
RTVSPost2010Prop41ColorRGB
 90
        0
102
RTVSPost2010PropOp41
 70
     1
102
RTVSPost2010Prop42
 90
       50
102
RTVSPost2010PropOp42
 70
     1
102
RTVSPost2010Prop43
 90
        3
102
RTVSPost2010PropOp43
 70
     1
102
RTVSPost2010Prop44ColorIndex
 90
        5
102
RTVSPost2010Prop44ColorRGB
 90
      255
102
RTVSPost2010PropOp44
 70
     1
102
RTVSPost2010Prop45
280
     0
102
RTVSPost2010PropOp45
 70
     1
102
RTVSPost2010Prop46
 90
       50
102
RTVSPost2010PropOp46
 70
     1
102
RTVSPost2010Prop47
 90
       50
102
RTVSPost2010PropOp47
 70
     1
102
RTVSPost2010Prop48
 90
       50
102
RTVSPost2010PropOp48
 70
     1
102
RTVSPost2010Prop49
280
     0
102
RTVSPost2010PropOp49
 70
     1
102
RTVSPost2010Prop50
 90
       50
102
RTVSPost2010PropOp50
 70
     1
102
RTVSPost2010Prop51ColorIndex
 90
      256
102
RTVSPost2010Prop51ColorRGB
 90
-16777216
102
RTVSPost2010PropOp51
 70
     0
102
RTVSPost2010Prop52
140
1.0
102
RTVSPost2010PropOp52
 70
     0
102
RTVSPost2010Prop53
 90
        2
102
RTVSPost2010PropOp53
 70
     1
102
RTVSPost2010Prop54
  1
strokes_ogs.tif
102
RTVSPost2010PropOp54
 70
     1
102
RTVSPost2010Prop55
280
     0
102
RTVSPost2010PropOp55
 70
     1
102
RTVSPost2010Prop56
140
1.0
102
RTVSPost2010PropOp56
 70
     1
102
RTVSPost2010Prop57
140
1.0
102
RTVSPost2010PropOp57
 70
     1
102
RTVSPropertyOp0
 70
     1
102
RTVSPropertyOp1
 70
     1
102
RTVSPropertyOp2
 70
     1
102
RTVSPropertyOp3
 70
     1
102
RTVSPropertyOp4
 70
     1
102
RTVSPropertyOp5
 70
     1
102
RTVSPropertyOp6
 70
     1
102
RTVSPropertyOp7
 70
     1
102
RTVSPropertyOp8
 70
     1
102
RTVSPropertyOp9
 70
     1
102
RTVSPropertyOp10
 70
     1
102
RTVSPropertyOp11
 70
     1
102
RTVSPropertyOp12
 70
     1
102
RTVSPropertyOp13
 70
     1
102
RTVSPropertyOp14
 70
     1
102
RTVSPropertyOp15
 70
     1
102
RTVSPropertyOp16
 70
     1
102
RTVSPropertyOp17
 70
     1
102
RTVSPropertyOp18
 70
     1
102
RTVSPropertyOp19
 70
     1
102
RTVSPropertyOp20
 70
     1
102
RTVSPropertyOp21
 70
     1
102
RTVSPropertyOp22
 70
     1
102
RTVSPropertyOp23
 70
     1
102
RTVSPropertyOp24
 70
     1
102
RTVSPropertyOp25
 70
     1
102
RTVSPropertyOp26
 70
     1
102
RTVSPropertyOp27
 70
     1
102
RTVSPropertyOp28
 70
     1
102
RTVSPropertyOp29
 70
     1
102
RTVSPropertyOp30
 70
     1
102
RTVSPropertyOp31
 70
     1
102
RTVSPropertyOp32
 70
     1
102
RTVSPropertyOp33
 70
     1
102
RTVSPropertyOp34
 70
     1
102
RTVSPropertyOp35
 70
     1
102
RTVSPropertyOp36
 70
     1
102
RTVSPropertyOp37
 70
     1
102
RTVSPropertyOp38
 70
     1
102
RTVSPropertyOp39
 70
     1
102
RTVSPropertyOp40
 70
     1
102
RTVSPropertyOp41
 70
     1
102
RTVSPropertyOp42
 70
     1
102
RTVSPropertyOp43
 70
     1
102
RTVSPropertyOp44
 70
     1
102
RTVSPropertyOp45
 70
     1
102
RTVSPropertyOp46
 70
     1
102
RTVSPropertyOp47
 70
     1
102
RTVSPropertyOp48
 70
     1
102
RTVSPropertyOp49
 70
     1
102
RTVSPropertyOp50
 70
     1
102
RTVSPropertyOp51
 70
     0
102
RTVSPropertyOp52
 70
     0
102
RTVSPropertyOp53
 70
     1
102
RTVSPropertyOp54
 70
     1
102
RTVSPropertyOp55
 70
     1
102
RTVSPropertyOp56
 70
     1
102
RTVSPropertyOp57
 70
     1
102
RTVSPropertyOp58
 70
     1
102
RTVSPropertyOp59
 70
     1
102
RTVSPropertyOp60
 70
     1
102
RTVSPropertyOp61
 70
     1
102
RTVSPropertyOp62
 70
     1
  0
ENDSEC
  0
EOF
