  0
SECTION
  2
HEADER
  9
$ACADVER
  1
AC1015
  9
$ACADMAINTVER
 70
    20
  9
$DWGCODEPAGE
  3
ANSI_932
  9
$INSBASE
 10
0.0
 20
0.0
 30
0.0
  9
$EXTMIN
 10
9.99995
 20
9.999999999999998
 30
0.0
  9
$EXTMAX
 10
464.2999879999998
 20
636.3499759999997
 30
0.0
  9
$LIMMIN
 10
0.0
 20
0.0
  9
$LIMMAX
 10
950.3999999999999
 20
655.2000000000001
  9
$ORTHOMODE
 70
     1
  9
$REGENMODE
 70
     1
  9
$FILLMODE
 70
     1
  9
$QTEXTMODE
 70
     0
  9
$MIRRTEXT
 70
     1
  9
$LTSCALE
 40
20.0
  9
$ATTMODE
 70
     1
  9
$TEXTSIZE
 40
5.0
  9
$TRACEWID
 40
1.0
  9
$TEXTSTYLE
  7
STANDARD
  9
$CLAYER
  8
0
  9
$CELTYPE
  6
BYLAYER
  9
$CECOLOR
 62
   256
  9
$CELTSCALE
 40
1.0
  9
$DISPSILH
 70
     0
  9
$DIMSCALE
 40
1.0
  9
$DIMASZ
 40
3.0
  9
$DIMEXO
 40
1.0
  9
$DIMDLI
 40
10.0
  9
$DIMRND
 40
0.0
  9
$DIMDLE
 40
0.0
  9
$DIMEXE
 40
1.0
  9
$DIMTP
 40
0.0
  9
$DIMTM
 40
0.0
  9
$DIMTXT
 40
3.2
  9
$DIMCEN
 40
0.0
  9
$DIMTSZ
 40
0.0
  9
$DIMTOL
 70
     0
  9
$DIMLIM
 70
     0
  9
$DIMTIH
 70
     0
  9
$DIMTOH
 70
     0
  9
$DIMSE1
 70
     0
  9
$DIMSE2
 70
     0
  9
$DIMTAD
 70
     3
  9
$DIMZIN
 70
     8
  9
$DIMBLK
  1

  9
$DIMASO
 70
     1
  9
$DIMSHO
 70
     1
  9
$DIMPOST
  1

  9
$DIMAPOST
  1

  9
$DIMALT
 70
     0
  9
$DIMALTD
 70
     2
  9
$DIMALTF
 40
25.4
  9
$DIMLFAC
 40
1.0
  9
$DIMTOFL
 70
     1
  9
$DIMTVP
 40
0.0
  9
$DIMTIX
 70
     0
  9
$DIMSOXD
 70
     0
  9
$DIMSAH
 70
     1
  9
$DIMBLK1
  1

  9
$DIMBLK2
  1

  9
$DIMSTYLE
  2
STANDARD
  9
$DIMCLRD
 70
     0
  9
$DIMCLRE
 70
     0
  9
$DIMCLRT
 70
     0
  9
$DIMTFAC
 40
1.0
  9
$DIMGAP
 40
1.0
  9
$DIMJUST
 70
     0
  9
$DIMSD1
 70
     0
  9
$DIMSD2
 70
     0
  9
$DIMTOLJ
 70
     1
  9
$DIMTZIN
 70
     0
  9
$DIMALTZ
 70
     0
  9
$DIMALTTZ
 70
     0
  9
$DIMUPT
 70
     0
  9
$DIMDEC
 70
     4
  9
$DIMTDEC
 70
     4
  9
$DIMALTU
 70
     2
  9
$DIMALTTD
 70
     2
  9
$DIMTXSTY
  7
STANDARD
  9
$DIMAUNIT
 70
     0
  9
$DIMADEC
 70
     0
  9
$DIMALTRND
 40
0.0
  9
$DIMAZIN
 70
     0
  9
$DIMDSEP
 70
    46
  9
$DIMATFIT
 70
     3
  9
$DIMFRAC
 70
     0
  9
$DIMLDRBLK
  1

  9
$DIMLUNIT
 70
     2
  9
$DIMLWD
 70
    -2
  9
$DIMLWE
 70
    -2
  9
$DIMTMOVE
 70
     0
  9
$LUNITS
 70
     2
  9
$LUPREC
 70
     4
  9
$SKETCHINC
 40
1.0
  9
$FILLETRAD
 40
2.0
  9
$AUNITS
 70
     0
  9
$AUPREC
 70
     2
  9
$MENU
  1
.
  9
$ELEVATION
 40
0.0
  9
$PELEVATION
 40
0.0
  9
$THICKNESS
 40
0.0
  9
$LIMCHECK
 70
     0
  9
$CHAMFERA
 40
10.0
  9
$CHAMFERB
 40
10.0
  9
$CHAMFERC
 40
0.0
  9
$CHAMFERD
 40
0.0
  9
$SKPOLY
 70
     0
  9
$TDCREATE
 40
2451065.508393865
  9
$TDUCREATE
 40
2451065.133393866
  9
$TDUPDATE
 40
2457192.622764132
  9
$TDUUPDATE
 40
2457192.247764132
  9
$TDINDWG
 40
0.0271539005
  9
$TDUSRTIMER
 40
0.0271532407
  9
$USRTIMER
 70
     1
  9
$ANGBASE
 50
0.0
  9
$ANGDIR
 70
     0
  9
$PDMODE
 70
     0
  9
$PDSIZE
 40
0.0
  9
$PLINEWID
 40
0.0
  9
$SPLFRAME
 70
     0
  9
$SPLINETYPE
 70
     6
  9
$SPLINESEGS
 70
     8
  9
$HANDSEED
  5
A583
  9
$SURFTAB1
 70
     6
  9
$SURFTAB2
 70
     6
  9
$SURFTYPE
 70
     6
  9
$SURFU
 70
     6
  9
$SURFV
 70
     6
  9
$UCSBASE
  2

  9
$UCSNAME
  2

  9
$UCSORG
 10
0.0
 20
0.0
 30
0.0
  9
$UCSXDIR
 10
1.0
 20
0.0
 30
0.0
  9
$UCSYDIR
 10
0.0
 20
1.0
 30
0.0
  9
$UCSORTHOREF
  2

  9
$UCSORTHOVIEW
 70
     0
  9
$UCSORGTOP
 10
0.0
 20
0.0
 30
0.0
  9
$UCSORGBOTTOM
 10
0.0
 20
0.0
 30
0.0
  9
$UCSORGLEFT
 10
0.0
 20
0.0
 30
0.0
  9
$UCSORGRIGHT
 10
0.0
 20
0.0
 30
0.0
  9
$UCSORGFRONT
 10
0.0
 20
0.0
 30
0.0
  9
$UCSORGBACK
 10
0.0
 20
0.0
 30
0.0
  9
$PUCSBASE
  2

  9
$PUCSNAME
  2

  9
$PUCSORG
 10
0.0
 20
0.0
 30
0.0
  9
$PUCSXDIR
 10
1.0
 20
0.0
 30
0.0
  9
$PUCSYDIR
 10
0.0
 20
1.0
 30
0.0
  9
$PUCSORTHOREF
  2

  9
$PUCSORTHOVIEW
 70
     0
  9
$PUCSORGTOP
 10
0.0
 20
0.0
 30
0.0
  9
$PUCSORGBOTTOM
 10
0.0
 20
0.0
 30
0.0
  9
$PUCSORGLEFT
 10
0.0
 20
0.0
 30
0.0
  9
$PUCSORGRIGHT
 10
0.0
 20
0.0
 30
0.0
  9
$PUCSORGFRONT
 10
0.0
 20
0.0
 30
0.0
  9
$PUCSORGBACK
 10
0.0
 20
0.0
 30
0.0
  9
$USERI1
 70
     0
  9
$USERI2
 70
     0
  9
$USERI3
 70
     0
  9
$USERI4
 70
     0
  9
$USERI5
 70
     0
  9
$USERR1
 40
0.0
  9
$USERR2
 40
0.0
  9
$USERR3
 40
0.0
  9
$USERR4
 40
0.0
  9
$USERR5
 40
0.0
  9
$WORLDVIEW
 70
     1
  9
$SHADEDGE
 70
     3
  9
$SHADEDIF
 70
    70
  9
$TILEMODE
 70
     1
  9
$MAXACTVP
 70
    16
  9
$PINSBASE
 10
0.0
 20
0.0
 30
0.0
  9
$PLIMCHECK
 70
     0
  9
$PEXTMIN
 10
1.000000000000000E+20
 20
1.000000000000000E+20
 30
1.000000000000000E+20
  9
$PEXTMAX
 10
-1.000000000000000E+20
 20
-1.000000000000000E+20
 30
-1.000000000000000E+20
  9
$PLIMMIN
 10
0.0
 20
0.0
  9
$PLIMMAX
 10
420.0
 20
297.0
  9
$UNITMODE
 70
     0
  9
$VISRETAIN
 70
     0
  9
$PLINEGEN
 70
     0
  9
$PSLTSCALE
 70
     0
  9
$TREEDEPTH
 70
  3020
  9
$CMLSTYLE
  2
STANDARD
  9
$CMLJUST
 70
     0
  9
$CMLSCALE
 40
1.0
  9
$PROXYGRAPHICS
 70
     1
  9
$MEASUREMENT
 70
     0
  9
$CELWEIGHT
370
    -1
  9
$ENDCAPS
280
     0
  9
$JOINSTYLE
280
     0
  9
$LWDISPLAY
290
     0
  9
$INSUNITS
 70
     0
  9
$HYPERLINKBASE
  1

  9
$STYLESHEET
  1

  9
$XEDIT
290
     1
  9
$CEPSNTYPE
380
     0
  9
$PSTYLEMODE
290
     1
  9
$FINGERPRINTGUID
  2
{154739E1-9FCB-43A4-AD77-5DC7241EFBA3}
  9
$VERSIONGUID
  2
{C3CF5457-3AE4-4EEB-8B50-46464EDD2EE2}
  9
$EXTNAMES
290
     1
  9
$PSVPSCALE
 40
0.0
  9
$OLESTARTUP
290
     0
  0
ENDSEC
  0
SECTION
  2
CLASSES
  0
CLASS
  1
ACDBDICTIONARYWDFLT
  2
AcDbDictionaryWithDefault
  3
ObjectDBX Classes
 90
        0
280
     0
281
     0
  0
CLASS
  1
ACDBPLACEHOLDER
  2
AcDbPlaceHolder
  3
ObjectDBX Classes
 90
        0
280
     0
281
     0
  0
CLASS
  1
LAYOUT
  2
AcDbLayout
  3
ObjectDBX Classes
 90
        0
280
     0
281
     0
  0
CLASS
  1
DICTIONARYVAR
  2
AcDbDictionaryVar
  3
ObjectDBX Classes
 90
        0
280
     0
281
     0
  0
CLASS
  1
MATERIAL
  2
AcDbMaterial
  3
ObjectDBX Classes
 90
     1153
280
     0
281
     0
  0
CLASS
  1
VISUALSTYLE
  2
AcDbVisualStyle
  3
ObjectDBX Classes
 90
     4095
280
     0
281
     0
  0
CLASS
  1
TABLESTYLE
  2
AcDbTableStyle
  3
ObjectDBX Classes
 90
     4095
280
     0
281
     0
  0
CLASS
  1
SCALE
  2
AcDbScale
  3
ObjectDBX Classes
 90
     1153
280
     0
281
     0
  0
CLASS
  1
MLEADERSTYLE
  2
AcDbMLeaderStyle
  3
ACDB_MLEADERSTYLE_CLASS
 90
     4095
280
     0
281
     0
  0
CLASS
  1
ACDBSECTIONVIEWSTYLE
  2
AcDbSectionViewStyle
  3
ObjectDBX Classes
 90
     1025
280
     0
281
     0
  0
CLASS
  1
ACDBDETAILVIEWSTYLE
  2
AcDbDetailViewStyle
  3
ObjectDBX Classes
 90
     1025
280
     0
281
     0
  0
CLASS
  1
CELLSTYLEMAP
  2
AcDbCellStyleMap
  3
ObjectDBX Classes
 90
     1152
280
     0
281
     0
  0
ENDSEC
  0
SECTION
  2
TABLES
  0
TABLE
  2
VPORT
  5
9F97
330
0
100
AcDbSymbolTable
 70
     1
  0
VPORT
  5
A4CE
330
9F97
100
AcDbSymbolTableRecord
100
AcDbViewportTableRecord
  2
*ACTIVE
 70
     0
 10
0.0
 20
0.0
 11
1.0
 21
1.0
 12
494.9587443591337
 22
323.176081842622
 13
0.0
 23
0.0
 14
10.0
 24
10.0
 15
10.0
 25
10.0
 16
0.0
 26
0.0
 36
1.0
 17
0.0
 27
0.0
 37
0.0
 40
631.2688692960265
 41
1.899603698811096
 42
50.0
 43
0.0
 44
0.0
 50
0.0
 51
0.0
 71
     0
 72
   100
 73
     1
 74
     0
 75
     0
 76
     0
 77
     0
 78
     0
281
     0
 65
     1
110
0.0
120
0.0
130
0.0
111
1.0
121
0.0
131
0.0
112
0.0
122
1.0
132
0.0
 79
     0
146
0.0
1001
ACAD_NAV_VCDISPLAY
1070
     3
  0
ENDTAB
  0
TABLE
  2
LTYPE
  5
9F94
330
0
100
AcDbSymbolTable
 70
     4
  0
LTYPE
  5
9FA2
330
9F94
100
AcDbSymbolTableRecord
100
AcDbLinetypeTableRecord
  2
BYBLOCK
 70
     0
  3

 72
    65
 73
     0
 40
0.0
  0
LTYPE
  5
9FA3
330
9F94
100
AcDbSymbolTableRecord
100
AcDbLinetypeTableRecord
  2
BYLAYER
 70
     0
  3

 72
    65
 73
     0
 40
0.0
  0
LTYPE
  5
9FA4
330
9F94
100
AcDbSymbolTableRecord
100
AcDbLinetypeTableRecord
  2
CONTINUOUS
 70
     0
  3
Solid line
 72
    65
 73
     0
 40
0.0
  0
LTYPE
  5
9FB2
330
9F94
100
AcDbSymbolTableRecord
100
AcDbLinetypeTableRecord
  2
DASHED
 70
     0
  3
__ __ __ __ __ __ __ __ __ __ __ __ __ __ __ __
 72
    65
 73
     2
 40
0.75
 49
0.5
 74
     0
 49
-0.25
 74
     0
  0
LTYPE
  5
9FB3
330
9F94
100
AcDbSymbolTableRecord
100
AcDbLinetypeTableRecord
  2
CENTER
 70
     0
  3
____ _ ____ _ ____ _ ____ _ ____ _ ____ _ ____ 
 72
    65
 73
     4
 40
2.0
 49
1.25
 74
     0
 49
-0.25
 74
     0
 49
0.25
 74
     0
 49
-0.25
 74
     0
  0
LTYPE
  5
9FB4
330
9F94
100
AcDbSymbolTableRecord
100
AcDbLinetypeTableRecord
  2
PHANTOM
 70
     0
  3
______  __  __  ______  __  __  ______  __  __ 
 72
    65
 73
     6
 40
2.5
 49
1.25
 74
     0
 49
-0.25
 74
     0
 49
0.25
 74
     0
 49
-0.25
 74
     0
 49
0.25
 74
     0
 49
-0.25
 74
     0
  0
ENDTAB
  0
TABLE
  2
LAYER
  5
9F91
330
0
100
AcDbSymbolTable
 70
     8
  0
LAYER
  5
9F9F
102
{ACAD_XDICTIONARY
360
A527
102
}
330
9F91
100
AcDbSymbolTableRecord
100
AcDbLayerTableRecord
  2
0
 70
     0
 62
     7
  6
CONTINUOUS
370
    -3
390
A4D5
  0
LAYER
  5
9FB5
102
{ACAD_XDICTIONARY
360
A529
102
}
330
9F91
100
AcDbSymbolTableRecord
100
AcDbLayerTableRecord
  2
4
 70
     0
 62
     1
  6
CENTER
370
    -3
390
A4D5
  0
LAYER
  5
9FB6
102
{ACAD_XDICTIONARY
360
A52B
102
}
330
9F91
100
AcDbSymbolTableRecord
100
AcDbLayerTableRecord
  2
5
 70
     0
 62
     6
  6
PHANTOM
370
    -3
390
A4D5
  0
LAYER
  5
9FB7
102
{ACAD_XDICTIONARY
360
A52D
102
}
330
9F91
100
AcDbSymbolTableRecord
100
AcDbLayerTableRecord
  2
1
 70
     0
 62
     7
  6
CONTINUOUS
370
    -3
390
A4D5
  0
LAYER
  5
9FB8
102
{ACAD_XDICTIONARY
360
A52F
102
}
330
9F91
100
AcDbSymbolTableRecord
100
AcDbLayerTableRecord
  2
2
 70
     0
 62
     4
  6
CONTINUOUS
370
    -3
390
A4D5
  0
LAYER
  5
9FB9
102
{ACAD_XDICTIONARY
360
A531
102
}
330
9F91
100
AcDbSymbolTableRecord
100
AcDbLayerTableRecord
  2
3
 70
     0
 62
     2
  6
DASHED
370
    -3
390
A4D5
  0
LAYER
  5
9FBA
102
{ACAD_XDICTIONARY
360
A533
102
}
330
9F91
100
AcDbSymbolTableRecord
100
AcDbLayerTableRecord
  2
6
 70
     0
 62
     5
  6
CONTINUOUS
370
    -3
390
A4D5
  0
LAYER
  5
9FBB
102
{ACAD_XDICTIONARY
360
A535
102
}
330
9F91
100
AcDbSymbolTableRecord
100
AcDbLayerTableRecord
  2
7
 70
     0
 62
     3
  6
CONTINUOUS
370
    -3
390
A4D5
  0
ENDTAB
  0
TABLE
  2
STYLE
  5
9F92
330
0
100
AcDbSymbolTable
 70
     1
  0
STYLE
  5
9FA0
330
9F92
100
AcDbSymbolTableRecord
100
AcDbTextStyleTableRecord
  2
STANDARD
 70
     0
 40
0.0
 41
1.0
 50
0.0
 71
     0
 42
5.0
  3
txt
  4

  0
ENDTAB
  0
TABLE
  2
VIEW
  5
9F95
330
0
100
AcDbSymbolTable
 70
     0
  0
ENDTAB
  0
TABLE
  2
UCS
  5
9F96
330
0
100
AcDbSymbolTable
 70
     0
  0
ENDTAB
  0
TABLE
  2
APPID
  5
9F98
330
0
100
AcDbSymbolTable
 70
     3
  0
APPID
  5
9FA1
330
9F98
100
AcDbSymbolTableRecord
100
AcDbRegAppTableRecord
  2
ACAD
 70
     0
  0
APPID
  5
A541
330
9F98
100
AcDbSymbolTableRecord
100
AcDbRegAppTableRecord
  2
ACAD_NAV_VCDISPLAY
 70
     0
  0
APPID
  5
A57A
330
9F98
100
AcDbSymbolTableRecord
100
AcDbRegAppTableRecord
  2
ACAD_MLEADERVER
 70
     0
  0
ENDTAB
  0
TABLE
  2
DIMSTYLE
  5
9F99
330
0
100
AcDbSymbolTable
 70
     1
100
AcDbDimStyleTable
 71
     0
  0
DIMSTYLE
105
9FBD
330
9F99
100
AcDbSymbolTableRecord
100
AcDbDimStyleTableRecord
  2
STANDARD
 70
     0
 41
3.0
 42
1.0
 43
10.0
 44
1.0
 73
     0
 74
     0
 77
     3
 78
     8
140
3.2
141
0.0
147
1.0
172
     1
173
     1
284
     8
285
     8
286
     8
340
9FA0
  0
ENDTAB
  0
TABLE
  2
BLOCK_RECORD
  5
9F90
330
0
100
AcDbSymbolTable
 70
     0
  0
BLOCK_RECORD
  5
9FAD
102
{ACAD_XDICTIONARY
360
A255
102
}
330
9F90
100
AcDbSymbolTableRecord
100
AcDbBlockTableRecord
  2
*MODEL_SPACE
340
A523
  0
BLOCK_RECORD
  5
9FA9
102
{ACAD_XDICTIONARY
360
A253
102
}
330
9F90
100
AcDbSymbolTableRecord
100
AcDbBlockTableRecord
  2
*PAPER_SPACE
340
A524
  0
ENDTAB
  0
ENDSEC
  0
SECTION
  2
BLOCKS
  0
BLOCK
  5
9FAE
330
9FAD
100
AcDbEntity
  8
0
100
AcDbBlockBegin
  2
*MODEL_SPACE
 70
     0
 10
0.0
 20
0.0
 30
0.0
  3
*MODEL_SPACE
  1

  0
ENDBLK
  5
9FAF
330
9FAD
100
AcDbEntity
  8
0
100
AcDbBlockEnd
  0
BLOCK
  5
9FAA
330
9FA9
100
AcDbEntity
 67
     1
  8
0
100
AcDbBlockBegin
  2
*PAPER_SPACE
 70
     0
 10
0.0
 20
0.0
 30
0.0
  3
*PAPER_SPACE
  1

  0
ENDBLK
  5
9FAB
330
9FA9
100
AcDbEntity
 67
     1
  8
0
100
AcDbBlockEnd
  0
ENDSEC
  0
SECTION
  2
ENTITIES
  0
LINE
  5
9FC5
330
9FAD
100
AcDbEntity
  8
1
  6
Continuous
100
AcDbLine
 10
189.0
 20
174.5
 30
0.0
 11
189.0
 21
374.5
 31
0.0
  0
LINE
  5
9FC6
330
9FAD
100
AcDbEntity
  8
1
  6
Continuous
100
AcDbLine
 10
177.0
 20
174.5
 30
0.0
 11
177.0
 21
374.5
 31
0.0
  0
LINE
  5
9FC7
330
9FAD
100
AcDbEntity
  8
1
  6
Continuous
100
AcDbLine
 10
189.0
 20
174.5
 30
0.0
 11
177.0
 21
174.5
 31
0.0
  0
LINE
  5
9FC8
330
9FAD
100
AcDbEntity
  8
1
  6
Continuous
100
AcDbLine
 10
189.0
 20
374.5
 30
0.0
 11
177.0
 21
374.5
 31
0.0
  0
LINE
  5
9FC9
330
9FAD
100
AcDbEntity
  8
1
  6
Continuous
100
AcDbLine
 10
184.4999999999997
 20
356.0
 30
0.0
 11
181.0
 21
356.0
 31
0.0
  0
LINE
  5
9FCA
330
9FAD
100
AcDbEntity
  8
1
  6
Continuous
100
AcDbLine
 10
184.4999999999997
 20
328.0
 30
0.0
 11
181.0
 21
328.0
 31
0.0
  0
LINE
  5
9FCB
330
9FAD
100
AcDbEntity
  8
1
  6
Continuous
100
AcDbLine
 10
180.0
 20
329.0
 30
0.0
 11
180.0
 21
355.0
 31
0.0
  0
LINE
  5
9FCC
330
9FAD
100
AcDbEntity
  8
1
  6
Continuous
100
AcDbLine
 10
185.5
 20
329.0
 30
0.0
 11
185.5
 21
355.0
 31
0.0
  0
LINE
  5
9FCD
330
9FAD
100
AcDbEntity
  8
4
  6
CENTER
 48
0.2
100
AcDbLine
 10
161.6999969999999
 20
184.0
 30
0.0
 11
201.699997
 21
184.0
 31
0.0
  0
LINE
  5
9FCE
330
9FAD
100
AcDbEntity
  8
4
  6
CENTER
 48
0.2
100
AcDbLine
 10
168.4961089999999
 20
494.0
 30
0.0
 11
201.6286159999999
 21
494.0
 31
0.0
  0
LINE
  5
9FCF
330
9FAD
100
AcDbEntity
  8
1
  6
Continuous
100
AcDbLine
 10
187.399994
 20
504.0
 30
0.0
 11
179.100006
 21
504.0
 31
0.0
  0
LINE
  5
9FD0
330
9FAD
100
AcDbEntity
  8
1
  6
Continuous
100
AcDbLine
 10
179.100006
 20
374.5
 30
0.0
 11
179.100006
 21
504.0
 31
0.0
  0
LINE
  5
9FD1
330
9FAD
100
AcDbEntity
  8
1
  6
Continuous
100
AcDbLine
 10
187.399994
 20
374.5
 30
0.0
 11
187.399994
 21
504.0
 31
0.0
  0
LINE
  5
9FD2
330
9FAD
100
AcDbEntity
  8
1
  6
Continuous
100
AcDbLine
 10
196.6999969999999
 20
169.0
 30
0.0
 11
196.6999969999999
 21
199.0
 31
0.0
  0
LINE
  5
9FD3
330
9FAD
100
AcDbEntity
  8
1
  6
Continuous
100
AcDbLine
 10
166.6999969999999
 20
171.0
 30
0.0
 11
166.6999969999999
 21
197.0
 31
0.0
  0
LINE
  5
9FD4
330
9FAD
100
AcDbEntity
  8
1
  6
Continuous
100
AcDbLine
 10
168.699997
 20
169.0
 30
0.0
 11
196.6999969999999
 21
169.0
 31
0.0
  0
LINE
  5
9FD5
330
9FAD
100
AcDbEntity
  8
1
  6
Continuous
100
AcDbLine
 10
168.699997
 20
199.0
 30
0.0
 11
177.0
 21
199.0
 31
0.0
  0
LINE
  5
9FD6
330
9FAD
100
AcDbEntity
  8
4
  6
CENTER
 48
0.2
100
AcDbLine
 10
174.699997
 20
169.699997
 30
0.0
 11
174.699997
 21
180.3000029999997
 31
0.0
  0
LINE
  5
9FD7
330
9FAD
100
AcDbEntity
  8
4
  6
CENTER
 48
0.2
100
AcDbLine
 10
169.3999939999999
 20
175.0
 30
0.0
 11
180.0
 21
175.0
 31
0.0
  0
LINE
  5
9FD8
330
9FAD
100
AcDbEntity
  8
4
  6
CENTER
 48
0.2
100
AcDbLine
 10
174.699997
 20
187.6999969999999
 30
0.0
 11
174.699997
 21
198.300003
 31
0.0
  0
LINE
  5
9FD9
330
9FAD
100
AcDbEntity
  8
4
  6
CENTER
 48
0.2
100
AcDbLine
 10
169.3999939999999
 20
193.0
 30
0.0
 11
180.0
 21
193.0
 31
0.0
  0
LINE
  5
9FDA
330
9FAD
100
AcDbEntity
  8
1
  6
Continuous
100
AcDbLine
 10
189.0
 20
199.0
 30
0.0
 11
196.6999969999999
 21
199.0
 31
0.0
  0
LINE
  5
9FDB
330
9FAD
100
AcDbEntity
  8
1
  6
Continuous
100
AcDbLine
 10
174.0
 20
177.5
 30
0.0
 11
174.0
 21
190.5
 31
0.0
  0
LINE
  5
9FDC
330
9FAD
100
AcDbEntity
  8
1
  6
Continuous
100
AcDbLine
 10
175.0
 20
191.5
 30
0.0
 11
177.0
 21
191.5
 31
0.0
  0
LINE
  5
9FDD
330
9FAD
100
AcDbEntity
  8
1
  6
Continuous
100
AcDbLine
 10
175.0
 20
176.5
 30
0.0
 11
177.0
 21
176.5
 31
0.0
  0
LINE
  5
9FDE
330
9FAD
100
AcDbEntity
  8
1
  6
Continuous
100
AcDbLine
 10
174.0
 20
177.5
 30
0.0
 11
175.0
 21
176.5
 31
0.0
  0
LINE
  5
9FDF
330
9FAD
100
AcDbEntity
  8
1
  6
Continuous
100
AcDbLine
 10
174.0
 20
190.5
 30
0.0
 11
175.0
 21
191.5
 31
0.0
  0
LINE
  5
9FE0
330
9FAD
100
AcDbEntity
  8
1
  6
Continuous
100
AcDbLine
 10
175.0
 20
176.5
 30
0.0
 11
175.0
 21
191.5
 31
0.0
  0
LINE
  5
9FE1
330
9FAD
100
AcDbEntity
  8
1
  6
Continuous
100
AcDbLine
 10
195.1
 20
181.0
 30
0.0
 11
195.1
 21
183.4999999999998
 31
0.0
  0
LINE
  5
9FE2
330
9FAD
100
AcDbEntity
  8
1
  6
Continuous
100
AcDbLine
 10
189.0
 20
192.850006
 30
0.0
 11
190.600006
 21
192.850006
 31
0.0
  0
LINE
  5
9FE3
330
9FAD
100
AcDbEntity
  8
1
  6
Continuous
100
AcDbLine
 10
189.0
 20
175.1499939999999
 30
0.0
 11
190.600006
 21
175.1499939999999
 31
0.0
  0
LINE
  5
9FE4
330
9FAD
100
AcDbEntity
  8
1
  6
Continuous
100
AcDbLine
 10
193.5999999999999
 20
169.0
 30
0.0
 11
193.5999999999999
 21
199.0
 31
0.0
  0
LINE
  5
9FE5
330
9FAD
100
AcDbEntity
  8
1
  6
Continuous
100
AcDbLine
 10
177.100006
 20
501.4999999999998
 30
0.0
 11
179.100006
 21
501.4999999999998
 31
0.0
  0
LINE
  5
9FE6
330
9FAD
100
AcDbEntity
  8
1
  6
Continuous
100
AcDbLine
 10
177.100006
 20
486.5
 30
0.0
 11
179.100006
 21
486.5
 31
0.0
  0
LINE
  5
9FE7
330
9FAD
100
AcDbEntity
  8
1
  6
Continuous
100
AcDbLine
 10
176.100006
 20
487.5
 30
0.0
 11
176.100006
 21
500.4999999999998
 31
0.0
  0
LINE
  5
9FE8
330
9FAD
100
AcDbEntity
  8
1
  6
Continuous
100
AcDbLine
 10
176.0999909999999
 20
487.5
 30
0.0
 11
177.099991
 21
486.5
 31
0.0
  0
LINE
  5
9FE9
330
9FAD
100
AcDbEntity
  8
1
  6
Continuous
100
AcDbLine
 10
176.100006
 20
500.4999999999998
 30
0.0
 11
177.100006
 21
501.4999999999998
 31
0.0
  0
LINE
  5
9FEA
330
9FAD
100
AcDbEntity
  8
1
  6
Continuous
100
AcDbLine
 10
177.100006
 20
486.5
 30
0.0
 11
177.100006
 21
501.4999999999998
 31
0.0
  0
LINE
  5
9FEB
330
9FAD
100
AcDbEntity
  8
1
  6
Continuous
100
AcDbLine
 10
189.0
 20
485.149994
 30
0.0
 11
189.0
 21
504.100006
 31
0.0
  0
LINE
  5
9FEC
330
9FAD
100
AcDbEntity
  8
1
  6
Continuous
100
AcDbLine
 10
187.399994
 20
502.8500059999998
 30
0.0
 11
189.0
 21
502.8500059999998
 31
0.0
  0
LINE
  5
9FED
330
9FAD
100
AcDbEntity
  8
1
  6
Continuous
100
AcDbLine
 10
187.399994
 20
485.149994
 30
0.0
 11
189.0
 21
485.149994
 31
0.0
  0
LINE
  5
9FEE
330
9FAD
100
AcDbEntity
  8
1
  6
Continuous
100
AcDbLine
 10
191.8999939999999
 20
486.0
 30
0.0
 11
191.8999939999999
 21
504.100006
 31
0.0
  0
LINE
  5
9FEF
330
9FAD
100
AcDbEntity
  8
1
  6
Continuous
100
AcDbLine
 10
165.0
 20
522.0
 30
0.0
 11
192.100006
 21
522.0
 31
0.0
  0
LINE
  5
9FF0
330
9FAD
100
AcDbEntity
  8
1
  6
Continuous
100
AcDbLine
 10
191.8999939999999
 20
507.0
 30
0.0
 11
192.100006
 21
507.0
 31
0.0
  0
LINE
  5
9FF1
330
9FAD
100
AcDbEntity
  8
1
  6
Continuous
100
AcDbLine
 10
195.0
 20
507.0
 30
0.0
 11
195.0
 21
519.0999759999998
 31
0.0
  0
LINE
  5
9FF2
330
9FAD
100
AcDbEntity
  8
1
  6
Continuous
100
AcDbLine
 10
191.8999939999999
 20
504.100006
 30
0.0
 11
192.100006
 21
504.100006
 31
0.0
  0
LINE
  5
9FF3
330
9FAD
100
AcDbEntity
  8
1
  6
Continuous
100
AcDbLine
 10
165.0
 20
519.0999759999998
 30
0.0
 11
192.100006
 21
519.0999759999998
 31
0.0
  0
LINE
  5
9FF4
330
9FAD
100
AcDbEntity
  8
4
  6
CENTER
 48
0.2
100
AcDbLine
 10
187.7499999999997
 20
513.0
 30
0.0
 11
199.350006
 21
513.0
 31
0.0
  0
LINE
  5
9FF5
330
9FAD
100
AcDbEntity
  8
4
  6
CENTER
 48
0.2
100
AcDbLine
 10
173.0
 20
514.7499999999999
 30
0.0
 11
173.0
 21
526.349976
 31
0.0
  0
LINE
  5
9FF6
330
9FAD
100
AcDbEntity
  8
1
  6
Continuous
100
AcDbLine
 10
25.0
 20
169.0
 30
0.0
 11
46.0
 21
169.0
 31
0.0
  0
LINE
  5
9FF7
330
9FAD
100
AcDbEntity
  8
1
  6
Continuous
100
AcDbLine
 10
25.0
 20
199.0
 30
0.0
 11
40.49999999999999
 21
199.0
 31
0.0
  0
LINE
  5
9FF8
330
9FAD
100
AcDbEntity
  8
4
  6
CENTER
100
AcDbLine
 10
53.0
 20
164.0
 30
0.0
 11
53.0
 21
527.0
 31
0.0
  0
LINE
  5
9FF9
330
9FAD
100
AcDbEntity
  8
1
  6
Continuous
100
AcDbLine
 10
300.4999999999999
 20
174.5
 30
0.0
 11
300.4999999999999
 21
374.5
 31
0.0
  0
LINE
  5
9FFA
330
9FAD
100
AcDbEntity
  8
1
  6
Continuous
100
AcDbLine
 10
325.4999999999999
 20
199.0
 30
0.0
 11
325.4999999999999
 21
374.5
 31
0.0
  0
LINE
  5
9FFB
330
9FAD
100
AcDbEntity
  8
1
  6
Continuous
100
AcDbLine
 10
308.391815
 20
174.5
 30
0.0
 11
300.4999999999999
 21
174.5
 31
0.0
  0
LINE
  5
9FFC
330
9FAD
100
AcDbEntity
  8
1
  6
Continuous
100
AcDbLine
 10
25.0
 20
169.0
 30
0.0
 11
25.0
 21
199.0
 31
0.0
  0
LINE
  5
9FFD
330
9FAD
100
AcDbEntity
  8
4
  6
CENTER
 48
0.2
100
AcDbLine
 10
20.0
 20
184.0
 30
0.0
 11
68.0
 21
184.0
 31
0.0
  0
LINE
  5
9FFE
330
9FAD
100
AcDbEntity
  8
1
  6
Continuous
100
AcDbLine
 10
189.0
 20
486.0
 30
0.0
 11
191.8999939999999
 21
486.0
 31
0.0
  0
LINE
  5
9FFF
330
9FAD
100
AcDbEntity
  8
1
  6
Continuous
100
AcDbLine
 10
27.9
 20
169.0
 30
0.0
 11
27.9
 21
199.0
 31
0.0
  0
LINE
  5
A000
330
9FAD
100
AcDbEntity
  8
4
  6
CENTER
 48
0.2
100
AcDbLine
 10
34.0
 20
169.699997
 30
0.0
 11
34.0
 21
180.3000029999997
 31
0.0
  0
LINE
  5
A001
330
9FAD
100
AcDbEntity
  8
4
  6
CENTER
 48
0.2
100
AcDbLine
 10
20.64999999999999
 20
175.0
 30
0.0
 11
39.299999
 21
175.0
 31
0.0
  0
LINE
  5
A002
330
9FAD
100
AcDbEntity
  8
4
  6
CENTER
 48
0.2
100
AcDbLine
 10
34.0
 20
187.6999969999999
 30
0.0
 11
34.0
 21
198.300003
 31
0.0
  0
LINE
  5
A003
330
9FAD
100
AcDbEntity
  8
4
  6
CENTER
 48
0.2
100
AcDbLine
 10
20.64999999999999
 20
193.0
 30
0.0
 11
39.299999
 21
193.0
 31
0.0
  0
LINE
  5
A004
330
9FAD
100
AcDbEntity
  8
1
  6
Continuous
100
AcDbLine
 10
38.0
 20
522.0
 30
0.0
 11
68.0
 21
522.0
 31
0.0
  0
LINE
  5
A005
330
9FAD
100
AcDbEntity
  8
1
  6
Continuous
100
AcDbLine
 10
38.0
 20
519.0999759999998
 30
0.0
 11
68.0
 21
519.0999759999998
 31
0.0
  0
LINE
  5
A006
330
9FAD
100
AcDbEntity
  8
1
  6
Continuous
100
AcDbLine
 10
38.0
 20
507.0
 30
0.0
 11
68.0
 21
507.0
 31
0.0
  0
LINE
  5
A007
330
9FAD
100
AcDbEntity
  8
1
  6
Continuous
100
AcDbLine
 10
38.0
 20
501.0
 30
0.0
 11
38.0
 21
522.0
 31
0.0
  0
LINE
  5
A008
330
9FAD
100
AcDbEntity
  8
1
  6
Continuous
100
AcDbLine
 10
68.0
 20
501.0
 30
0.0
 11
68.0
 21
522.0
 31
0.0
  0
LINE
  5
A009
330
9FAD
100
AcDbEntity
  8
1
  6
Continuous
100
AcDbLine
 10
42.5
 20
504.0
 30
0.0
 11
63.5
 21
504.0
 31
0.0
  0
LINE
  5
A00A
330
9FAD
100
AcDbEntity
  8
4
  6
CENTER
 48
0.2
100
AcDbLine
 10
62.0
 20
507.700012
 30
0.0
 11
62.0
 21
526.349976
 31
0.0
  0
LINE
  5
A00B
330
9FAD
100
AcDbEntity
  8
4
  6
CENTER
 48
0.2
100
AcDbLine
 10
57.349998
 20
513.0
 30
0.0
 11
66.650002
 21
513.0
 31
0.0
  0
LINE
  5
A00C
330
9FAD
100
AcDbEntity
  8
4
  6
CENTER
 48
0.2
100
AcDbLine
 10
44.0
 20
507.700012
 30
0.0
 11
44.0
 21
526.349976
 31
0.0
  0
LINE
  5
A00D
330
9FAD
100
AcDbEntity
  8
4
  6
CENTER
 48
0.2
100
AcDbLine
 10
39.34999799999999
 20
513.0
 30
0.0
 11
48.650002
 21
513.0
 31
0.0
  0
LINE
  5
A00E
330
9FAD
100
AcDbEntity
  8
4
  6
CENTER
 48
0.2
100
AcDbLine
 10
38.0
 20
494.0
 30
0.0
 11
68.0
 21
494.0
 31
0.0
  0
LINE
  5
A00F
330
9FAD
100
AcDbEntity
  8
1
  6
Continuous
100
AcDbLine
 10
40.0
 20
169.0
 30
0.0
 11
40.0
 21
199.0
 31
0.0
  0
LINE
  5
A010
330
9FAD
100
AcDbEntity
  8
1
  6
Continuous
100
AcDbLine
 10
341.0
 20
199.0
 30
0.0
 11
320.0
 21
199.0
 31
0.0
  0
LINE
  5
A011
330
9FAD
100
AcDbEntity
  8
1
  6
Continuous
100
AcDbLine
 10
341.0
 20
169.0
 30
0.0
 11
320.0
 21
169.0
 31
0.0
  0
LINE
  5
A012
330
9FAD
100
AcDbEntity
  8
4
  6
CENTER
100
AcDbLine
 10
313.0
 20
164.0
 30
0.0
 11
313.0
 21
527.0
 31
0.0
  0
LINE
  5
A013
330
9FAD
100
AcDbEntity
  8
1
  6
Continuous
100
AcDbLine
 10
40.49999999999999
 20
174.5
 30
0.0
 11
65.5
 21
174.5
 31
0.0
  0
LINE
  5
A014
330
9FAD
100
AcDbEntity
  8
4
  6
CENTER
 48
0.2
100
AcDbLine
 10
332.0
 20
169.699997
 30
0.0
 11
332.0
 21
180.3000029999997
 31
0.0
  0
LINE
  5
A015
330
9FAD
100
AcDbEntity
  8
1
  6
Continuous
100
AcDbLine
 10
341.0
 20
169.0
 30
0.0
 11
341.0
 21
199.0
 31
0.0
  0
LINE
  5
A016
330
9FAD
100
AcDbEntity
  8
4
  6
CENTER
 48
0.2
100
AcDbLine
 10
346.0
 20
184.0
 30
0.0
 11
300.0
 21
184.0
 31
0.0
  0
LINE
  5
A017
330
9FAD
100
AcDbEntity
  8
4
  6
CENTER
 48
0.2
100
AcDbLine
 10
346.0
 20
175.0
 30
0.0
 11
326.700012
 21
175.0
 31
0.0
  0
LINE
  5
A018
330
9FAD
100
AcDbEntity
  8
4
  6
CENTER
 48
0.2
100
AcDbLine
 10
332.0
 20
187.6999969999999
 30
0.0
 11
332.0
 21
198.300003
 31
0.0
  0
LINE
  5
A019
330
9FAD
100
AcDbEntity
  8
4
  6
CENTER
 48
0.2
100
AcDbLine
 10
346.0
 20
193.0
 30
0.0
 11
326.700012
 21
193.0
 31
0.0
  0
LINE
  5
A01A
330
9FAD
100
AcDbEntity
  8
1
  6
Continuous
100
AcDbLine
 10
167.0
 20
589.0
 30
0.0
 11
195.0
 21
589.0
 31
0.0
  0
LINE
  5
A01B
330
9FAD
100
AcDbEntity
  8
1
  6
Continuous
100
AcDbLine
 10
167.0
 20
619.0
 30
0.0
 11
195.0
 21
619.0
 31
0.0
  0
LINE
  5
A01C
330
9FAD
100
AcDbEntity
  8
1
  6
Continuous
100
AcDbLine
 10
184.3000029999998
 20
337.0
 30
0.0
 11
180.3000029999997
 21
337.0
 31
0.0
  0
LINE
  5
A01D
330
9FAD
100
AcDbEntity
  8
1
  6
Continuous
100
AcDbLine
 10
184.3000029999998
 20
336.0
 30
0.0
 11
180.3000029999997
 21
336.0
 31
0.0
  0
LINE
  5
A01E
330
9FAD
100
AcDbEntity
  8
1
  6
Continuous
100
AcDbLine
 10
184.074997
 20
338.0
 30
0.0
 11
181.0749969999999
 21
338.0
 31
0.0
  0
LINE
  5
A01F
330
9FAD
100
AcDbEntity
  8
1
  6
Continuous
100
AcDbLine
 10
300.4999999999999
 20
344.0
 30
0.0
 11
299.0568539999998
 21
338.9090879999999
 31
0.0
  0
LINE
  5
A020
330
9FAD
100
AcDbEntity
  8
1
  6
Continuous
100
AcDbLine
 10
325.4999999999999
 20
374.5
 30
0.0
 11
300.4999999999999
 21
374.5
 31
0.0
  0
LINE
  5
A021
330
9FAD
100
AcDbEntity
  8
1
  6
Continuous
100
AcDbLine
 10
63.5
 20
374.5
 30
0.0
 11
63.5
 21
504.0
 31
0.0
  0
LINE
  5
A022
330
9FAD
100
AcDbEntity
  8
1
  6
Continuous
100
AcDbLine
 10
42.5
 20
374.5
 30
0.0
 11
42.5
 21
504.0
 31
0.0
  0
LINE
  5
A023
330
9FAD
100
AcDbEntity
  8
1
  6
Continuous
100
AcDbLine
 10
323.4999999999998
 20
374.5
 30
0.0
 11
323.4999999999998
 21
490.287872
 31
0.0
  0
LINE
  5
A024
330
9FAD
100
AcDbEntity
  8
1
  6
Continuous
100
AcDbLine
 10
302.4999999999999
 20
374.5
 30
0.0
 11
302.4999999999999
 21
490.287872
 31
0.0
  0
LINE
  5
A025
330
9FAD
100
AcDbEntity
  8
1
  6
Continuous
100
AcDbLine
 10
325.4999999999999
 20
360.4999999999998
 30
0.0
 11
325.4999999999999
 21
360.4999999999998
 31
0.0
  0
LINE
  5
A026
330
9FAD
100
AcDbEntity
  8
1
  6
Continuous
100
AcDbLine
 10
325.4999999999999
 20
356.4999999999998
 30
0.0
 11
325.4999999999999
 21
356.4999999999998
 31
0.0
  0
LINE
  5
A027
330
9FAD
100
AcDbEntity
  8
1
  6
Continuous
100
AcDbLine
 10
325.4999999999999
 20
370.5
 30
0.0
 11
325.4999999999999
 21
370.5
 31
0.0
  0
LINE
  5
A028
330
9FAD
100
AcDbEntity
  8
1
  6
Continuous
100
AcDbLine
 10
325.4999999999999
 20
366.5
 30
0.0
 11
325.4999999999999
 21
366.5
 31
0.0
  0
LINE
  5
A029
330
9FAD
100
AcDbEntity
  8
1
  6
Continuous
100
AcDbLine
 10
195.099985
 20
184.499985
 30
0.0
 11
194.3500149999999
 21
184.0
 31
0.0
  0
LINE
  5
A02A
330
9FAD
100
AcDbEntity
  8
1
  6
Continuous
100
AcDbLine
 10
194.35
 20
184.0000149999999
 30
0.0
 11
195.1
 21
183.5000149999999
 31
0.0
  0
LINE
  5
A02B
330
9FAD
100
AcDbEntity
  8
1
  6
Continuous
100
AcDbLine
 10
195.1
 20
184.4999999999997
 30
0.0
 11
195.1
 21
187.0
 31
0.0
  0
LINE
  5
A02C
330
9FAD
100
AcDbEntity
  8
1
  6
Continuous
100
AcDbLine
 10
165.0
 20
519.0999759999998
 30
0.0
 11
165.0
 21
522.0
 31
0.0
  0
LINE
  5
A02D
330
9FAD
100
AcDbEntity
  8
1
  6
Continuous
100
AcDbLine
 10
193.3999939999999
 20
494.5
 30
0.0
 11
193.3999939999999
 21
497.0
 31
0.0
  0
LINE
  5
A02E
330
9FAD
100
AcDbEntity
  8
1
  6
Continuous
100
AcDbLine
 10
193.3999939999999
 20
491.0
 30
0.0
 11
193.3999939999999
 21
493.5
 31
0.0
  0
LINE
  5
A02F
330
9FAD
100
AcDbEntity
  8
1
  6
Continuous
100
AcDbLine
 10
193.4000089999999
 20
494.5
 30
0.0
 11
192.649994
 21
494.0
 31
0.0
  0
LINE
  5
A030
330
9FAD
100
AcDbEntity
  8
1
  6
Continuous
100
AcDbLine
 10
192.649979
 20
493.999969
 30
0.0
 11
193.399979
 21
493.499969
 31
0.0
  0
LINE
  5
A031
330
9FAD
100
AcDbEntity
  8
1
  6
Continuous
100
AcDbLine
 10
310.041962
 20
183.4999999999998
 30
0.0
 11
312.5
 21
183.4999999999998
 31
0.0
  0
LINE
  5
A032
330
9FAD
100
AcDbEntity
  8
1
  6
Continuous
100
AcDbLine
 10
310.041962
 20
184.4999999999997
 30
0.0
 11
312.5
 21
184.4999999999997
 31
0.0
  0
LINE
  5
A033
330
9FAD
100
AcDbEntity
  8
1
  6
Continuous
100
AcDbLine
 10
312.5
 20
181.041962
 30
0.0
 11
312.5
 21
183.4999999999998
 31
0.0
  0
LINE
  5
A034
330
9FAD
100
AcDbEntity
  8
1
  6
Continuous
100
AcDbLine
 10
313.5
 20
181.041962
 30
0.0
 11
313.5
 21
183.4999999999998
 31
0.0
  0
LINE
  5
A035
330
9FAD
100
AcDbEntity
  8
1
  6
Continuous
100
AcDbLine
 10
312.5
 20
184.4999999999997
 30
0.0
 11
312.5
 21
186.958038
 31
0.0
  0
LINE
  5
A036
330
9FAD
100
AcDbEntity
  8
1
  6
Continuous
100
AcDbLine
 10
313.5
 20
184.4999999999997
 30
0.0
 11
313.5
 21
186.958038
 31
0.0
  0
LINE
  5
A037
330
9FAD
100
AcDbEntity
  8
1
  6
Continuous
100
AcDbLine
 10
313.5
 20
183.4999999999998
 30
0.0
 11
315.9580379999998
 21
183.4999999999998
 31
0.0
  0
LINE
  5
A038
330
9FAD
100
AcDbEntity
  8
1
  6
Continuous
100
AcDbLine
 10
313.5
 20
184.4999999999997
 30
0.0
 11
315.9580379999998
 21
184.4999999999997
 31
0.0
  0
LINE
  5
A039
330
9FAD
100
AcDbEntity
  8
1
  6
Continuous
100
AcDbLine
 10
323.1000059999999
 20
169.0
 30
0.0
 11
323.1000059999999
 21
199.0
 31
0.0
  0
LINE
  5
A03A
330
9FAD
100
AcDbEntity
  8
1
  6
Continuous
100
AcDbLine
 10
191.8999939999999
 20
491.0
 30
0.0
 11
193.3999939999999
 21
491.0
 31
0.0
  0
LINE
  5
A03B
330
9FAD
100
AcDbEntity
  8
1
  6
Continuous
100
AcDbLine
 10
191.8999939999999
 20
497.0
 30
0.0
 11
193.3999939999999
 21
497.0
 31
0.0
  0
LINE
  5
A03C
330
9FAD
100
AcDbEntity
  8
1
  6
Continuous
100
AcDbLine
 10
193.5999999999999
 20
181.0
 30
0.0
 11
195.1
 21
181.0
 31
0.0
  0
LINE
  5
A03D
330
9FAD
100
AcDbEntity
  8
1
  6
Continuous
100
AcDbLine
 10
193.5999999999999
 20
187.0
 30
0.0
 11
195.1
 21
187.0
 31
0.0
  0
LINE
  5
A03E
330
9FAD
100
AcDbEntity
  8
1
  6
Continuous
100
AcDbLine
 10
298.0
 20
522.0
 30
0.0
 11
298.0
 21
501.0
 31
0.0
  0
LINE
  5
A03F
330
9FAD
100
AcDbEntity
  8
1
  6
Continuous
100
AcDbLine
 10
328.0
 20
522.0
 30
0.0
 11
328.0
 21
501.0
 31
0.0
  0
LINE
  5
A040
330
9FAD
100
AcDbEntity
  8
4
  6
CENTER
 48
0.2
100
AcDbLine
 10
326.649994
 20
513.0
 30
0.0
 11
317.350006
 21
513.0
 31
0.0
  0
LINE
  5
A041
330
9FAD
100
AcDbEntity
  8
1
  6
Continuous
100
AcDbLine
 10
328.0
 20
522.0
 30
0.0
 11
298.0
 21
522.0
 31
0.0
  0
LINE
  5
A042
330
9FAD
100
AcDbEntity
  8
4
  6
CENTER
 48
0.2
100
AcDbLine
 10
322.0
 20
527.0
 30
0.0
 11
322.0
 21
508.3500059999998
 31
0.0
  0
LINE
  5
A043
330
9FAD
100
AcDbEntity
  8
4
  6
CENTER
 48
0.2
100
AcDbLine
 10
308.6499939999999
 20
513.0
 30
0.0
 11
299.350006
 21
513.0
 31
0.0
  0
LINE
  5
A044
330
9FAD
100
AcDbEntity
  8
4
  6
CENTER
 48
0.2
100
AcDbLine
 10
304.0
 20
527.0
 30
0.0
 11
304.0
 21
508.3500059999998
 31
0.0
  0
LINE
  5
A045
330
9FAD
100
AcDbEntity
  8
1
  6
Continuous
100
AcDbLine
 10
313.5
 20
491.0419619999998
 30
0.0
 11
313.5
 21
493.5
 31
0.0
  0
LINE
  5
A046
330
9FAD
100
AcDbEntity
  8
1
  6
Continuous
100
AcDbLine
 10
312.5
 20
491.0419619999998
 30
0.0
 11
312.5
 21
493.5
 31
0.0
  0
LINE
  5
A047
330
9FAD
100
AcDbEntity
  8
1
  6
Continuous
100
AcDbLine
 10
315.9580379999998
 20
493.5
 30
0.0
 11
313.5
 21
493.5
 31
0.0
  0
LINE
  5
A048
330
9FAD
100
AcDbEntity
  8
1
  6
Continuous
100
AcDbLine
 10
315.9580379999998
 20
494.5
 30
0.0
 11
313.5
 21
494.5
 31
0.0
  0
LINE
  5
A049
330
9FAD
100
AcDbEntity
  8
1
  6
Continuous
100
AcDbLine
 10
312.5
 20
493.5
 30
0.0
 11
310.041962
 21
493.5
 31
0.0
  0
LINE
  5
A04A
330
9FAD
100
AcDbEntity
  8
1
  6
Continuous
100
AcDbLine
 10
312.5
 20
494.5
 30
0.0
 11
310.041962
 21
494.5
 31
0.0
  0
LINE
  5
A04B
330
9FAD
100
AcDbEntity
  8
1
  6
Continuous
100
AcDbLine
 10
313.5
 20
494.5
 30
0.0
 11
313.5
 21
496.958038
 31
0.0
  0
LINE
  5
A04C
330
9FAD
100
AcDbEntity
  8
1
  6
Continuous
100
AcDbLine
 10
312.5
 20
494.5
 30
0.0
 11
312.5
 21
496.958038
 31
0.0
  0
LINE
  5
A04D
330
9FAD
100
AcDbEntity
  8
1
  6
Continuous
100
AcDbLine
 10
328.0
 20
504.100006
 30
0.0
 11
298.0
 21
504.100006
 31
0.0
  0
LINE
  5
A04E
330
9FAD
100
AcDbEntity
  8
4
  6
CENTER
 48
0.2
100
AcDbLine
 10
306.4999999999999
 20
494.0
 30
0.0
 11
319.5
 21
494.0
 31
0.0
  0
LINE
  5
A04F
330
9FAD
100
AcDbEntity
  8
1
  6
Continuous
100
AcDbLine
 10
165.0
 20
591.0
 30
0.0
 11
165.0
 21
617.0
 31
0.0
  0
LINE
  5
A050
330
9FAD
100
AcDbEntity
  8
1
  6
Continuous
100
AcDbLine
 10
195.0
 20
589.0
 30
0.0
 11
195.0
 21
619.0
 31
0.0
  0
LINE
  5
A051
330
9FAD
100
AcDbEntity
  8
4
  6
CENTER
 48
0.2
100
AcDbLine
 10
160.149994
 20
604.0
 30
0.0
 11
200.0
 21
604.0
 31
0.0
  0
LINE
  5
A052
330
9FAD
100
AcDbEntity
  8
4
  6
CENTER
 48
0.2
100
AcDbLine
 10
178.300003
 20
595.0
 30
0.0
 11
167.6999969999999
 21
595.0
 31
0.0
  0
LINE
  5
A053
330
9FAD
100
AcDbEntity
  8
4
  6
CENTER
 48
0.2
100
AcDbLine
 10
173.0
 20
589.700012
 30
0.0
 11
173.0
 21
600.2999879999999
 31
0.0
  0
LINE
  5
A054
330
9FAD
100
AcDbEntity
  8
4
  6
CENTER
 48
0.2
100
AcDbLine
 10
178.300003
 20
613.0
 30
0.0
 11
167.6999969999999
 21
613.0
 31
0.0
  0
LINE
  5
A055
330
9FAD
100
AcDbEntity
  8
4
  6
CENTER
 48
0.2
100
AcDbLine
 10
173.0
 20
607.700012
 30
0.0
 11
173.0
 21
618.2999879999997
 31
0.0
  0
LINE
  5
A056
330
9FAD
100
AcDbEntity
  8
1
  6
Continuous
100
AcDbLine
 10
166.6999969999999
 20
629.099976
 30
0.0
 11
166.6999969999999
 21
632.0
 31
0.0
  0
LINE
  5
A057
330
9FAD
100
AcDbEntity
  8
1
  6
Continuous
100
AcDbLine
 10
196.6999969999999
 20
617.0
 30
0.0
 11
196.6999969999999
 21
629.099976
 31
0.0
  0
LINE
  5
A058
330
9FAD
100
AcDbEntity
  8
1
  6
Continuous
100
AcDbLine
 10
166.6999969999999
 20
632.0
 30
0.0
 11
193.8000029999997
 21
632.0
 31
0.0
  0
LINE
  5
A059
330
9FAD
100
AcDbEntity
  8
1
  6
Continuous
100
AcDbLine
 10
166.6999969999999
 20
629.099976
 30
0.0
 11
193.8000029999997
 21
629.099976
 31
0.0
  0
LINE
  5
A05A
330
9FAD
100
AcDbEntity
  8
4
  6
CENTER
 48
0.2
100
AcDbLine
 10
189.449997
 20
623.0
 30
0.0
 11
201.050003
 21
623.0
 31
0.0
  0
LINE
  5
A05B
330
9FAD
100
AcDbEntity
  8
1
  6
Continuous
100
AcDbLine
 10
195.0
 20
84.0
 30
0.0
 11
195.0
 21
72.0
 31
0.0
  0
LINE
  5
A05C
330
9FAD
100
AcDbEntity
  8
4
  6
CENTER
 48
0.2
100
AcDbLine
 10
174.699997
 20
48.25
 30
0.0
 11
174.699997
 21
36.650002
 31
0.0
  0
LINE
  5
A05D
330
9FAD
100
AcDbEntity
  8
1
  6
Continuous
100
AcDbLine
 10
193.5999999999999
 20
56.0
 30
0.0
 11
193.8000029999997
 21
56.0
 31
0.0
  0
LINE
  5
A05E
330
9FAD
100
AcDbEntity
  8
1
  6
Continuous
100
AcDbLine
 10
190.700006
 20
77.0
 30
0.0
 11
190.700006
 21
58.900002
 31
0.0
  0
LINE
  5
A05F
330
9FAD
100
AcDbEntity
  8
1
  6
Continuous
100
AcDbLine
 10
177.0
 20
79.900002
 30
0.0
 11
177.0
 21
58.09999799999999
 31
0.0
  0
LINE
  5
A060
330
9FAD
100
AcDbEntity
  8
1
  6
Continuous
100
AcDbLine
 10
193.5999999999999
 20
58.900002
 30
0.0
 11
193.8000029999997
 21
58.900002
 31
0.0
  0
LINE
  5
A061
330
9FAD
100
AcDbEntity
  8
1
  6
Continuous
100
AcDbLine
 10
174.0
 20
75.5
 30
0.0
 11
174.0
 21
62.5
 31
0.0
  0
LINE
  5
A062
330
9FAD
100
AcDbEntity
  8
1
  6
Continuous
100
AcDbLine
 10
196.6999969999999
 20
56.0
 30
0.0
 11
196.6999969999999
 21
43.900002
 31
0.0
  0
LINE
  5
A063
330
9FAD
100
AcDbEntity
  8
4
  6
CENTER
 48
0.2
100
AcDbLine
 10
189.449997
 20
50.0
 30
0.0
 11
201.050003
 21
50.0
 31
0.0
  0
LINE
  5
A064
330
9FAD
100
AcDbEntity
  8
1
  6
Continuous
100
AcDbLine
 10
166.6999969999999
 20
43.900002
 30
0.0
 11
193.8000029999997
 21
43.900002
 31
0.0
  0
LINE
  5
A065
330
9FAD
100
AcDbEntity
  8
1
  6
Continuous
100
AcDbLine
 10
166.6999969999999
 20
41.0
 30
0.0
 11
193.8000029999997
 21
41.0
 31
0.0
  0
LINE
  5
A066
330
9FAD
100
AcDbEntity
  8
1
  6
Continuous
100
AcDbLine
 10
166.6999969999999
 20
43.900002
 30
0.0
 11
166.6999969999999
 21
41.0
 31
0.0
  0
LINE
  5
A067
330
9FAD
100
AcDbEntity
  8
1
  6
Continuous
100
AcDbLine
 10
189.0
 20
60.150002
 30
0.0
 11
190.600006
 21
60.150002
 31
0.0
  0
LINE
  5
A068
330
9FAD
100
AcDbEntity
  8
1
  6
Continuous
100
AcDbLine
 10
195.1
 20
68.500008
 30
0.0
 11
194.35
 21
69.00000799999999
 31
0.0
  0
LINE
  5
A069
330
9FAD
100
AcDbEntity
  8
1
  6
Continuous
100
AcDbLine
 10
190.700006
 20
76.99999999999999
 30
0.0
 11
193.5999999999999
 21
77.0
 31
0.0
  0
LINE
  5
A06A
330
9FAD
100
AcDbEntity
  8
1
  6
Continuous
100
AcDbLine
 10
193.5999999999999
 20
77.0
 30
0.0
 11
193.5999999999999
 21
58.900002
 31
0.0
  0
LINE
  5
A06B
330
9FAD
100
AcDbEntity
  8
1
  6
Continuous
100
AcDbLine
 10
175.0
 20
76.5
 30
0.0
 11
175.0
 21
61.5
 31
0.0
  0
LINE
  5
A06C
330
9FAD
100
AcDbEntity
  8
1
  6
Continuous
100
AcDbLine
 10
189.0
 20
77.849998
 30
0.0
 11
190.600006
 21
77.849998
 31
0.0
  0
LINE
  5
A06D
330
9FAD
100
AcDbEntity
  8
1
  6
Continuous
100
AcDbLine
 10
175.0
 20
61.5
 30
0.0
 11
177.0
 21
61.5
 31
0.0
  0
LINE
  5
A06E
330
9FAD
100
AcDbEntity
  8
1
  6
Continuous
100
AcDbLine
 10
175.0
 20
76.5
 30
0.0
 11
177.0
 21
76.5
 31
0.0
  0
LINE
  5
A06F
330
9FAD
100
AcDbEntity
  8
1
  6
Continuous
100
AcDbLine
 10
174.0
 20
62.49999200000001
 30
0.0
 11
174.999985
 21
61.5
 31
0.0
  0
LINE
  5
A070
330
9FAD
100
AcDbEntity
  8
1
  6
Continuous
100
AcDbLine
 10
174.0
 20
75.5
 30
0.0
 11
175.0
 21
76.5
 31
0.0
  0
LINE
  5
A071
330
9FAD
100
AcDbEntity
  8
1
  6
Continuous
100
AcDbLine
 10
193.5999999999999
 20
66.0
 30
0.0
 11
195.1
 21
66.0
 31
0.0
  0
LINE
  5
A072
330
9FAD
100
AcDbEntity
  8
1
  6
Continuous
100
AcDbLine
 10
193.5999999999999
 20
72.0
 30
0.0
 11
195.1
 21
72.0
 31
0.0
  0
LINE
  5
A073
330
9FAD
100
AcDbEntity
  8
1
  6
Continuous
100
AcDbLine
 10
194.35
 20
69.0
 30
0.0
 11
195.1
 21
69.499992
 31
0.0
  0
LINE
  5
A074
330
9FAD
100
AcDbEntity
  8
1
  6
Continuous
100
AcDbLine
 10
167.0
 20
84.0
 30
0.0
 11
195.0
 21
84.0
 31
0.0
  0
LINE
  5
A075
330
9FAD
100
AcDbEntity
  8
1
  6
Continuous
100
AcDbLine
 10
167.0
 20
54.0
 30
0.0
 11
193.8000029999997
 21
54.0
 31
0.0
  0
LINE
  5
A076
330
9FAD
100
AcDbEntity
  8
4
  6
CENTER
 48
0.2
100
AcDbLine
 10
160.149994
 20
69.0
 30
0.0
 11
200.0
 21
69.0
 31
0.0
  0
LINE
  5
A077
330
9FAD
100
AcDbEntity
  8
1
  6
Continuous
100
AcDbLine
 10
165.0
 20
82.0
 30
0.0
 11
165.0
 21
56.0
 31
0.0
  0
LINE
  5
A078
330
9FAD
100
AcDbEntity
  8
1
  6
Continuous
100
AcDbLine
 10
189.0
 20
54.0
 30
0.0
 11
189.0
 21
84.0
 31
0.0
  0
LINE
  5
A079
330
9FAD
100
AcDbEntity
  8
1
  6
Continuous
100
AcDbLine
 10
187.399994
 20
81.5
 30
0.0
 11
178.600006
 21
81.5
 31
0.0
  0
LINE
  5
A07A
330
9FAD
100
AcDbEntity
  8
1
  6
Continuous
100
AcDbLine
 10
187.399994
 20
56.5
 30
0.0
 11
178.600006
 21
56.5
 31
0.0
  0
LINE
  5
A07B
330
9FAD
100
AcDbEntity
  8
1
  6
Continuous
100
AcDbLine
 10
187.399994
 20
58.09999799999999
 30
0.0
 11
187.399994
 21
79.900002
 31
0.0
  0
LINE
  5
A07C
330
9FAD
100
AcDbEntity
  8
1
  6
Continuous
100
AcDbLine
 10
187.399994
 20
58.09999799999999
 30
0.0
 11
178.600006
 21
58.09999799999999
 31
0.0
  0
LINE
  5
A07D
330
9FAD
100
AcDbEntity
  8
1
  6
Continuous
100
AcDbLine
 10
178.600006
 20
79.900002
 30
0.0
 11
178.600006
 21
58.09999799999999
 31
0.0
  0
LINE
  5
A07E
330
9FAD
100
AcDbEntity
  8
1
  6
Continuous
100
AcDbLine
 10
187.399994
 20
79.900002
 30
0.0
 11
178.600006
 21
79.900002
 31
0.0
  0
LINE
  5
A07F
330
9FAD
100
AcDbEntity
  8
1
  6
Continuous
100
AcDbLine
 10
187.399994
 20
65.0
 30
0.0
 11
178.600006
 21
65.0
 31
0.0
  0
LINE
  5
A080
330
9FAD
100
AcDbEntity
  8
1
  6
Continuous
100
AcDbLine
 10
187.399994
 20
73.0
 30
0.0
 11
178.600006
 21
73.0
 31
0.0
  0
LINE
  5
A081
330
9FAD
100
AcDbEntity
  8
1
  6
Continuous
100
AcDbLine
 10
186.8999939999999
 20
58.5
 30
0.0
 11
186.8999939999999
 21
65.0
 31
0.0
  0
LINE
  5
A082
330
9FAD
100
AcDbEntity
  8
1
  6
Continuous
100
AcDbLine
 10
185.300003
 20
79.5
 30
0.0
 11
180.1999969999999
 21
79.5
 31
0.0
  0
LINE
  5
A083
330
9FAD
100
AcDbEntity
  8
1
  6
Continuous
100
AcDbLine
 10
186.8999939999999
 20
58.5
 30
0.0
 11
185.300003
 21
58.5
 31
0.0
  0
LINE
  5
A084
330
9FAD
100
AcDbEntity
  8
1
  6
Continuous
100
AcDbLine
 10
185.300003
 20
58.5
 30
0.0
 11
185.300003
 21
65.0
 31
0.0
  0
LINE
  5
A085
330
9FAD
100
AcDbEntity
  8
1
  6
Continuous
100
AcDbLine
 10
180.1999969999999
 20
58.5
 30
0.0
 11
180.1999969999999
 21
65.0
 31
0.0
  0
LINE
  5
A086
330
9FAD
100
AcDbEntity
  8
1
  6
Continuous
100
AcDbLine
 10
185.300003
 20
77.900002
 30
0.0
 11
180.1999969999999
 21
77.900002
 31
0.0
  0
LINE
  5
A087
330
9FAD
100
AcDbEntity
  8
1
  6
Continuous
100
AcDbLine
 10
180.1999969999999
 20
58.5
 30
0.0
 11
178.600006
 21
58.5
 31
0.0
  0
LINE
  5
A088
330
9FAD
100
AcDbEntity
  8
1
  6
Continuous
100
AcDbLine
 10
185.300003
 20
73.0
 30
0.0
 11
185.300003
 21
77.900002
 31
0.0
  0
LINE
  5
A089
330
9FAD
100
AcDbEntity
  8
1
  6
Continuous
100
AcDbLine
 10
186.8999939999999
 20
73.0
 30
0.0
 11
186.8999939999999
 21
77.900002
 31
0.0
  0
LINE
  5
A08A
330
9FAD
100
AcDbEntity
  8
1
  6
Continuous
100
AcDbLine
 10
180.1999969999999
 20
73.0
 30
0.0
 11
180.1999969999999
 21
77.900002
 31
0.0
  0
LINE
  5
A08B
330
9FAD
100
AcDbEntity
  8
1
  6
Continuous
100
AcDbLine
 10
184.3000029999998
 20
61.599998
 30
0.0
 11
180.3000029999997
 21
61.599998
 31
0.0
  0
LINE
  5
A08C
330
9FAD
100
AcDbEntity
  8
1
  6
Continuous
100
AcDbLine
 10
184.3000029999998
 20
76.400002
 30
0.0
 11
180.3000029999997
 21
76.400002
 31
0.0
  0
LINE
  5
A08D
330
9FAD
100
AcDbEntity
  8
1
  6
Continuous
100
AcDbLine
 10
184.3000029999998
 20
58.09999799999999
 30
0.0
 11
184.3000029999998
 21
65.0
 31
0.0
  0
LINE
  5
A08E
330
9FAD
100
AcDbEntity
  8
1
  6
Continuous
100
AcDbLine
 10
181.6999969999999
 20
58.09999799999999
 30
0.0
 11
181.6999969999999
 21
61.599998
 31
0.0
  0
LINE
  5
A08F
330
9FAD
100
AcDbEntity
  8
4
  6
CENTER
 48
0.1
100
AcDbLine
 10
328.0
 20
358.4999999999998
 30
0.0
 11
324.0
 21
358.4999999999998
 31
0.0
  0
LINE
  5
A090
330
9FAD
100
AcDbEntity
  8
4
  6
CENTER
 48
0.1
100
AcDbLine
 10
328.0
 20
368.5
 30
0.0
 11
324.0
 21
368.5
 31
0.0
  0
LINE
  5
A091
330
9FAD
100
AcDbEntity
  8
4
  6
CENTER
 48
0.2
100
AcDbLine
 10
174.699997
 20
624.75
 30
0.0
 11
174.699997
 21
636.3499759999997
 31
0.0
  0
LINE
  5
A092
330
9FAD
100
AcDbEntity
  8
4
  6
CENTER
 48
0.2
100
AcDbLine
 10
447.0
 20
358.4999999999998
 30
0.0
 11
439.0
 21
358.4999999999998
 31
0.0
  0
LINE
  5
A093
330
9FAD
100
AcDbEntity
  8
4
  6
CENTER
 48
0.2
100
AcDbLine
 10
447.0
 20
368.5
 30
0.0
 11
439.0
 21
368.5
 31
0.0
  0
LINE
  5
A094
330
9FAD
100
AcDbEntity
  8
4
  6
CENTER
100
AcDbLine
 10
183.0
 20
164.0
 30
0.0
 11
183.0
 21
527.0
 31
0.0
  0
LINE
  5
A095
330
9FAD
100
AcDbEntity
  8
4
  6
CENTER
 48
0.2
100
AcDbLine
 10
183.0
 20
584.0
 30
0.0
 11
183.0
 21
624.0
 31
0.0
  0
LINE
  5
A096
330
9FAD
100
AcDbEntity
  8
4
  6
CENTER
 48
0.2
100
AcDbLine
 10
183.0
 20
49.0
 30
0.0
 11
183.0
 21
89.0
 31
0.0
  0
LINE
  5
A097
330
9FAD
100
AcDbEntity
  8
1
  6
Continuous
100
AcDbLine
 10
193.8000029999997
 20
619.0
 30
0.0
 11
193.8000029999997
 21
629.099976
 31
0.0
  0
LINE
  5
A098
330
9FAD
100
AcDbEntity
  8
1
  6
Continuous
100
AcDbLine
 10
190.700006
 20
169.0
 30
0.0
 11
190.700006
 21
199.0
 31
0.0
  0
LINE
  5
A099
330
9FAD
100
AcDbEntity
  8
1
  6
Continuous
100
AcDbLine
 10
192.100006
 20
507.0
 30
0.0
 11
192.100006
 21
519.0999759999998
 31
0.0
  0
LINE
  5
A09A
330
9FAD
100
AcDbEntity
  8
1
  6
Continuous
100
AcDbLine
 10
180.3000029999997
 20
61.599998
 30
0.0
 11
180.3000029999997
 21
65.0
 31
0.0
  0
LINE
  5
A09B
330
9FAD
100
AcDbEntity
  8
1
  6
Continuous
100
AcDbLine
 10
184.3000029999998
 20
73.0
 30
0.0
 11
184.3000029999998
 21
77.900002
 31
0.0
  0
LINE
  5
A09C
330
9FAD
100
AcDbEntity
  8
1
  6
Continuous
100
AcDbLine
 10
180.3000029999997
 20
73.0
 30
0.0
 11
180.3000029999997
 21
77.900002
 31
0.0
  0
LINE
  5
A09D
330
9FAD
100
AcDbEntity
  8
1
  6
Continuous
100
AcDbLine
 10
180.1999969999999
 20
333.0
 30
0.0
 11
180.1999969999999
 21
355.600006
 31
0.0
  0
LINE
  5
A09E
330
9FAD
100
AcDbEntity
  8
1
  6
Continuous
100
AcDbLine
 10
185.300003
 20
333.0
 30
0.0
 11
185.300003
 21
355.600006
 31
0.0
  0
LINE
  5
A09F
330
9FAD
100
AcDbEntity
  8
1
  6
Continuous
100
AcDbLine
 10
185.300003
 20
349.0
 30
0.0
 11
185.1335599999999
 21
349.0
 31
0.0
  0
LINE
  5
A0A0
330
9FAD
100
AcDbEntity
  8
1
  6
Continuous
100
AcDbLine
 10
185.300003
 20
345.0
 30
0.0
 11
185.1335599999999
 21
345.0
 31
0.0
  0
LINE
  5
A0A1
330
9FAD
100
AcDbEntity
  8
1
  6
Continuous
100
AcDbLine
 10
185.0321659999999
 20
345.0
 30
0.0
 11
184.3000029999998
 21
345.0
 31
0.0
  0
LINE
  5
A0A2
330
9FAD
100
AcDbEntity
  8
1
  6
Continuous
100
AcDbLine
 10
185.0321659999999
 20
349.0
 30
0.0
 11
184.3000029999998
 21
349.0
 31
0.0
  0
LINE
  5
A0A3
330
9FAD
100
AcDbEntity
  8
1
  6
Continuous
100
AcDbLine
 10
184.3000029999998
 20
333.0
 30
0.0
 11
184.3000029999998
 21
356.0
 31
0.0
  0
LINE
  5
A0A4
330
9FAD
100
AcDbEntity
  8
1
  6
Continuous
100
AcDbLine
 10
180.3000029999997
 20
333.0
 30
0.0
 11
180.3000029999997
 21
355.7141419999999
 31
0.0
  0
LINE
  5
A0A5
330
9FAD
100
AcDbEntity
  8
4
  6
CENTER
 48
0.2
100
AcDbLine
 10
194.0
 20
347.0
 30
0.0
 11
172.0
 21
347.0
 31
0.0
  0
LINE
  5
A0A6
330
9FAD
100
AcDbEntity
  8
1
  6
Continuous
100
AcDbLine
 10
457.299988
 20
169.0
 30
0.0
 11
429.2999879999999
 21
169.0
 31
0.0
  0
LINE
  5
A0A7
330
9FAD
100
AcDbEntity
  8
1
  6
Continuous
100
AcDbLine
 10
429.2999879999999
 20
169.0
 30
0.0
 11
429.2999879999999
 21
199.0
 31
0.0
  0
LINE
  5
A0A8
330
9FAD
100
AcDbEntity
  8
1
  6
Continuous
100
AcDbLine
 10
457.299988
 20
199.0
 30
0.0
 11
429.2999879999999
 21
199.0
 31
0.0
  0
LINE
  5
A0A9
330
9FAD
100
AcDbEntity
  8
4
  6
CENTER
 48
0.2
100
AcDbLine
 10
451.2999879999998
 20
169.699997
 30
0.0
 11
451.2999879999998
 21
180.3000029999997
 31
0.0
  0
LINE
  5
A0AA
330
9FAD
100
AcDbEntity
  8
4
  6
CENTER
 48
0.2
100
AcDbLine
 10
451.2999879999998
 20
187.6999969999999
 30
0.0
 11
451.2999879999998
 21
198.300003
 31
0.0
  0
LINE
  5
A0AB
330
9FAD
100
AcDbEntity
  8
1
  6
Continuous
100
AcDbLine
 10
459.2999879999998
 20
171.0
 30
0.0
 11
459.2999879999998
 21
197.0
 31
0.0
  0
LINE
  5
A0AC
330
9FAD
100
AcDbEntity
  8
4
  6
CENTER
 48
0.2
100
AcDbLine
 10
456.6000059999998
 20
193.0
 30
0.0
 11
446.0
 21
193.0
 31
0.0
  0
LINE
  5
A0AD
330
9FAD
100
AcDbEntity
  8
4
  6
CENTER
 48
0.2
100
AcDbLine
 10
456.6000059999998
 20
175.0
 30
0.0
 11
446.0
 21
175.0
 31
0.0
  0
LINE
  5
A0AE
330
9FAD
100
AcDbEntity
  8
1
  6
Continuous
100
AcDbLine
 10
437.0
 20
374.5
 30
0.0
 11
449.0
 21
374.5
 31
0.0
  0
LINE
  5
A0AF
330
9FAD
100
AcDbEntity
  8
1
  6
Continuous
100
AcDbLine
 10
449.0
 20
199.0
 30
0.0
 11
449.0
 21
374.5
 31
0.0
  0
LINE
  5
A0B0
330
9FAD
100
AcDbEntity
  8
1
  6
Continuous
100
AcDbLine
 10
437.0
 20
199.0
 30
0.0
 11
437.0
 21
374.5
 31
0.0
  0
LINE
  5
A0B1
330
9FAD
100
AcDbEntity
  8
4
  6
CENTER
 48
0.2
100
AcDbLine
 10
464.2999879999998
 20
184.0
 30
0.0
 11
424.299988
 21
184.0
 31
0.0
  0
LINE
  5
A0B2
330
9FAD
100
AcDbEntity
  8
4
  6
CENTER
 48
0.2
100
AcDbLine
 10
432.0
 20
347.0
 30
0.0
 11
454.0
 21
347.0
 31
0.0
  0
LINE
  5
A0B3
330
9FAD
100
AcDbEntity
  8
4
  6
CENTER
 48
0.2
100
AcDbLine
 10
330.5
 20
347.0
 30
0.0
 11
295.5
 21
347.0
 31
0.0
  0
LINE
  5
A0B4
330
9FAD
100
AcDbEntity
  8
4
  6
CENTER
 48
0.2
100
AcDbLine
 10
70.0
 20
347.0
 30
0.0
 11
35.0
 21
347.0
 31
0.0
  0
LINE
  5
A0B5
330
9FAD
100
AcDbEntity
  8
4
  6
CENTER
 48
0.2
100
AcDbLine
 10
424.299988
 20
175.0
 30
0.0
 11
437.200012
 21
175.0
 31
0.0
  0
LINE
  5
A0B6
330
9FAD
100
AcDbEntity
  8
4
  6
CENTER
 48
0.2
100
AcDbLine
 10
424.299988
 20
193.0
 30
0.0
 11
437.200012
 21
193.0
 31
0.0
  0
LINE
  5
A0B7
330
9FAD
100
AcDbEntity
  8
4
  6
CENTER
 48
0.2
100
AcDbLine
 10
186.25
 20
175.0
 30
0.0
 11
197.850006
 21
175.0
 31
0.0
  0
LINE
  5
A0B8
330
9FAD
100
AcDbEntity
  8
4
  6
CENTER
 48
0.2
100
AcDbLine
 10
186.25
 20
193.0
 30
0.0
 11
197.850006
 21
193.0
 31
0.0
  0
LINE
  5
A0B9
330
9FAD
100
AcDbEntity
  8
5
  6
PHANTOM
 48
0.2
100
AcDbLine
 10
183.800003
 20
341.200012
 30
0.0
 11
180.800003
 21
341.200012
 31
0.0
  0
LINE
  5
A0BA
330
9FAD
100
AcDbEntity
  8
4
  6
CENTER
 48
0.2
100
AcDbLine
 10
194.0
 20
348.600006
 30
0.0
 11
172.0
 21
348.600006
 31
0.0
  0
LINE
  5
A0BB
330
9FAD
100
AcDbEntity
  8
5
  6
PHANTOM
 48
0.2
100
AcDbLine
 10
184.3000029999998
 20
349.600006
 30
0.0
 11
180.3000029999997
 21
349.600006
 31
0.0
  0
LINE
  5
A0BC
330
9FAD
100
AcDbEntity
  8
5
  6
PHANTOM
 48
0.2
100
AcDbLine
 10
184.3000029999998
 20
347.600006
 30
0.0
 11
180.3000029999997
 21
347.600006
 31
0.0
  0
LINE
  5
A0BD
330
9FAD
100
AcDbEntity
  8
5
  6
PHANTOM
 48
0.2
100
AcDbLine
 10
183.800003
 20
342.700012
 30
0.0
 11
181.1000059999997
 21
342.700012
 31
0.0
  0
LINE
  5
A0BE
330
9FAD
100
AcDbEntity
  8
5
  6
PHANTOM
 48
0.2
100
AcDbLine
 10
183.800003
 20
354.4999999999998
 30
0.0
 11
181.1000059999997
 21
354.4999999999998
 31
0.0
  0
LINE
  5
A0BF
330
9FAD
100
AcDbEntity
  8
5
  6
PHANTOM
 48
0.2
100
AcDbLine
 10
185.5
 20
334.600006
 30
0.0
 11
180.0
 21
334.600006
 31
0.0
  0
LINE
  5
A0C0
330
9FAD
100
AcDbEntity
  8
5
  6
PHANTOM
 48
0.1
100
AcDbLine
 10
300.0
 20
341.200012
 30
0.0
 11
298.4999999999999
 21
341.200012
 31
0.0
  0
LINE
  5
A0C1
330
9FAD
100
AcDbEntity
  8
5
  6
PHANTOM
 48
0.1
100
AcDbLine
 10
300.0
 20
356.0
 30
0.0
 11
298.4999999999999
 21
356.0
 31
0.0
  0
LINE
  5
A0C2
330
9FAD
100
AcDbEntity
  8
1
  6
Continuous
100
AcDbLine
 10
185.5
 20
333.0
 30
0.0
 11
180.0
 21
333.0
 31
0.0
  0
LINE
  5
A0C3
330
9FAD
100
AcDbEntity
  8
1
  6
Continuous
100
AcDbLine
 10
193.8000029999997
 20
56.0
 30
0.0
 11
193.8000029999997
 21
43.900002
 31
0.0
  0
LINE
  5
A0C4
330
9FAD
100
AcDbEntity
  8
4
  6
CENTER
 48
0.2
100
AcDbLine
 10
178.300003
 20
60.0
 30
0.0
 11
167.6999969999999
 21
60.0
 31
0.0
  0
LINE
  5
A0C5
330
9FAD
100
AcDbEntity
  8
4
  6
CENTER
 48
0.2
100
AcDbLine
 10
173.0
 20
54.700001
 30
0.0
 11
173.0
 21
65.30000300000001
 31
0.0
  0
LINE
  5
A0C6
330
9FAD
100
AcDbEntity
  8
4
  6
CENTER
 48
0.2
100
AcDbLine
 10
178.300003
 20
78.0
 30
0.0
 11
167.6999969999999
 21
78.0
 31
0.0
  0
LINE
  5
A0C7
330
9FAD
100
AcDbEntity
  8
4
  6
CENTER
 48
0.2
100
AcDbLine
 10
173.0
 20
72.69999699999998
 30
0.0
 11
173.0
 21
83.300003
 31
0.0
  0
LINE
  5
A0C8
330
9FAD
100
AcDbEntity
  8
1
  6
Continuous
100
AcDbLine
 10
65.5
 20
174.5
 30
0.0
 11
65.5
 21
374.5
 31
0.0
  0
LINE
  5
A0C9
330
9FAD
100
AcDbEntity
  8
1
  6
Continuous
100
AcDbLine
 10
40.49999999999999
 20
174.5
 30
0.0
 11
40.49999999999999
 21
374.5
 31
0.0
  0
LINE
  5
A0CA
330
9FAD
100
AcDbEntity
  8
1
  6
Continuous
100
AcDbLine
 10
40.49999999999999
 20
374.5
 30
0.0
 11
65.5
 21
374.5
 31
0.0
  0
LINE
  5
A0CB
330
9FAD
100
AcDbEntity
  8
1
  6
Continuous
100
AcDbLine
 10
65.50000799999999
 20
344.0
 30
0.0
 11
66.943146
 21
338.9090879999999
 31
0.0
  0
LINE
  5
A0CC
330
9FAD
100
AcDbEntity
  8
1
  6
Continuous
100
AcDbLine
 10
40.49999999999999
 20
360.4999999999998
 30
0.0
 11
40.49999999999999
 21
360.4999999999998
 31
0.0
  0
LINE
  5
A0CD
330
9FAD
100
AcDbEntity
  8
1
  6
Continuous
100
AcDbLine
 10
40.49999999999999
 20
356.4999999999998
 30
0.0
 11
40.49999999999999
 21
356.4999999999998
 31
0.0
  0
LINE
  5
A0CE
330
9FAD
100
AcDbEntity
  8
1
  6
Continuous
100
AcDbLine
 10
40.49999999999999
 20
370.5
 30
0.0
 11
40.49999999999999
 21
370.5
 31
0.0
  0
LINE
  5
A0CF
330
9FAD
100
AcDbEntity
  8
1
  6
Continuous
100
AcDbLine
 10
40.49999999999999
 20
366.5
 30
0.0
 11
40.49999999999999
 21
366.5
 31
0.0
  0
LINE
  5
A0D0
330
9FAD
100
AcDbEntity
  8
4
  6
CENTER
 48
0.1
100
AcDbLine
 10
38.452713
 20
368.5
 30
0.0
 11
42.610073
 21
368.5
 31
0.0
  0
LINE
  5
A0D1
330
9FAD
100
AcDbEntity
  8
4
  6
CENTER
 48
0.1
100
AcDbLine
 10
38.452713
 20
358.4999999999998
 30
0.0
 11
42.610073
 21
358.4999999999998
 31
0.0
  0
LINE
  5
A0D2
330
9FAD
100
AcDbEntity
  8
5
  6
PHANTOM
 48
0.1
100
AcDbLine
 10
66.0
 20
341.200012
 30
0.0
 11
67.5
 21
341.200012
 31
0.0
  0
LINE
  5
A0D3
330
9FAD
100
AcDbEntity
  8
5
  6
PHANTOM
 48
0.1
100
AcDbLine
 10
66.0
 20
356.0
 30
0.0
 11
67.5
 21
356.0
 31
0.0
  0
LINE
  5
A0D4
330
9FAD
100
AcDbEntity
  8
1
  6
Continuous
100
AcDbLine
 10
184.3000029999998
 20
83.0
 30
0.0
 11
180.3000029999997
 21
83.0
 31
0.0
  0
LINE
  5
A0D5
330
9FAD
100
AcDbEntity
  8
1
  6
Continuous
100
AcDbLine
 10
184.3000029999998
 20
81.5
 30
0.0
 11
184.3000029999998
 21
83.0
 31
0.0
  0
LINE
  5
A0D6
330
9FAD
100
AcDbEntity
  8
1
  6
Continuous
100
AcDbLine
 10
180.3000029999997
 20
81.5
 30
0.0
 11
180.3000029999997
 21
83.0
 31
0.0
  0
LINE
  5
A0D7
330
9FAD
100
AcDbEntity
  8
1
  6
Continuous
100
AcDbLine
 10
183.800003
 20
82.5
 30
0.0
 11
180.800003
 21
82.5
 31
0.0
  0
LINE
  5
A0D8
330
9FAD
100
AcDbEntity
  8
1
  6
Continuous
100
AcDbLine
 10
185.325684
 20
366.3335879999999
 30
0.0
 11
180.674316
 21
366.3335879999999
 31
0.0
  0
LINE
  5
A0D9
330
9FAD
100
AcDbEntity
  8
1
  6
Continuous
100
AcDbLine
 10
185.270203
 20
366.99942
 30
0.0
 11
180.729797
 21
366.99942
 31
0.0
  0
LINE
  5
A0DA
330
9FAD
100
AcDbEntity
  8
1
  6
Continuous
100
AcDbLine
 10
180.927383
 20
367.6666259999998
 30
0.0
 11
182.2008669999999
 21
367.6666259999998
 31
0.0
  0
LINE
  5
A0DB
330
9FAD
100
AcDbEntity
  8
1
  6
Continuous
100
AcDbLine
 10
184.731583
 20
368.3338009999998
 30
0.0
 11
181.2684169999999
 21
368.3338009999998
 31
0.0
  0
LINE
  5
A0DC
330
9FAD
100
AcDbEntity
  8
1
  6
Continuous
100
AcDbLine
 10
183.0006709999999
 20
366.3335879999999
 30
0.0
 11
183.0006709999999
 21
366.99942
 31
0.0
  0
LINE
  5
A0DD
330
9FAD
100
AcDbEntity
  8
1
  6
Continuous
100
AcDbLine
 10
183.800491
 20
367.6666259999998
 30
0.0
 11
185.0726169999999
 21
367.6666259999998
 31
0.0
  0
LINE
  5
A0DE
330
9FAD
100
AcDbEntity
  8
1
  6
Continuous
100
AcDbLine
 10
184.6449739999999
 20
368.9996339999999
 30
0.0
 11
181.356384
 21
368.9996339999999
 31
0.0
  0
LINE
  5
A0DF
330
9FAD
100
AcDbEntity
  8
1
  6
Continuous
100
AcDbLine
 10
181.7705079999998
 20
369.66684
 30
0.0
 11
184.229492
 21
369.66684
 31
0.0
  0
LINE
  5
A0E0
330
9FAD
100
AcDbEntity
  8
1
  6
Continuous
100
AcDbLine
 10
184.8290249999998
 20
370.332672
 30
0.0
 11
181.9545589999999
 21
370.332672
 31
0.0
  0
LINE
  5
A0E1
330
9FAD
100
AcDbEntity
  8
1
  6
Continuous
100
AcDbLine
 10
185.191711
 20
363.6675419999999
 30
0.0
 11
181.018051
 21
363.6675419999999
 31
0.0
  0
LINE
  5
A0E2
330
9FAD
100
AcDbEntity
  8
1
  6
Continuous
100
AcDbLine
 10
181.1181949999999
 20
364.333374
 30
0.0
 11
183.0006709999999
 21
364.333374
 31
0.0
  0
LINE
  5
A0E3
330
9FAD
100
AcDbEntity
  8
1
  6
Continuous
100
AcDbLine
 10
185.1944119999997
 20
365.0005799999998
 30
0.0
 11
180.8055879999997
 21
365.0005799999998
 31
0.0
  0
LINE
  5
A0E4
330
9FAD
100
AcDbEntity
  8
1
  6
Continuous
100
AcDbLine
 10
185.325684
 20
365.6664119999998
 30
0.0
 11
180.674316
 21
365.6664119999998
 31
0.0
  0
LINE
  5
A0E5
330
9FAD
100
AcDbEntity
  8
1
  6
Continuous
100
AcDbLine
 10
183.0006709999999
 20
360.282867
 30
0.0
 11
183.0006709999999
 21
361.660553
 31
0.0
  0
LINE
  5
A0E6
330
9FAD
100
AcDbEntity
  8
1
  6
Continuous
100
AcDbLine
 10
181.7529139999997
 20
361.994812
 30
0.0
 11
184.562408
 21
361.2410279999999
 31
0.0
  0
LINE
  5
A0E7
330
9FAD
100
AcDbEntity
  8
1
  6
Continuous
100
AcDbLine
 10
183.0006709999999
 20
362.66745
 30
0.0
 11
181.401047
 21
362.66745
 31
0.0
  0
LINE
  5
A0E8
330
9FAD
100
AcDbEntity
  8
1
  6
Continuous
100
AcDbLine
 10
183.333603
 20
362.33316
 30
0.0
 11
184.757294
 21
362.33316
 31
0.0
  0
LINE
  5
A0E9
330
9FAD
100
AcDbEntity
  8
1
  6
Continuous
100
AcDbLine
 10
184.8777469999999
 20
363.0003659999999
 30
0.0
 11
183.333603
 21
363.0003659999999
 31
0.0
  0
LINE
  5
A0EA
330
9FAD
100
AcDbEntity
  8
1
  6
Continuous
100
AcDbLine
 10
183.0006709999999
 20
364.333374
 30
0.0
 11
183.0006709999999
 21
364.6662899999999
 31
0.0
  0
LINE
  5
A0EB
330
9FAD
100
AcDbEntity
  8
1
  6
Continuous
100
AcDbLine
 10
183.800491
 20
364.333374
 30
0.0
 11
184.881805
 21
364.333374
 31
0.0
  0
LINE
  5
A0EC
330
9FAD
100
AcDbEntity
  8
1
  6
Continuous
100
AcDbLine
 10
432.6000059999998
 20
491.0
 30
0.0
 11
432.6000059999998
 21
493.5
 31
0.0
  0
LINE
  5
A0ED
330
9FAD
100
AcDbEntity
  8
4
  6
CENTER
 48
0.2
100
AcDbLine
 10
453.0
 20
514.7499999999999
 30
0.0
 11
453.0
 21
526.349976
 31
0.0
  0
LINE
  5
A0EE
330
9FAD
100
AcDbEntity
  8
1
  6
Continuous
100
AcDbLine
 10
434.1000059999998
 20
507.0
 30
0.0
 11
433.8999939999998
 21
507.0
 31
0.0
  0
LINE
  5
A0EF
330
9FAD
100
AcDbEntity
  8
1
  6
Continuous
100
AcDbLine
 10
438.6000059999998
 20
374.5
 30
0.0
 11
438.6000059999998
 21
504.0
 31
0.0
  0
LINE
  5
A0F0
330
9FAD
100
AcDbEntity
  8
4
  6
CENTER
100
AcDbLine
 10
443.0
 20
164.0
 30
0.0
 11
443.0
 21
526.349976
 31
0.0
  0
LINE
  5
A0F1
330
9FAD
100
AcDbEntity
  8
1
  6
Continuous
100
AcDbLine
 10
437.0
 20
485.149994
 30
0.0
 11
437.0
 21
504.100006
 31
0.0
  0
LINE
  5
A0F2
330
9FAD
100
AcDbEntity
  8
4
  6
CENTER
 48
0.2
100
AcDbLine
 10
457.5039059999999
 20
494.0
 30
0.0
 11
424.3713679999998
 21
494.0
 31
0.0
  0
LINE
  5
A0F3
330
9FAD
100
AcDbEntity
  8
1
  6
Continuous
100
AcDbLine
 10
446.8999939999998
 20
374.5
 30
0.0
 11
446.8999939999998
 21
504.0
 31
0.0
  0
LINE
  5
A0F4
330
9FAD
100
AcDbEntity
  8
1
  6
Continuous
100
AcDbLine
 10
434.1000059999998
 20
504.100006
 30
0.0
 11
433.8999939999998
 21
504.100006
 31
0.0
  0
LINE
  5
A0F5
330
9FAD
100
AcDbEntity
  8
1
  6
Continuous
100
AcDbLine
 10
449.899994
 20
487.5
 30
0.0
 11
449.899994
 21
500.4999999999998
 31
0.0
  0
LINE
  5
A0F6
330
9FAD
100
AcDbEntity
  8
1
  6
Continuous
100
AcDbLine
 10
431.0
 20
507.0
 30
0.0
 11
431.0
 21
519.0999759999998
 31
0.0
  0
LINE
  5
A0F7
330
9FAD
100
AcDbEntity
  8
4
  6
CENTER
 48
0.2
100
AcDbLine
 10
438.25
 20
513.0
 30
0.0
 11
426.649994
 21
513.0
 31
0.0
  0
LINE
  5
A0F8
330
9FAD
100
AcDbEntity
  8
1
  6
Continuous
100
AcDbLine
 10
461.0
 20
519.0999759999998
 30
0.0
 11
433.8999939999998
 21
519.0999759999998
 31
0.0
  0
LINE
  5
A0F9
330
9FAD
100
AcDbEntity
  8
1
  6
Continuous
100
AcDbLine
 10
461.0
 20
522.0
 30
0.0
 11
433.8999939999998
 21
522.0
 31
0.0
  0
LINE
  5
A0FA
330
9FAD
100
AcDbEntity
  8
1
  6
Continuous
100
AcDbLine
 10
461.0
 20
519.0999759999998
 30
0.0
 11
461.0
 21
522.0
 31
0.0
  0
LINE
  5
A0FB
330
9FAD
100
AcDbEntity
  8
1
  6
Continuous
100
AcDbLine
 10
438.6000059999998
 20
502.8500059999998
 30
0.0
 11
437.0
 21
502.8500059999998
 31
0.0
  0
LINE
  5
A0FC
330
9FAD
100
AcDbEntity
  8
1
  6
Continuous
100
AcDbLine
 10
432.6000059999998
 20
494.5
 30
0.0
 11
433.3499759999998
 21
494.0
 31
0.0
  0
LINE
  5
A0FD
330
9FAD
100
AcDbEntity
  8
1
  6
Continuous
100
AcDbLine
 10
437.0
 20
486.0
 30
0.0
 11
434.1000059999998
 21
486.0
 31
0.0
  0
LINE
  5
A0FE
330
9FAD
100
AcDbEntity
  8
1
  6
Continuous
100
AcDbLine
 10
432.6000059999998
 20
494.5
 30
0.0
 11
432.6000059999998
 21
497.0
 31
0.0
  0
LINE
  5
A0FF
330
9FAD
100
AcDbEntity
  8
1
  6
Continuous
100
AcDbLine
 10
434.1000059999998
 20
486.0
 30
0.0
 11
434.1000059999998
 21
504.100006
 31
0.0
  0
LINE
  5
A100
330
9FAD
100
AcDbEntity
  8
1
  6
Continuous
100
AcDbLine
 10
448.899994
 20
486.5
 30
0.0
 11
448.899994
 21
501.4999999999998
 31
0.0
  0
LINE
  5
A101
330
9FAD
100
AcDbEntity
  8
1
  6
Continuous
100
AcDbLine
 10
438.6000059999998
 20
485.149994
 30
0.0
 11
437.0
 21
485.149994
 31
0.0
  0
LINE
  5
A102
330
9FAD
100
AcDbEntity
  8
1
  6
Continuous
100
AcDbLine
 10
448.899994
 20
501.4999999999998
 30
0.0
 11
446.8999939999998
 21
501.4999999999998
 31
0.0
  0
LINE
  5
A103
330
9FAD
100
AcDbEntity
  8
1
  6
Continuous
100
AcDbLine
 10
448.899994
 20
486.5
 30
0.0
 11
446.8999939999998
 21
486.5
 31
0.0
  0
LINE
  5
A104
330
9FAD
100
AcDbEntity
  8
1
  6
Continuous
100
AcDbLine
 10
449.899994
 20
500.4999999999998
 30
0.0
 11
448.900024
 21
501.4999999999998
 31
0.0
  0
LINE
  5
A105
330
9FAD
100
AcDbEntity
  8
1
  6
Continuous
100
AcDbLine
 10
438.6000059999998
 20
504.0
 30
0.0
 11
446.8999939999998
 21
504.0
 31
0.0
  0
LINE
  5
A106
330
9FAD
100
AcDbEntity
  8
1
  6
Continuous
100
AcDbLine
 10
449.9000239999999
 20
487.5
 30
0.0
 11
448.899994
 21
486.5
 31
0.0
  0
LINE
  5
A107
330
9FAD
100
AcDbEntity
  8
1
  6
Continuous
100
AcDbLine
 10
434.1000059999998
 20
497.0
 30
0.0
 11
432.6000059999998
 21
497.0
 31
0.0
  0
LINE
  5
A108
330
9FAD
100
AcDbEntity
  8
1
  6
Continuous
100
AcDbLine
 10
434.1000059999998
 20
491.0
 30
0.0
 11
432.6000059999998
 21
491.0
 31
0.0
  0
LINE
  5
A109
330
9FAD
100
AcDbEntity
  8
1
  6
Continuous
100
AcDbLine
 10
433.3500059999998
 20
494.0
 30
0.0
 11
432.6000059999998
 21
493.5
 31
0.0
  0
LINE
  5
A10A
330
9FAD
100
AcDbEntity
  8
1
  6
Continuous
100
AcDbLine
 10
433.8999939999998
 20
507.0
 30
0.0
 11
433.8999939999998
 21
519.0999759999998
 31
0.0
  0
LINE
  5
A10B
330
9FAD
100
AcDbEntity
  8
1
  6
Continuous
100
AcDbLine
 10
440.200012
 20
374.5
 30
0.0
 11
440.200012
 21
504.0
 31
0.0
  0
LINE
  5
A10C
330
9FAD
100
AcDbEntity
  8
1
  6
Continuous
100
AcDbLine
 10
445.299988
 20
374.5
 30
0.0
 11
445.299988
 21
504.0
 31
0.0
  0
LINE
  5
A10D
330
9FAD
100
AcDbEntity
  8
4
  6
CENTER
 48
0.2
100
AcDbLine
 10
35.0
 20
348.600006
 30
0.0
 11
70.0
 21
348.600006
 31
0.0
  0
LINE
  5
A10E
330
9FAD
100
AcDbEntity
  8
4
  6
CENTER
 48
0.2
100
AcDbLine
 10
295.5
 20
348.600006
 30
0.0
 11
330.5
 21
348.600006
 31
0.0
  0
LINE
  5
A10F
330
9FAD
100
AcDbEntity
  8
4
  6
CENTER
 48
0.2
100
AcDbLine
 10
432.0
 20
348.600006
 30
0.0
 11
454.0
 21
348.600006
 31
0.0
  0
LINE
  5
A110
330
9FAD
100
AcDbEntity
  8
1
  6
Continuous
100
AcDbLine
 10
191.8999939999999
 20
84.0
 30
0.0
 11
191.8999939999999
 21
77.0
 31
0.0
  0
LINE
  5
A111
330
9FAD
100
AcDbEntity
  8
1
  6
Continuous
100
AcDbLine
 10
191.8999939999999
 20
56.481323
 30
0.0
 11
191.8999939999999
 21
54.0
 31
0.0
  0
ARC
  5
A112
330
9FAD
100
AcDbEntity
  8
1
  6
Continuous
100
AcDbCircle
 10
184.4999999999997
 20
329.0
 30
0.0
 40
1.0
100
AcDbArc
 50
269.9999969999999
 51
0.0
  0
ARC
  5
A113
330
9FAD
100
AcDbEntity
  8
1
  6
Continuous
100
AcDbCircle
 10
181.0
 20
329.0
 30
0.0
 40
1.0
100
AcDbArc
 50
179.9999909999999
 51
270.000001
  0
ARC
  5
A114
330
9FAD
100
AcDbEntity
  8
1
  6
Continuous
100
AcDbCircle
 10
184.4999999999997
 20
355.0
 30
0.0
 40
1.0
100
AcDbArc
 50
0.0
 51
90.00000300000001
  0
ARC
  5
A115
330
9FAD
100
AcDbEntity
  8
1
  6
Continuous
100
AcDbCircle
 10
181.0
 20
355.0
 30
0.0
 40
1.0
100
AcDbArc
 50
90.00000300000001
 51
180.000005
  0
ARC
  5
A116
330
9FAD
100
AcDbEntity
  8
1
  6
Continuous
100
AcDbCircle
 10
174.699997
 20
175.0
 30
0.0
 40
2.649999999999999
100
AcDbArc
 50
105.3165099999999
 51
349.124272
  0
ARC
  5
A117
330
9FAD
100
AcDbEntity
  8
1
  6
Continuous
100
AcDbCircle
 10
174.699997
 20
193.0
 30
0.0
 40
2.649999999999999
100
AcDbArc
 50
29.78165699999999
 51
254.683493
  0
ARC
  5
A118
330
9FAD
100
AcDbEntity
  8
1
  6
Continuous
100
AcDbCircle
 10
191.8999939999999
 20
504.100006
 30
0.0
 40
2.9
100
AcDbArc
 50
90.00000300000001
 51
180.000005
  0
CIRCLE
  5
A119
330
9FAD
100
AcDbEntity
  8
1
  6
Continuous
100
AcDbCircle
 10
53.0
 20
184.0
 30
0.0
 40
7.5
  0
CIRCLE
  5
A11A
330
9FAD
100
AcDbEntity
  8
1
  6
Continuous
100
AcDbCircle
 10
53.0
 20
184.0
 30
0.0
 40
6.5
  0
ARC
  5
A11B
330
9FAD
100
AcDbEntity
  8
1
  6
Continuous
100
AcDbCircle
 10
46.0
 20
184.0
 30
0.0
 40
15.0
100
AcDbArc
 50
269.9999969999999
 51
320.703521
  0
CIRCLE
  5
A11C
330
9FAD
100
AcDbEntity
  8
1
  6
Continuous
100
AcDbCircle
 10
34.0
 20
175.0
 30
0.0
 40
2.649999999999999
  0
CIRCLE
  5
A11D
330
9FAD
100
AcDbEntity
  8
1
  6
Continuous
100
AcDbCircle
 10
34.0
 20
193.0
 30
0.0
 40
2.649999999999999
  0
ARC
  5
A11E
330
9FAD
100
AcDbEntity
  8
1
  6
Continuous
100
AcDbCircle
 10
53.0
 20
501.0
 30
0.0
 40
15.0
100
AcDbArc
 50
314.427004
 51
0.0
  0
ARC
  5
A11F
330
9FAD
100
AcDbEntity
  8
1
  6
Continuous
100
AcDbCircle
 10
53.0
 20
501.0
 30
0.0
 40
15.0
100
AcDbArc
 50
180.000005
 51
225.5729939999999
  0
CIRCLE
  5
A120
330
9FAD
100
AcDbEntity
  8
1
  6
Continuous
100
AcDbCircle
 10
53.0
 20
494.0
 30
0.0
 40
6.5
  0
CIRCLE
  5
A121
330
9FAD
100
AcDbEntity
  8
1
  6
Continuous
100
AcDbCircle
 10
53.0
 20
494.0
 30
0.0
 40
7.5
  0
CIRCLE
  5
A122
330
9FAD
100
AcDbEntity
  8
1
  6
Continuous
100
AcDbCircle
 10
44.0
 20
513.0
 30
0.0
 40
2.649999999999999
  0
CIRCLE
  5
A123
330
9FAD
100
AcDbEntity
  8
1
  6
Continuous
100
AcDbCircle
 10
62.0
 20
513.0
 30
0.0
 40
2.649999999999999
  0
ARC
  5
A124
330
9FAD
100
AcDbEntity
  8
1
  6
Continuous
100
AcDbCircle
 10
320.0
 20
184.0
 30
0.0
 40
15.0
100
AcDbArc
 50
90.00000300000001
 51
270.000001
  0
CIRCLE
  5
A125
330
9FAD
100
AcDbEntity
  8
1
  6
Continuous
100
AcDbCircle
 10
332.0
 20
193.0
 30
0.0
 40
2.649999999999999
  0
CIRCLE
  5
A126
330
9FAD
100
AcDbEntity
  8
1
  6
Continuous
100
AcDbCircle
 10
332.0
 20
175.0
 30
0.0
 40
2.649999999999999
  0
ARC
  5
A127
330
9FAD
100
AcDbEntity
  8
1
  6
Continuous
100
AcDbCircle
 10
300.4999999999999
 20
338.5
 30
0.0
 40
1.5
100
AcDbArc
 50
164.173378
 51
270.000001
  0
ARC
  5
A128
330
9FAD
100
AcDbEntity
  8
1
  6
Continuous
100
AcDbCircle
 10
192.100006
 20
507.0
 30
0.0
 40
2.9
100
AcDbArc
 50
269.9999969999999
 51
0.0
  0
ARC
  5
A129
330
9FAD
100
AcDbEntity
  8
1
  6
Continuous
100
AcDbCircle
 10
192.100006
 20
519.0999759999998
 30
0.0
 40
2.9
100
AcDbArc
 50
0.0
 51
90.00000300000001
  0
CIRCLE
  5
A12A
330
9FAD
100
AcDbEntity
  8
1
  6
Continuous
100
AcDbCircle
 10
313.0
 20
184.0
 30
0.0
 40
3.0
  0
CIRCLE
  5
A12B
330
9FAD
100
AcDbEntity
  8
1
  6
Continuous
100
AcDbCircle
 10
313.0
 20
184.0
 30
0.0
 40
3.25
  0
CIRCLE
  5
A12C
330
9FAD
100
AcDbEntity
  8
1
  6
Continuous
100
AcDbCircle
 10
313.0
 20
494.0
 30
0.0
 40
3.0
  0
CIRCLE
  5
A12D
330
9FAD
100
AcDbEntity
  8
1
  6
Continuous
100
AcDbCircle
 10
313.0
 20
494.0
 30
0.0
 40
3.25
  0
ARC
  5
A12E
330
9FAD
100
AcDbEntity
  8
1
  6
Continuous
100
AcDbCircle
 10
313.0
 20
501.0
 30
0.0
 40
15.0
100
AcDbArc
 50
180.000005
 51
0.00001
  0
CIRCLE
  5
A12F
330
9FAD
100
AcDbEntity
  8
1
  6
Continuous
100
AcDbCircle
 10
304.0
 20
513.0
 30
0.0
 40
2.649999999999999
  0
CIRCLE
  5
A130
330
9FAD
100
AcDbEntity
  8
1
  6
Continuous
100
AcDbCircle
 10
322.0
 20
513.0
 30
0.0
 40
2.649999999999999
  0
CIRCLE
  5
A131
330
9FAD
100
AcDbEntity
  8
1
  6
Continuous
100
AcDbCircle
 10
173.0
 20
595.0
 30
0.0
 40
2.649999999999999
  0
CIRCLE
  5
A132
330
9FAD
100
AcDbEntity
  8
1
  6
Continuous
100
AcDbCircle
 10
173.0
 20
613.0
 30
0.0
 40
2.649999999999999
  0
ARC
  5
A133
330
9FAD
100
AcDbEntity
  8
1
  6
Continuous
100
AcDbCircle
 10
193.8000029999997
 20
617.0
 30
0.0
 40
2.9
100
AcDbArc
 50
294.4433319999999
 51
0.0
  0
ARC
  5
A134
330
9FAD
100
AcDbEntity
  8
1
  6
Continuous
100
AcDbCircle
 10
193.8000029999997
 20
629.099976
 30
0.0
 40
2.9
100
AcDbArc
 50
0.0
 51
90.00000300000001
  0
ARC
  5
A135
330
9FAD
100
AcDbEntity
  8
1
  6
Continuous
100
AcDbCircle
 10
193.5999999999999
 20
58.9
 30
0.0
 40
2.9
100
AcDbArc
 50
180.000005
 51
270.000001
  0
ARC
  5
A136
330
9FAD
100
AcDbEntity
  8
1
  6
Continuous
100
AcDbCircle
 10
193.8000029999997
 20
56.0
 30
0.0
 40
2.9
100
AcDbArc
 50
0.0
 51
90.00000300000001
  0
ARC
  5
A137
330
9FAD
100
AcDbEntity
  8
1
  6
Continuous
100
AcDbCircle
 10
193.8000029999997
 20
43.900002
 30
0.0
 40
2.9
100
AcDbArc
 50
269.9999969999999
 51
0.0
  0
ARC
  5
A138
330
9FAD
100
AcDbEntity
  8
1
  6
Continuous
100
AcDbCircle
 10
173.0
 20
60.0
 30
0.0
 40
2.649999999999999
100
AcDbArc
 50
71.291425
 51
34.474379
  0
ARC
  5
A139
330
9FAD
100
AcDbEntity
  8
1
  6
Continuous
100
AcDbCircle
 10
173.0
 20
78.0
 30
0.0
 40
2.649999999999999
100
AcDbArc
 50
325.525614
 51
288.7085719999999
  0
ARC
  5
A13A
330
9FAD
100
AcDbEntity
  8
1
  6
Continuous
100
AcDbCircle
 10
187.399994
 20
58.09999799999999
 30
0.0
 40
1.6
100
AcDbArc
 50
269.9999969999999
 51
0.0
  0
ARC
  5
A13B
330
9FAD
100
AcDbEntity
  8
1
  6
Continuous
100
AcDbCircle
 10
178.600006
 20
58.09999799999999
 30
0.0
 40
1.6
100
AcDbArc
 50
179.9999909999999
 51
270.000001
  0
ARC
  5
A13C
330
9FAD
100
AcDbEntity
  8
1
  6
Continuous
100
AcDbCircle
 10
187.399994
 20
79.900002
 30
0.0
 40
1.6
100
AcDbArc
 50
0.0
 51
90.00000300000001
  0
ARC
  5
A13D
330
9FAD
100
AcDbEntity
  8
1
  6
Continuous
100
AcDbCircle
 10
178.600006
 20
79.900002
 30
0.0
 40
1.6
100
AcDbArc
 50
90.00000300000001
 51
180.000005
  0
ARC
  5
A13E
330
9FAD
100
AcDbEntity
  8
1
  6
Continuous
100
AcDbCircle
 10
185.300003
 20
77.900002
 30
0.0
 40
1.6
100
AcDbArc
 50
0.0
 51
90.00000300000001
  0
ARC
  5
A13F
330
9FAD
100
AcDbEntity
  8
1
  6
Continuous
100
AcDbCircle
 10
180.1999969999999
 20
77.900002
 30
0.0
 40
1.6
100
AcDbArc
 50
90.00000300000001
 51
180.000005
  0
ARC
  5
A140
330
9FAD
100
AcDbEntity
  8
1
  6
Continuous
100
AcDbCircle
 10
196.3999939999999
 20
69.0
 30
0.0
 40
12.0
100
AcDbArc
 50
199.471225
 51
202.33164
  0
ARC
  5
A141
330
9FAD
100
AcDbEntity
  8
1
  6
Continuous
100
AcDbCircle
 10
196.3999939999999
 20
69.0
 30
0.0
 40
12.09999999999999
100
AcDbArc
 50
199.303899
 51
203.4575279999998
  0
ARC
  5
A142
330
9FAD
100
AcDbEntity
  8
1
  6
Continuous
100
AcDbCircle
 10
196.3999939999999
 20
69.0
 30
0.0
 40
12.09999999999999
100
AcDbArc
 50
156.542472
 51
160.696101
  0
ARC
  5
A143
330
9FAD
100
AcDbEntity
  8
1
  6
Continuous
100
AcDbCircle
 10
196.3999939999999
 20
69.0
 30
0.0
 40
12.0
100
AcDbArc
 50
157.66836
 51
160.528775
  0
ARC
  5
A144
330
9FAD
100
AcDbEntity
  8
1
  6
Continuous
100
AcDbCircle
 10
173.1999969999999
 20
347.0
 30
0.0
 40
12.0
100
AcDbArc
 50
337.6683549999999
 51
22.331645
  0
ARC
  5
A145
330
9FAD
100
AcDbEntity
  8
1
  6
Continuous
100
AcDbCircle
 10
173.1999969999999
 20
347.0
 30
0.0
 40
12.09999999999999
100
AcDbArc
 50
336.5424669999999
 51
23.45753299999999
  0
CIRCLE
  5
A146
330
9FAD
100
AcDbEntity
  8
1
  6
Continuous
100
AcDbCircle
 10
451.2999879999998
 20
193.0
 30
0.0
 40
2.649999999999999
  0
CIRCLE
  5
A147
330
9FAD
100
AcDbEntity
  8
1
  6
Continuous
100
AcDbCircle
 10
451.2999879999998
 20
175.0
 30
0.0
 40
2.649999999999999
  0
ARC
  5
A148
330
9FAD
100
AcDbEntity
  8
5
  6
PHANTOM
 48
0.2
100
AcDbCircle
 10
183.800003
 20
355.5
 30
0.0
 40
0.5
100
AcDbArc
 50
0.0
 51
90.00000300000001
  0
ARC
  5
A149
330
9FAD
100
AcDbEntity
  8
5
  6
PHANTOM
 48
0.2
100
AcDbCircle
 10
180.800003
 20
355.450012
 30
0.0
 40
0.5
100
AcDbArc
 50
324.9031989999998
 51
180.000005
  0
ARC
  5
A14A
330
9FAD
100
AcDbEntity
  8
5
  6
PHANTOM
 48
0.2
100
AcDbCircle
 10
185.300003
 20
352.2877199999999
 30
0.0
 40
5.0
100
AcDbArc
 50
144.9032009999999
 51
180.000005
  0
ARC
  5
A14B
330
9FAD
100
AcDbEntity
  8
5
  6
PHANTOM
 48
0.2
100
AcDbCircle
 10
180.800003
 20
341.700012
 30
0.0
 40
0.5
100
AcDbArc
 50
179.9999909999999
 51
35.0968
  0
ARC
  5
A14C
330
9FAD
100
AcDbEntity
  8
5
  6
PHANTOM
 48
0.2
100
AcDbCircle
 10
183.800003
 20
341.700012
 30
0.0
 40
0.5
100
AcDbArc
 50
269.9999969999999
 51
0.0
  0
ARC
  5
A14D
330
9FAD
100
AcDbEntity
  8
5
  6
PHANTOM
 48
0.2
100
AcDbCircle
 10
185.300003
 20
344.862274
 30
0.0
 40
5.0
100
AcDbArc
 50
179.9999909999999
 51
215.096795
  0
ARC
  5
A14E
330
9FAD
100
AcDbEntity
  8
5
  6
PHANTOM
 48
0.1
100
AcDbCircle
 10
298.4999999999999
 20
342.700012
 30
0.0
 40
1.5
100
AcDbArc
 50
190.9912309999999
 51
269.9999969999999
  0
ARC
  5
A14F
330
9FAD
100
AcDbEntity
  8
5
  6
PHANTOM
 48
0.1
100
AcDbCircle
 10
298.4999999999999
 20
354.4999999999998
 30
0.0
 40
1.5
100
AcDbArc
 50
90.00000300000001
 51
169.008769
  0
ARC
  5
A150
330
9FAD
100
AcDbEntity
  8
5
  6
PHANTOM
 48
0.1
100
AcDbCircle
 10
299.0
 20
348.600006
 30
0.0
 40
1.0
100
AcDbArc
 50
299.2945559999999
 51
60.70544399999999
  0
ARC
  5
A151
330
9FAD
100
AcDbEntity
  8
5
  6
PHANTOM
 48
0.1
100
AcDbCircle
 10
301.935791
 20
343.36731
 30
0.0
 40
5.0
100
AcDbArc
 50
119.2945539999999
 51
190.991227
  0
ARC
  5
A152
330
9FAD
100
AcDbEntity
  8
5
  6
PHANTOM
 48
0.1
100
AcDbCircle
 10
301.935791
 20
353.832703
 30
0.0
 40
5.0
100
AcDbArc
 50
169.008769
 51
240.705456
  0
ARC
  5
A153
330
9FAD
100
AcDbEntity
  8
1
  6
Continuous
100
AcDbCircle
 10
65.5
 20
338.5
 30
0.0
 40
1.5
100
AcDbArc
 50
269.9999969999999
 51
15.826621
  0
ARC
  5
A154
330
9FAD
100
AcDbEntity
  8
5
  6
PHANTOM
 48
0.1
100
AcDbCircle
 10
67.5
 20
342.700012
 30
0.0
 40
1.5
100
AcDbArc
 50
269.9999969999999
 51
349.008775
  0
ARC
  5
A155
330
9FAD
100
AcDbEntity
  8
5
  6
PHANTOM
 48
0.1
100
AcDbCircle
 10
67.5
 20
354.4999999999998
 30
0.0
 40
1.5
100
AcDbArc
 50
10.991225
 51
90.00000300000001
  0
ARC
  5
A156
330
9FAD
100
AcDbEntity
  8
5
  6
PHANTOM
 48
0.1
100
AcDbCircle
 10
64.064201
 20
343.36731
 30
0.0
 40
5.0
100
AcDbArc
 50
349.008775
 51
60.70544399999999
  0
ARC
  5
A157
330
9FAD
100
AcDbEntity
  8
5
  6
PHANTOM
 48
0.1
100
AcDbCircle
 10
67.0
 20
348.600006
 30
0.0
 40
1.0
100
AcDbArc
 50
119.2945539999999
 51
240.705456
  0
ARC
  5
A158
330
9FAD
100
AcDbEntity
  8
5
  6
PHANTOM
 48
0.1
100
AcDbCircle
 10
64.064201
 20
353.832703
 30
0.0
 40
5.0
100
AcDbArc
 50
299.2945559999999
 51
10.991225
  0
ARC
  5
A159
330
9FAD
100
AcDbEntity
  8
1
  6
Continuous
100
AcDbCircle
 10
188.5993799999999
 20
366.000671
 30
0.0
 40
7.932788
100
AcDbArc
 50
153.986
 51
157.0559929999998
  0
ARC
  5
A15A
330
9FAD
100
AcDbEntity
  8
1
  6
Continuous
100
AcDbCircle
 10
181.356384
 20
369.0659479999998
 30
0.0
 40
0.066678
100
AcDbArc
 50
157.0559929999998
 51
270.000001
  0
ARC
  5
A15B
330
9FAD
100
AcDbEntity
  8
1
  6
Continuous
100
AcDbCircle
 10
180.927383
 20
367.732941
 30
0.0
 40
0.066678
100
AcDbArc
 50
167.2709909999998
 51
270.000001
  0
ARC
  5
A15C
330
9FAD
100
AcDbEntity
  8
1
  6
Continuous
100
AcDbCircle
 10
188.5993799999999
 20
366.000671
 30
0.0
 40
7.932788
100
AcDbArc
 50
164.7939959999999
 51
167.2709909999998
  0
ARC
  5
A15D
330
9FAD
100
AcDbEntity
  8
1
  6
Continuous
100
AcDbCircle
 10
188.5993799999999
 20
366.000671
 30
0.0
 40
7.932788
100
AcDbArc
 50
164.7419909999999
 51
164.7939959999999
  0
ARC
  5
A15E
330
9FAD
100
AcDbEntity
  8
1
  6
Continuous
100
AcDbCircle
 10
181.2684169999999
 20
367.999542
 30
0.0
 40
0.333392
100
AcDbArc
 50
90.00000300000001
 51
164.7419909999999
  0
ARC
  5
A15F
330
9FAD
100
AcDbEntity
  8
1
  6
Continuous
100
AcDbCircle
 10
184.731583
 20
367.999542
 30
0.0
 40
0.333392
100
AcDbArc
 50
15.25749699999999
 51
90.00000300000001
  0
ARC
  5
A160
330
9FAD
100
AcDbEntity
  8
1
  6
Continuous
100
AcDbCircle
 10
177.40062
 20
366.000671
 30
0.0
 40
7.932788
100
AcDbArc
 50
13.26810299999998
 51
15.25749699999999
  0
ARC
  5
A161
330
9FAD
100
AcDbEntity
  8
1
  6
Continuous
100
AcDbCircle
 10
177.40062
 20
366.000671
 30
0.0
 40
7.932788
100
AcDbArc
 50
12.7289
 51
13.26810299999998
  0
ARC
  5
A162
330
9FAD
100
AcDbEntity
  8
1
  6
Continuous
100
AcDbCircle
 10
185.0726169999999
 20
367.732941
 30
0.0
 40
0.066678
100
AcDbArc
 50
269.9999969999999
 51
12.7289
  0
ARC
  5
A163
330
9FAD
100
AcDbEntity
  8
1
  6
Continuous
100
AcDbCircle
 10
181.7705079999998
 20
369.33255
 30
0.0
 40
0.333392
100
AcDbArc
 50
90.00000300000001
 51
153.986
  0
ARC
  5
A164
330
9FAD
100
AcDbEntity
  8
1
  6
Continuous
100
AcDbCircle
 10
184.6449739999999
 20
369.0659479999998
 30
0.0
 40
0.066678
100
AcDbArc
 50
269.9999969999999
 51
22.94399999999999
  0
ARC
  5
A165
330
9FAD
100
AcDbEntity
  8
1
  6
Continuous
100
AcDbCircle
 10
177.40062
 20
366.000671
 30
0.0
 40
7.932788
100
AcDbArc
 50
22.94399999999999
 51
26.01439599999999
  0
ARC
  5
A166
330
9FAD
100
AcDbEntity
  8
1
  6
Continuous
100
AcDbCircle
 10
184.229492
 20
369.33255
 30
0.0
 40
0.333392
100
AcDbArc
 50
26.01439599999999
 51
90.00000300000001
  0
ARC
  5
A167
330
9FAD
100
AcDbEntity
  8
1
  6
Continuous
100
AcDbCircle
 10
183.0006709999999
 20
369.9997559999998
 30
0.0
 40
1.717978999999997
100
AcDbArc
 50
90.00000300000001
 51
144.4620119999999
  0
ARC
  5
A168
330
9FAD
100
AcDbEntity
  8
1
  6
Continuous
100
AcDbCircle
 10
183.0006709999999
 20
369.9997559999998
 30
0.0
 40
1.717978999999997
100
AcDbArc
 50
35.537703
 51
76.53739899999997
  0
ARC
  5
A169
330
9FAD
100
AcDbEntity
  8
1
  6
Continuous
100
AcDbCircle
 10
188.5993799999999
 20
366.000671
 30
0.0
 40
7.932788
100
AcDbArc
 50
187.792995
 51
190.104003
  0
ARC
  5
A16A
330
9FAD
100
AcDbEntity
  8
1
  6
Continuous
100
AcDbCircle
 10
180.8055879999997
 20
364.9328919999998
 30
0.0
 40
0.066678
100
AcDbArc
 50
90.00000300000001
 51
187.7930049999999
  0
ARC
  5
A16B
330
9FAD
100
AcDbEntity
  8
1
  6
Continuous
100
AcDbCircle
 10
181.1181949999999
 20
364.6662899999999
 30
0.0
 40
0.333392
100
AcDbArc
 50
190.104003
 51
269.9999969999999
  0
ARC
  5
A16C
330
9FAD
100
AcDbEntity
  8
1
  6
Continuous
100
AcDbCircle
 10
185.1944119999997
 20
364.9328919999998
 30
0.0
 40
0.066678
100
AcDbArc
 50
352.207003
 51
90.00000300000001
  0
ARC
  5
A16D
330
9FAD
100
AcDbEntity
  8
1
  6
Continuous
100
AcDbCircle
 10
177.40062
 20
366.000671
 30
0.0
 40
7.932788
100
AcDbArc
 50
349.8960009999998
 51
352.207003
  0
ARC
  5
A16E
330
9FAD
100
AcDbEntity
  8
1
  6
Continuous
100
AcDbCircle
 10
184.881805
 20
364.6662899999999
 30
0.0
 40
0.333392
100
AcDbArc
 50
269.9999969999999
 51
349.8960009999998
  0
ARC
  5
A16F
330
9FAD
100
AcDbEntity
  8
1
  6
Continuous
100
AcDbCircle
 10
183.0006709999999
 20
362.000244
 30
0.0
 40
1.717978999999997
100
AcDbArc
 50
215.5380019999999
 51
225.6990009999999
  0
ARC
  5
A170
330
9FAD
100
AcDbEntity
  8
1
  6
Continuous
100
AcDbCircle
 10
183.0006709999999
 20
362.000244
 30
0.0
 40
1.717978999999997
100
AcDbArc
 50
242.2499979999999
 51
324.4619999999998
  0
ARC
  5
A171
330
9FAD
100
AcDbEntity
  8
1
  6
Continuous
100
AcDbCircle
 10
183.333603
 20
362.66745
 30
0.0
 40
0.333392
100
AcDbArc
 50
90.00000300000001
 51
270.000001
  0
ARC
  5
A172
330
9FAD
100
AcDbEntity
  8
1
  6
Continuous
100
AcDbCircle
 10
177.40062
 20
366.000671
 30
0.0
 40
8.599396
100
AcDbArc
 50
324.4619999999998
 51
35.537703
  0
ARC
  5
A173
330
9FAD
100
AcDbEntity
  8
1
  6
Continuous
100
AcDbCircle
 10
188.5993799999999
 20
366.000671
 30
0.0
 40
8.599396
100
AcDbArc
 50
144.461998
 51
215.5379979999999
  0
ARC
  5
A174
330
9FAD
100
AcDbEntity
  8
1
  6
Continuous
100
AcDbCircle
 10
434.1000059999998
 20
504.100006
 30
0.0
 40
2.9
100
AcDbArc
 50
0.0
 51
90.00000300000001
  0
ARC
  5
A175
330
9FAD
100
AcDbEntity
  8
1
  6
Continuous
100
AcDbCircle
 10
433.8999939999998
 20
507.0
 30
0.0
 40
2.9
100
AcDbArc
 50
179.9999909999999
 51
270.000001
  0
ARC
  5
A176
330
9FAD
100
AcDbEntity
  8
1
  6
Continuous
100
AcDbCircle
 10
433.8999939999998
 20
519.0999759999998
 30
0.0
 40
2.9
100
AcDbArc
 50
90.00000300000001
 51
180.000005
  0
ARC
  5
A177
330
9FAD
100
AcDbEntity
  8
1
  6
Continuous
100
AcDbCircle
 10
44.24999999999999
 20
368.5
 30
0.0
 40
4.25
100
AcDbArc
 50
151.9275179999999
 51
208.0724919999999
  0
ARC
  5
A178
330
9FAD
100
AcDbEntity
  8
1
  6
Continuous
100
AcDbCircle
 10
44.24999999999999
 20
358.4999999999998
 30
0.0
 40
4.25
100
AcDbArc
 50
151.9275179999999
 51
208.0724919999999
  0
ARC
  5
A179
330
9FAD
100
AcDbEntity
  8
1
  6
Continuous
100
AcDbCircle
 10
321.75
 20
368.5
 30
0.0
 40
4.25
100
AcDbArc
 50
331.9275129999998
 51
28.072487
  0
ARC
  5
A17A
330
9FAD
100
AcDbEntity
  8
1
  6
Continuous
100
AcDbCircle
 10
321.75
 20
358.4999999999998
 30
0.0
 40
4.25
100
AcDbArc
 50
331.9275129999998
 51
28.072487
  0
CIRCLE
  5
A17B
330
9FAD
100
AcDbEntity
  8
1
  6
Continuous
100
AcDbCircle
 10
443.0
 20
368.5
 30
0.0
 40
2.0
  0
CIRCLE
  5
A17C
330
9FAD
100
AcDbEntity
  8
1
  6
Continuous
100
AcDbCircle
 10
443.0
 20
358.4999999999998
 30
0.0
 40
2.0
  0
ARC
  5
A17D
330
9FAD
100
AcDbEntity
  8
1
  6
Continuous
100
AcDbCircle
 10
313.0
 20
494.0
 30
0.0
 40
8.849999999999997
100
AcDbArc
 50
232.032294
 51
307.9677109999999
  0
TEXT
  5
A17E
330
9FAD
100
AcDbEntity
  8
6
  6
Continuous
100
AcDbText
 10
27.97945
 20
10.0487
 30
0.0
 40
1.399999999999999
  1
6
 41
1.069393
100
AcDbText
  0
TEXT
  5
A17F
330
9FAD
100
AcDbEntity
  8
1
  6
Continuous
100
AcDbText
 10
17.97945
 20
10.0487
 30
0.0
 40
1.399999999999999
  1
1
 41
1.069393
100
AcDbText
  0
TEXT
  5
A180
330
9FAD
100
AcDbEntity
  8
1
  6
Continuous
100
AcDbText
 10
9.99995
 20
10.0
 30
0.0
 40
1.399999999999999
  1
LAYER
 41
1.009912999999996
100
AcDbText
  0
TEXT
  5
A181
330
9FAD
100
AcDbEntity
  8
2
  6
Continuous
100
AcDbText
 10
19.97944999999998
 20
10.0487
 30
0.0
 40
1.399999999999999
  1
2
 41
1.069393
100
AcDbText
  0
TEXT
  5
A182
330
9FAD
100
AcDbEntity
  8
3
  6
DASHED
100
AcDbText
 10
21.97945
 20
10.0487
 30
0.0
 40
1.399999999999999
  1
3
 41
1.069393
100
AcDbText
  0
TEXT
  5
A183
330
9FAD
100
AcDbEntity
  8
4
  6
CENTER
100
AcDbText
 10
23.97944999999999
 20
10.0487
 30
0.0
 40
1.399999999999999
  1
4
 41
1.069393
100
AcDbText
  0
TEXT
  5
A184
330
9FAD
100
AcDbEntity
  8
5
  6
PHANTOM
100
AcDbText
 10
25.97945
 20
10.0487
 30
0.0
 40
1.399999999999999
  1
5
 41
1.069393
100
AcDbText
  0
TEXT
  5
A185
330
9FAD
100
AcDbEntity
  8
7
  6
Continuous
100
AcDbText
 10
10.00005
 20
26.0
 30
0.0
 40
3.0
  1
CODE No.5125
 41
1.003962999999999
100
AcDbText
  0
TEXT
  5
A186
330
9FAD
100
AcDbEntity
  8
7
  6
Continuous
100
AcDbText
 10
10.00005
 20
18.0
 30
0.0
 40
3.0
  1
TYPE No.TM-70B-1L
 41
1.002774
100
AcDbText
  0
TEXT
  5
A187
330
9FAD
100
AcDbEntity
  8
7
  6
Continuous
100
AcDbText
 10
29.97944999999999
 20
10.0487
 30
0.0
 40
1.399999999999999
  1
7
 41
1.069393
100
AcDbText
  0
LINE
  5
A188
330
9FAD
100
AcDbEntity
  8
1
  6
Continuous
100
AcDbLine
 10
27.899994
 20
187.0
 30
0.0
 11
33.000006
 21
187.0
 31
0.0
  0
LINE
  5
A189
330
9FAD
100
AcDbEntity
  8
1
  6
Continuous
100
AcDbLine
 10
27.899994
 20
181.0
 30
0.0
 11
33.000006
 21
181.0
 31
0.0
  0
LINE
  5
A18A
330
9FAD
100
AcDbEntity
  8
1
  6
Continuous
100
AcDbLine
 10
28.999994
 20
182.0
 30
0.0
 11
28.999994
 21
186.0
 31
0.0
  0
LINE
  5
A18B
330
9FAD
100
AcDbEntity
  8
1
  6
Continuous
100
AcDbLine
 10
56.0
 20
514.000024
 30
0.0
 11
56.0
 21
519.0999759999998
 31
0.0
  0
LINE
  5
A18C
330
9FAD
100
AcDbEntity
  8
1
  6
Continuous
100
AcDbLine
 10
50.0
 20
514.000024
 30
0.0
 11
50.0
 21
519.0999759999998
 31
0.0
  0
LINE
  5
A18D
330
9FAD
100
AcDbEntity
  8
1
  6
Continuous
100
AcDbLine
 10
55.0
 20
517.9999759999998
 30
0.0
 11
51.0
 21
517.9999759999998
 31
0.0
  0
LINE
  5
A18E
330
9FAD
100
AcDbEntity
  8
1
  6
Continuous
100
AcDbLine
 10
339.9
 20
182.0
 30
0.0
 11
339.9
 21
186.0
 31
0.0
  0
LINE
  5
A18F
330
9FAD
100
AcDbEntity
  8
1
  6
Continuous
100
AcDbLine
 10
311.0
 20
520.8999999999998
 30
0.0
 11
315.0
 21
520.8999999999998
 31
0.0
  0
LINE
  5
A190
330
9FAD
100
AcDbEntity
  8
1
  6
Continuous
100
AcDbLine
 10
193.9
 20
602.0
 30
0.0
 11
193.9
 21
606.0
 31
0.0
  0
LINE
  5
A191
330
9FAD
100
AcDbEntity
  8
1
  6
Continuous
100
AcDbLine
 10
186.700006
 20
45.000002
 30
0.0
 11
192.700003
 21
45.000002
 31
0.0
  0
LINE
  5
A192
330
9FAD
100
AcDbEntity
  8
1
  6
Continuous
100
AcDbLine
 10
192.700003
 20
50.99999799999999
 30
0.0
 11
192.700003
 21
45.000002
 31
0.0
  0
LINE
  5
A193
330
9FAD
100
AcDbEntity
  8
1
  6
Continuous
100
AcDbLine
 10
430.399988
 20
182.0
 30
0.0
 11
430.399988
 21
186.0
 31
0.0
  0
LINE
  5
A194
330
9FAD
100
AcDbEntity
  8
1
  6
Continuous
100
AcDbLine
 10
441.0000059999998
 20
517.9999759999998
 30
0.0
 11
434.999994
 21
517.9999759999998
 31
0.0
  0
LINE
  5
A195
330
9FAD
100
AcDbEntity
  8
1
  6
Continuous
100
AcDbLine
 10
434.999994
 20
511.999994
 30
0.0
 11
434.999994
 21
517.9999759999998
 31
0.0
  0
LINE
  5
A196
330
9FAD
100
AcDbEntity
  8
1
  6
Continuous
100
AcDbLine
 10
311.0
 20
521.4999999999998
 30
0.0
 11
311.0
 21
513.000024
 31
0.0
  0
LINE
  5
A197
330
9FAD
100
AcDbEntity
  8
1
  6
Continuous
100
AcDbLine
 10
315.0
 20
521.4999999999998
 30
0.0
 11
315.0
 21
513.000024
 31
0.0
  0
LINE
  5
A198
330
9FAD
100
AcDbEntity
  8
1
  6
Continuous
100
AcDbLine
 10
185.9999939999999
 20
602.0
 30
0.0
 11
194.5
 21
602.0
 31
0.0
  0
LINE
  5
A199
330
9FAD
100
AcDbEntity
  8
1
  6
Continuous
100
AcDbLine
 10
185.9999939999999
 20
606.0
 30
0.0
 11
194.5
 21
606.0
 31
0.0
  0
LINE
  5
A19A
330
9FAD
100
AcDbEntity
  8
1
  6
Continuous
100
AcDbLine
 10
340.5
 20
182.0
 30
0.0
 11
332.000002
 21
182.0
 31
0.0
  0
LINE
  5
A19B
330
9FAD
100
AcDbEntity
  8
1
  6
Continuous
100
AcDbLine
 10
340.5
 20
186.0
 30
0.0
 11
332.000002
 21
186.0
 31
0.0
  0
LINE
  5
A19C
330
9FAD
100
AcDbEntity
  8
1
  6
Continuous
100
AcDbLine
 10
438.299994
 20
182.0
 30
0.0
 11
429.7999879999998
 21
182.0
 31
0.0
  0
LINE
  5
A19D
330
9FAD
100
AcDbEntity
  8
1
  6
Continuous
100
AcDbLine
 10
438.299994
 20
186.0
 30
0.0
 11
429.7999879999998
 21
186.0
 31
0.0
  0
ARC
  5
A19E
330
9FAD
100
AcDbEntity
  8
1
  6
Continuous
100
AcDbCircle
 10
33.000006
 20
184.0
 30
0.0
 40
3.0
100
AcDbArc
 50
269.999999
 51
89.99999700000001
  0
ARC
  5
A19F
330
9FAD
100
AcDbEntity
  8
1
  6
Continuous
100
AcDbCircle
 10
27.999994
 20
182.0
 30
0.0
 40
1.0
100
AcDbArc
 50
269.999999
 51
0.000009
  0
ARC
  5
A1A0
330
9FAD
100
AcDbEntity
  8
1
  6
Continuous
100
AcDbCircle
 10
27.999994
 20
186.0
 30
0.0
 40
1.0
100
AcDbArc
 50
359.999995
 51
89.99999700000001
  0
ARC
  5
A1A1
330
9FAD
100
AcDbEntity
  8
1
  6
Continuous
100
AcDbCircle
 10
53.0
 20
514.000024
 30
0.0
 40
3.0
100
AcDbArc
 50
179.9999909999999
 51
0.00001
  0
ARC
  5
A1A2
330
9FAD
100
AcDbEntity
  8
1
  6
Continuous
100
AcDbCircle
 10
55.0
 20
518.9999759999998
 30
0.0
 40
1.0
100
AcDbArc
 50
269.9999969999999
 51
0.0
  0
ARC
  5
A1A3
330
9FAD
100
AcDbEntity
  8
1
  6
Continuous
100
AcDbCircle
 10
51.0
 20
518.9999759999998
 30
0.0
 40
1.0
100
AcDbArc
 50
179.9999909999999
 51
270.000001
  0
ARC
  5
A1A4
330
9FAD
100
AcDbEntity
  8
1
  6
Continuous
100
AcDbCircle
 10
340.5
 20
181.4999999999997
 30
0.0
 40
0.5
100
AcDbArc
 50
359.999995
 51
89.99999700000001
  0
ARC
  5
A1A5
330
9FAD
100
AcDbEntity
  8
1
  6
Continuous
100
AcDbCircle
 10
340.5
 20
186.5
 30
0.0
 40
0.5
100
AcDbArc
 50
269.999999
 51
0.000009
  0
ARC
  5
A1A6
330
9FAD
100
AcDbEntity
  8
1
  6
Continuous
100
AcDbCircle
 10
315.5
 20
521.4999999999998
 30
0.0
 40
0.5
100
AcDbArc
 50
90.00000300000001
 51
180.000005
  0
ARC
  5
A1A7
330
9FAD
100
AcDbEntity
  8
1
  6
Continuous
100
AcDbCircle
 10
310.4999999999999
 20
521.4999999999998
 30
0.0
 40
0.5
100
AcDbArc
 50
0.0
 51
90.00000300000001
  0
ARC
  5
A1A8
330
9FAD
100
AcDbEntity
  8
1
  6
Continuous
100
AcDbCircle
 10
194.5
 20
606.5
 30
0.0
 40
0.5
100
AcDbArc
 50
269.999999
 51
0.000009
  0
ARC
  5
A1A9
330
9FAD
100
AcDbEntity
  8
1
  6
Continuous
100
AcDbCircle
 10
194.5
 20
601.5
 30
0.0
 40
0.5
100
AcDbArc
 50
359.999995
 51
89.99999700000001
  0
ARC
  5
A1AA
330
9FAD
100
AcDbEntity
  8
1
  6
Continuous
100
AcDbCircle
 10
186.700006
 20
44.000002
 30
0.0
 40
1.0
100
AcDbArc
 50
89.99999700000001
 51
180.0
  0
ARC
  5
A1AB
330
9FAD
100
AcDbEntity
  8
1
  6
Continuous
100
AcDbCircle
 10
193.700003
 20
50.99999799999999
 30
0.0
 40
1.0
100
AcDbArc
 50
89.99999700000001
 51
180.0
  0
ARC
  5
A1AC
330
9FAD
100
AcDbEntity
  8
1
  6
Continuous
100
AcDbCircle
 10
429.7999879999998
 20
186.5
 30
0.0
 40
0.5
100
AcDbArc
 50
180.0
 51
270.0000029999998
  0
ARC
  5
A1AD
330
9FAD
100
AcDbEntity
  8
1
  6
Continuous
100
AcDbCircle
 10
429.7999879999998
 20
181.4999999999997
 30
0.0
 40
0.5
100
AcDbArc
 50
89.99999700000001
 51
180.0
  0
ARC
  5
A1AE
330
9FAD
100
AcDbEntity
  8
1
  6
Continuous
100
AcDbCircle
 10
441.0000059999998
 20
518.9999759999998
 30
0.0
 40
1.0
100
AcDbArc
 50
269.999999
 51
359.999995
  0
ARC
  5
A1AF
330
9FAD
100
AcDbEntity
  8
1
  6
Continuous
100
AcDbCircle
 10
433.999994
 20
511.999994
 30
0.0
 40
1.0
100
AcDbArc
 50
269.999999
 51
359.999995
  0
ARC
  5
A1B0
330
9FAD
100
AcDbEntity
  8
1
  6
Continuous
100
AcDbCircle
 10
313.0
 20
513.000024
 30
0.0
 40
2.0
100
AcDbArc
 50
179.9999909999999
 51
0.00001
  0
ARC
  5
A1B1
330
9FAD
100
AcDbEntity
  8
1
  6
Continuous
100
AcDbCircle
 10
185.9999939999999
 20
604.0
 30
0.0
 40
2.0
100
AcDbArc
 50
90.000011
 51
270.0000029999998
  0
ARC
  5
A1B2
330
9FAD
100
AcDbEntity
  8
1
  6
Continuous
100
AcDbCircle
 10
332.000002
 20
184.0
 30
0.0
 40
2.0
100
AcDbArc
 50
90.000011
 51
270.0000029999998
  0
ARC
  5
A1B3
330
9FAD
100
AcDbEntity
  8
1
  6
Continuous
100
AcDbCircle
 10
438.299994
 20
184.0
 30
0.0
 40
2.0
100
AcDbArc
 50
269.999999
 51
89.99999700000001
  0
LINE
  5
A1B4
330
9FAD
100
AcDbEntity
  8
1
  6
Continuous
100
AcDbLine
 10
185.700006
 20
44.000002
 30
0.0
 11
185.700006
 21
43.900002
 31
0.0
  0
LINE
  5
A1B5
330
9FAD
100
AcDbEntity
  8
1
  6
Continuous
100
AcDbLine
 10
193.700003
 20
51.999998
 30
0.0
 11
193.8000029999997
 21
51.999998
 31
0.0
  0
LINE
  5
A1B6
330
9FAD
100
AcDbEntity
  8
1
  6
Continuous
100
AcDbLine
 10
433.999994
 20
510.999994
 30
0.0
 11
433.8999939999998
 21
510.999994
 31
0.0
  0
LINE
  5
A1B7
330
9FAD
100
AcDbEntity
  8
1
  6
Continuous
100
AcDbLine
 10
442.0000059999998
 20
518.9999749999998
 30
0.0
 11
442.0000059999998
 21
519.0999759999998
 31
0.0
  0
ARC
  5
A1B8
330
9FAD
100
AcDbEntity
  8
1
  6
Continuous
100
AcDbCircle
 10
184.999994
 20
518.9999759999998
 30
0.0
 40
1.0
100
AcDbArc
 50
180.000005
 51
270.000001
  0
LINE
  5
A1B9
330
9FAD
100
AcDbEntity
  8
1
  6
Continuous
100
AcDbLine
 10
183.999994
 20
518.9999749999998
 30
0.0
 11
183.999994
 21
519.0999759999998
 31
0.0
  0
LINE
  5
A1BA
330
9FAD
100
AcDbEntity
  8
1
  6
Continuous
100
AcDbLine
 10
184.999994
 20
517.9999759999998
 30
0.0
 11
191.000006
 21
517.9999759999998
 31
0.0
  0
LINE
  5
A1BB
330
9FAD
100
AcDbEntity
  8
1
  6
Continuous
100
AcDbLine
 10
191.000006
 20
511.999994
 30
0.0
 11
191.000006
 21
517.9999759999998
 31
0.0
  0
ARC
  5
A1BC
330
9FAD
100
AcDbEntity
  8
1
  6
Continuous
100
AcDbCircle
 10
192.000006
 20
511.999994
 30
0.0
 40
1.0
100
AcDbArc
 50
180.000005
 51
270.000001
  0
LINE
  5
A1BD
330
9FAD
100
AcDbEntity
  8
1
  6
Continuous
100
AcDbLine
 10
192.000006
 20
510.999994
 30
0.0
 11
192.100006
 21
510.999994
 31
0.0
  0
LINE
  5
A1BE
330
9FAD
100
AcDbEntity
  8
1
  6
Continuous
100
AcDbLine
 10
185.6999909999999
 20
628.9999749999997
 30
0.0
 11
185.6999909999999
 21
629.099976
 31
0.0
  0
ARC
  5
A1BF
330
9FAD
100
AcDbEntity
  8
1
  6
Continuous
100
AcDbCircle
 10
186.6999909999999
 20
628.9999759999997
 30
0.0
 40
1.0
100
AcDbArc
 50
180.000005
 51
270.000001
  0
LINE
  5
A1C0
330
9FAD
100
AcDbEntity
  8
1
  6
Continuous
100
AcDbLine
 10
186.6999909999999
 20
627.9999759999997
 30
0.0
 11
192.700003
 21
627.9999759999997
 31
0.0
  0
LINE
  5
A1C1
330
9FAD
100
AcDbEntity
  8
1
  6
Continuous
100
AcDbLine
 10
192.700003
 20
621.999994
 30
0.0
 11
192.700003
 21
627.9999759999997
 31
0.0
  0
LINE
  5
A1C2
330
9FAD
100
AcDbEntity
  8
1
  6
Continuous
100
AcDbLine
 10
193.700003
 20
620.999994
 30
0.0
 11
193.8000029999997
 21
620.999994
 31
0.0
  0
ARC
  5
A1C3
330
9FAD
100
AcDbEntity
  8
1
  6
Continuous
100
AcDbCircle
 10
193.700003
 20
621.999994
 30
0.0
 40
1.0
100
AcDbArc
 50
180.000005
 51
270.000001
  0
CIRCLE
  5
A1C4
330
9FAD
100
AcDbEntity
  8
5
  6
PHANTOM
 48
0.2
100
AcDbCircle
 10
304.0
 20
402.0
 30
0.0
 40
2.649999999999999
  0
ARC
  5
A1C5
330
9FAD
100
AcDbEntity
  8
5
  6
PHANTOM
 48
0.2
100
AcDbCircle
 10
313.0
 20
390.0
 30
0.0
 40
15.0
100
AcDbArc
 50
180.000005
 51
0.00001
  0
LINE
  5
A1C6
330
9FAD
100
AcDbEntity
  8
5
  6
PHANTOM
 48
0.2
100
AcDbLine
 10
328.0
 20
393.100006
 30
0.0
 11
298.0
 21
393.100006
 31
0.0
  0
LINE
  5
A1C7
330
9FAD
100
AcDbEntity
  8
4
  6
CENTER
 48
0.2
100
AcDbLine
 10
308.6499939999999
 20
402.0
 30
0.0
 11
299.350006
 21
402.0
 31
0.0
  0
LINE
  5
A1C8
330
9FAD
100
AcDbEntity
  8
5
  6
PHANTOM
 48
0.2
100
AcDbLine
 10
328.0
 20
411.0
 30
0.0
 11
298.0
 21
411.0
 31
0.0
  0
LINE
  5
A1C9
330
9FAD
100
AcDbEntity
  8
4
  6
CENTER
 48
0.2
100
AcDbLine
 10
44.0
 20
396.700012
 30
0.0
 11
44.0
 21
415.3499759999998
 31
0.0
  0
LINE
  5
A1CA
330
9FAD
100
AcDbEntity
  8
4
  6
CENTER
 48
0.2
100
AcDbLine
 10
62.0
 20
396.700012
 30
0.0
 11
62.0
 21
415.3499759999998
 31
0.0
  0
ARC
  5
A1CB
330
9FAD
100
AcDbEntity
  8
5
  6
PHANTOM
 48
0.2
100
AcDbCircle
 10
53.0
 20
390.0
 30
0.0
 40
15.0
100
AcDbArc
 50
180.000005
 51
225.5729939999999
  0
LINE
  5
A1CC
330
9FAD
100
AcDbEntity
  8
4
  6
CENTER
 48
0.2
100
AcDbLine
 10
38.0
 20
383.0
 30
0.0
 11
68.0
 21
383.0
 31
0.0
  0
LINE
  5
A1CD
330
9FAD
100
AcDbEntity
  8
5
  6
PHANTOM
 48
0.2
100
AcDbLine
 10
38.0
 20
396.0
 30
0.0
 11
68.0
 21
396.0
 31
0.0
  0
LINE
  5
A1CE
330
9FAD
100
AcDbEntity
  8
5
  6
PHANTOM
 48
0.2
100
AcDbLine
 10
38.0
 20
408.099976
 30
0.0
 11
68.0
 21
408.099976
 31
0.0
  0
LINE
  5
A1CF
330
9FAD
100
AcDbEntity
  8
5
  6
PHANTOM
 48
0.2
100
AcDbLine
 10
38.0
 20
411.0
 30
0.0
 11
68.0
 21
411.0
 31
0.0
  0
LINE
  5
A1D0
330
9FAD
100
AcDbEntity
  8
5
  6
PHANTOM
 48
0.2
100
AcDbLine
 10
38.0
 20
390.0
 30
0.0
 11
38.0
 21
411.0
 31
0.0
  0
CIRCLE
  5
A1D1
330
9FAD
100
AcDbEntity
  8
5
  6
PHANTOM
 48
0.2
100
AcDbCircle
 10
53.0
 20
383.0
 30
0.0
 40
7.5
  0
CIRCLE
  5
A1D2
330
9FAD
100
AcDbEntity
  8
5
  6
PHANTOM
 48
0.2
100
AcDbCircle
 10
53.0
 20
383.0
 30
0.0
 40
6.5
  0
ARC
  5
A1D3
330
9FAD
100
AcDbEntity
  8
5
  6
PHANTOM
 48
0.2
100
AcDbCircle
 10
53.0
 20
390.0
 30
0.0
 40
15.0
100
AcDbArc
 50
314.427004
 51
0.0
  0
LINE
  5
A1D4
330
9FAD
100
AcDbEntity
  8
5
  6
PHANTOM
 48
0.2
100
AcDbLine
 10
42.5
 20
393.0
 30
0.0
 11
63.5
 21
393.0
 31
0.0
  0
ARC
  5
A1D5
330
9FAD
100
AcDbEntity
  8
5
  6
PHANTOM
 48
0.1
100
AcDbCircle
 10
51.0
 20
407.9999759999997
 30
0.0
 40
1.0
100
AcDbArc
 50
179.9999909999999
 51
270.000001
  0
ARC
  5
A1D6
330
9FAD
100
AcDbEntity
  8
5
  6
PHANTOM
 48
0.1
100
AcDbCircle
 10
55.0
 20
407.9999759999997
 30
0.0
 40
1.0
100
AcDbArc
 50
269.9999969999999
 51
0.0
  0
ARC
  5
A1D7
330
9FAD
100
AcDbEntity
  8
5
  6
PHANTOM
 48
0.1
100
AcDbCircle
 10
53.0
 20
403.0000239999997
 30
0.0
 40
3.0
100
AcDbArc
 50
179.9999909999999
 51
0.00001
  0
LINE
  5
A1D8
330
9FAD
100
AcDbEntity
  8
5
  6
PHANTOM
 48
0.1
100
AcDbLine
 10
55.0
 20
406.9999759999998
 30
0.0
 11
51.0
 21
406.9999759999998
 31
0.0
  0
LINE
  5
A1D9
330
9FAD
100
AcDbEntity
  8
5
  6
PHANTOM
 48
0.1
100
AcDbLine
 10
50.0
 20
403.0000239999997
 30
0.0
 11
50.0
 21
408.099976
 31
0.0
  0
LINE
  5
A1DA
330
9FAD
100
AcDbEntity
  8
5
  6
PHANTOM
 48
0.1
100
AcDbLine
 10
56.0
 20
403.0000239999997
 30
0.0
 11
56.0
 21
408.099976
 31
0.0
  0
CIRCLE
  5
A1DB
330
9FAD
100
AcDbEntity
  8
5
  6
PHANTOM
 48
0.2
100
AcDbCircle
 10
44.0
 20
402.0
 30
0.0
 40
2.649999999999999
  0
LINE
  5
A1DC
330
9FAD
100
AcDbEntity
  8
4
  6
CENTER
 48
0.2
100
AcDbLine
 10
39.34999799999999
 20
402.0
 30
0.0
 11
48.650002
 21
402.0
 31
0.0
  0
CIRCLE
  5
A1DD
330
9FAD
100
AcDbEntity
  8
5
  6
PHANTOM
 48
0.2
100
AcDbCircle
 10
62.0
 20
402.0
 30
0.0
 40
2.649999999999999
  0
LINE
  5
A1DE
330
9FAD
100
AcDbEntity
  8
4
  6
CENTER
 48
0.2
100
AcDbLine
 10
57.349998
 20
402.0
 30
0.0
 11
66.650002
 21
402.0
 31
0.0
  0
LINE
  5
A1DF
330
9FAD
100
AcDbEntity
  8
5
  6
PHANTOM
 48
0.2
100
AcDbLine
 10
68.0
 20
390.0
 30
0.0
 11
68.0
 21
411.0
 31
0.0
  0
LINE
  5
A1E0
330
9FAD
100
AcDbEntity
  8
4
  6
CENTER
 48
0.2
100
AcDbLine
 10
304.0
 20
416.0
 30
0.0
 11
304.0
 21
397.350006
 31
0.0
  0
LINE
  5
A1E1
330
9FAD
100
AcDbEntity
  8
4
  6
CENTER
 48
0.2
100
AcDbLine
 10
173.0
 20
403.7499999999998
 30
0.0
 11
173.0
 21
415.3499759999998
 31
0.0
  0
LINE
  5
A1E2
330
9FAD
100
AcDbEntity
  8
5
  6
PHANTOM
 48
0.2
100
AcDbLine
 10
184.999994
 20
406.9999759999998
 30
0.0
 11
191.000006
 21
406.9999759999998
 31
0.0
  0
ARC
  5
A1E3
330
9FAD
100
AcDbEntity
  8
5
  6
PHANTOM
 48
0.2
100
AcDbCircle
 10
191.8999939999999
 20
393.100006
 30
0.0
 40
2.9
100
AcDbArc
 50
90.00000300000001
 51
180.000005
  0
LINE
  5
A1E4
330
9FAD
100
AcDbEntity
  8
5
  6
PHANTOM
 48
0.2
100
AcDbLine
 10
189.0
 20
375.0
 30
0.0
 11
191.8999939999999
 21
375.0
 31
0.0
  0
LINE
  5
A1E5
330
9FAD
100
AcDbEntity
  8
4
  6
CENTER
 48
0.2
100
AcDbLine
 10
187.7499999999997
 20
402.0
 30
0.0
 11
199.350006
 21
402.0
 31
0.0
  0
LINE
  5
A1E6
330
9FAD
100
AcDbEntity
  8
5
  6
PHANTOM
 48
0.2
100
AcDbLine
 10
165.0
 20
408.099976
 30
0.0
 11
192.100006
 21
408.099976
 31
0.0
  0
LINE
  5
A1E7
330
9FAD
100
AcDbEntity
  8
5
  6
PHANTOM
 48
0.2
100
AcDbLine
 10
165.0
 20
411.0
 30
0.0
 11
192.100006
 21
411.0
 31
0.0
  0
LINE
  5
A1E8
330
9FAD
100
AcDbEntity
  8
4
  6
CENTER
 48
0.2
100
AcDbLine
 10
168.4961089999999
 20
383.0
 30
0.0
 11
201.6286159999999
 21
383.0
 31
0.0
  0
LINE
  5
A1E9
330
9FAD
100
AcDbEntity
  8
5
  6
PHANTOM
 48
0.2
100
AcDbLine
 10
189.0
 20
374.5
 30
0.0
 11
189.0
 21
393.100006
 31
0.0
  0
LINE
  5
A1EA
330
9FAD
100
AcDbEntity
  8
5
  6
PHANTOM
 48
0.2
100
AcDbLine
 10
177.100006
 20
375.4999999999999
 30
0.0
 11
177.100006
 21
390.5
 31
0.0
  0
LINE
  5
A1EB
330
9FAD
100
AcDbEntity
  8
5
  6
PHANTOM
 48
0.2
100
AcDbLine
 10
176.100006
 20
376.5
 30
0.0
 11
176.100006
 21
389.4999999999998
 31
0.0
  0
LINE
  5
A1EC
330
9FAD
100
AcDbEntity
  8
5
  6
PHANTOM
 48
0.2
100
AcDbLine
 10
176.0999909999999
 20
376.5
 30
0.0
 11
177.099991
 21
375.4999999999999
 31
0.0
  0
LINE
  5
A1ED
330
9FAD
100
AcDbEntity
  8
5
  6
PHANTOM
 48
0.2
100
AcDbLine
 10
177.100006
 20
375.4999999999999
 30
0.0
 11
179.100006
 21
375.4999999999999
 31
0.0
  0
LINE
  5
A1EE
330
9FAD
100
AcDbEntity
  8
5
  6
PHANTOM
 48
0.2
100
AcDbLine
 10
165.0
 20
408.099976
 30
0.0
 11
165.0
 21
411.0
 31
0.0
  0
LINE
  5
A1EF
330
9FAD
100
AcDbEntity
  8
5
  6
PHANTOM
 48
0.2
100
AcDbLine
 10
183.999994
 20
407.9999749999998
 30
0.0
 11
183.999994
 21
408.099976
 31
0.0
  0
ARC
  5
A1F0
330
9FAD
100
AcDbEntity
  8
5
  6
PHANTOM
 48
0.2
100
AcDbCircle
 10
184.999994
 20
407.9999759999997
 30
0.0
 40
1.0
100
AcDbArc
 50
180.000005
 51
270.000001
  0
LINE
  5
A1F1
330
9FAD
100
AcDbEntity
  8
5
  6
PHANTOM
 48
0.2
100
AcDbLine
 10
187.399994
 20
391.8500059999999
 30
0.0
 11
189.0
 21
391.8500059999999
 31
0.0
  0
LINE
  5
A1F2
330
9FAD
100
AcDbEntity
  8
5
  6
PHANTOM
 48
0.2
100
AcDbLine
 10
176.100006
 20
389.4999999999998
 30
0.0
 11
177.100006
 21
390.5
 31
0.0
  0
LINE
  5
A1F3
330
9FAD
100
AcDbEntity
  8
5
  6
PHANTOM
 48
0.2
100
AcDbLine
 10
177.100006
 20
390.5
 30
0.0
 11
179.100006
 21
390.5
 31
0.0
  0
LINE
  5
A1F4
330
9FAD
100
AcDbEntity
  8
5
  6
PHANTOM
 48
0.2
100
AcDbLine
 10
187.399994
 20
393.0
 30
0.0
 11
179.100006
 21
393.0
 31
0.0
  0
LINE
  5
A1F5
330
9FAD
100
AcDbEntity
  8
5
  6
PHANTOM
 48
0.2
100
AcDbLine
 10
191.8999939999999
 20
375.0
 30
0.0
 11
191.8999939999999
 21
393.100006
 31
0.0
  0
LINE
  5
A1F6
330
9FAD
100
AcDbEntity
  8
5
  6
PHANTOM
 48
0.2
100
AcDbLine
 10
191.8999939999999
 20
386.0
 30
0.0
 11
193.3999939999999
 21
386.0
 31
0.0
  0
LINE
  5
A1F7
330
9FAD
100
AcDbEntity
  8
5
  6
PHANTOM
 48
0.2
100
AcDbLine
 10
191.8999939999999
 20
380.0
 30
0.0
 11
193.3999939999999
 21
380.0
 31
0.0
  0
LINE
  5
A1F8
330
9FAD
100
AcDbEntity
  8
5
  6
PHANTOM
 48
0.2
100
AcDbLine
 10
192.649979
 20
382.999969
 30
0.0
 11
193.399979
 21
382.499969
 31
0.0
  0
LINE
  5
A1F9
330
9FAD
100
AcDbEntity
  8
5
  6
PHANTOM
 48
0.2
100
AcDbLine
 10
193.4000089999999
 20
383.4999999999998
 30
0.0
 11
192.649994
 21
383.0
 31
0.0
  0
LINE
  5
A1FA
330
9FAD
100
AcDbEntity
  8
5
  6
PHANTOM
 48
0.2
100
AcDbLine
 10
193.3999939999999
 20
380.0
 30
0.0
 11
193.3999939999999
 21
382.5
 31
0.0
  0
LINE
  5
A1FB
330
9FAD
100
AcDbEntity
  8
5
  6
PHANTOM
 48
0.2
100
AcDbLine
 10
193.3999939999999
 20
383.4999999999998
 30
0.0
 11
193.3999939999999
 21
386.0
 31
0.0
  0
LINE
  5
A1FC
330
9FAD
100
AcDbEntity
  8
5
  6
PHANTOM
 48
0.2
100
AcDbLine
 10
192.000006
 20
399.999994
 30
0.0
 11
192.100006
 21
399.999994
 31
0.0
  0
ARC
  5
A1FD
330
9FAD
100
AcDbEntity
  8
5
  6
PHANTOM
 48
0.2
100
AcDbCircle
 10
192.000006
 20
400.999994
 30
0.0
 40
1.0
100
AcDbArc
 50
180.000005
 51
270.000001
  0
LINE
  5
A1FE
330
9FAD
100
AcDbEntity
  8
5
  6
PHANTOM
 48
0.2
100
AcDbLine
 10
191.000006
 20
400.999994
 30
0.0
 11
191.000006
 21
406.9999759999998
 31
0.0
  0
ARC
  5
A1FF
330
9FAD
100
AcDbEntity
  8
5
  6
PHANTOM
 48
0.2
100
AcDbCircle
 10
192.100006
 20
408.099976
 30
0.0
 40
2.9
100
AcDbArc
 50
0.0
 51
90.00000300000001
  0
ARC
  5
A200
330
9FAD
100
AcDbEntity
  8
5
  6
PHANTOM
 48
0.2
100
AcDbCircle
 10
192.100006
 20
396.0
 30
0.0
 40
2.9
100
AcDbArc
 50
269.9999969999999
 51
0.0
  0
LINE
  5
A201
330
9FAD
100
AcDbEntity
  8
5
  6
PHANTOM
 48
0.2
100
AcDbLine
 10
192.100006
 20
396.0
 30
0.0
 11
192.100006
 21
408.099976
 31
0.0
  0
LINE
  5
A202
330
9FAD
100
AcDbEntity
  8
5
  6
PHANTOM
 48
0.2
100
AcDbLine
 10
191.8999939999999
 20
393.100006
 30
0.0
 11
192.100006
 21
393.100006
 31
0.0
  0
LINE
  5
A203
330
9FAD
100
AcDbEntity
  8
5
  6
PHANTOM
 48
0.2
100
AcDbLine
 10
195.0
 20
396.0
 30
0.0
 11
195.0
 21
408.099976
 31
0.0
  0
LINE
  5
A204
330
9FAD
100
AcDbEntity
  8
5
  6
PHANTOM
 48
0.2
100
AcDbLine
 10
191.8999939999999
 20
396.0
 30
0.0
 11
192.100006
 21
396.0
 31
0.0
  0
LINE
  5
A205
330
9FAD
100
AcDbEntity
  8
5
  6
PHANTOM
 48
0.2
100
AcDbLine
 10
298.0
 20
411.0
 30
0.0
 11
298.0
 21
390.0
 31
0.0
  0
LINE
  5
A206
330
9FAD
100
AcDbEntity
  8
5
  6
PHANTOM
 48
0.2
100
AcDbLine
 10
461.0
 20
411.0
 30
0.0
 11
433.8999939999998
 21
411.0
 31
0.0
  0
LINE
  5
A207
330
9FAD
100
AcDbEntity
  8
5
  6
PHANTOM
 48
0.2
100
AcDbLine
 10
461.0
 20
408.099976
 30
0.0
 11
433.8999939999998
 21
408.099976
 31
0.0
  0
LINE
  5
A208
330
9FAD
100
AcDbEntity
  8
4
  6
CENTER
 48
0.2
100
AcDbLine
 10
453.0
 20
403.7499999999998
 30
0.0
 11
453.0
 21
415.3499759999998
 31
0.0
  0
LINE
  5
A209
330
9FAD
100
AcDbEntity
  8
4
  6
CENTER
 48
0.2
100
AcDbLine
 10
322.0
 20
416.0
 30
0.0
 11
322.0
 21
397.350006
 31
0.0
  0
CIRCLE
  5
A20A
330
9FAD
100
AcDbEntity
  8
5
  6
PHANTOM
 48
0.2
100
AcDbCircle
 10
313.0
 20
383.0
 30
0.0
 40
3.25
  0
CIRCLE
  5
A20B
330
9FAD
100
AcDbEntity
  8
5
  6
PHANTOM
 48
0.2
100
AcDbCircle
 10
313.0
 20
383.0
 30
0.0
 40
3.0
  0
LINE
  5
A20C
330
9FAD
100
AcDbEntity
  8
4
  6
CENTER
 48
0.2
100
AcDbLine
 10
306.4999999999999
 20
383.0
 30
0.0
 11
319.5
 21
383.0
 31
0.0
  0
LINE
  5
A20D
330
9FAD
100
AcDbEntity
  8
5
  6
PHANTOM
 48
0.1
100
AcDbLine
 10
312.5
 20
383.4999999999998
 30
0.0
 11
312.5
 21
385.958038
 31
0.0
  0
LINE
  5
A20E
330
9FAD
100
AcDbEntity
  8
5
  6
PHANTOM
 48
0.1
100
AcDbLine
 10
313.5
 20
383.4999999999998
 30
0.0
 11
313.5
 21
385.958038
 31
0.0
  0
LINE
  5
A20F
330
9FAD
100
AcDbEntity
  8
5
  6
PHANTOM
 48
0.1
100
AcDbLine
 10
312.5
 20
383.4999999999998
 30
0.0
 11
310.041962
 21
383.4999999999998
 31
0.0
  0
LINE
  5
A210
330
9FAD
100
AcDbEntity
  8
5
  6
PHANTOM
 48
0.1
100
AcDbLine
 10
312.5
 20
382.5
 30
0.0
 11
310.041962
 21
382.5
 31
0.0
  0
LINE
  5
A211
330
9FAD
100
AcDbEntity
  8
5
  6
PHANTOM
 48
0.1
100
AcDbLine
 10
315.9580379999998
 20
383.4999999999998
 30
0.0
 11
313.5
 21
383.4999999999998
 31
0.0
  0
LINE
  5
A212
330
9FAD
100
AcDbEntity
  8
5
  6
PHANTOM
 48
0.1
100
AcDbLine
 10
315.9580379999998
 20
382.5
 30
0.0
 11
313.5
 21
382.5
 31
0.0
  0
LINE
  5
A213
330
9FAD
100
AcDbEntity
  8
5
  6
PHANTOM
 48
0.1
100
AcDbLine
 10
312.5
 20
380.0419619999999
 30
0.0
 11
312.5
 21
382.5
 31
0.0
  0
LINE
  5
A214
330
9FAD
100
AcDbEntity
  8
5
  6
PHANTOM
 48
0.1
100
AcDbLine
 10
313.5
 20
380.0419619999999
 30
0.0
 11
313.5
 21
382.5
 31
0.0
  0
CIRCLE
  5
A215
330
9FAD
100
AcDbEntity
  8
5
  6
PHANTOM
 48
0.2
100
AcDbCircle
 10
322.0
 20
402.0
 30
0.0
 40
2.649999999999999
  0
LINE
  5
A216
330
9FAD
100
AcDbEntity
  8
4
  6
CENTER
 48
0.2
100
AcDbLine
 10
326.649994
 20
402.0
 30
0.0
 11
317.350006
 21
402.0
 31
0.0
  0
ARC
  5
A217
330
9FAD
100
AcDbEntity
  8
5
  6
PHANTOM
 48
0.1
100
AcDbCircle
 10
313.0
 20
402.0000239999998
 30
0.0
 40
2.0
100
AcDbArc
 50
179.9999909999999
 51
0.00001
  0
ARC
  5
A218
330
9FAD
100
AcDbEntity
  8
5
  6
PHANTOM
 48
0.2
100
AcDbCircle
 10
310.4999999999999
 20
410.5
 30
0.0
 40
0.5
100
AcDbArc
 50
0.0
 51
90.00000300000001
  0
ARC
  5
A219
330
9FAD
100
AcDbEntity
  8
5
  6
PHANTOM
 48
0.2
100
AcDbCircle
 10
315.5
 20
410.5
 30
0.0
 40
0.5
100
AcDbArc
 50
90.00000300000001
 51
180.000005
  0
LINE
  5
A21A
330
9FAD
100
AcDbEntity
  8
5
  6
PHANTOM
 48
0.1
100
AcDbLine
 10
315.0
 20
410.5
 30
0.0
 11
315.0
 21
402.0000239999998
 31
0.0
  0
LINE
  5
A21B
330
9FAD
100
AcDbEntity
  8
5
  6
PHANTOM
 48
0.1
100
AcDbLine
 10
311.0
 20
410.5
 30
0.0
 11
311.0
 21
402.0000239999998
 31
0.0
  0
LINE
  5
A21C
330
9FAD
100
AcDbEntity
  8
5
  6
PHANTOM
 48
0.1
100
AcDbLine
 10
311.0
 20
409.9
 30
0.0
 11
315.0
 21
409.9
 31
0.0
  0
LINE
  5
A21D
330
9FAD
100
AcDbEntity
  8
5
  6
PHANTOM
 48
0.2
100
AcDbLine
 10
328.0
 20
411.0
 30
0.0
 11
328.0
 21
390.0
 31
0.0
  0
LINE
  5
A21E
330
9FAD
100
AcDbEntity
  8
5
  6
PHANTOM
 48
0.2
100
AcDbLine
 10
448.899994
 20
375.4999999999999
 30
0.0
 11
448.899994
 21
390.5
 31
0.0
  0
LINE
  5
A21F
330
9FAD
100
AcDbEntity
  8
5
  6
PHANTOM
 48
0.2
100
AcDbLine
 10
434.1000059999998
 20
375.0
 30
0.0
 11
434.1000059999998
 21
393.100006
 31
0.0
  0
LINE
  5
A220
330
9FAD
100
AcDbEntity
  8
5
  6
PHANTOM
 48
0.2
100
AcDbLine
 10
449.899994
 20
376.5
 30
0.0
 11
449.899994
 21
389.4999999999998
 31
0.0
  0
LINE
  5
A221
330
9FAD
100
AcDbEntity
  8
5
  6
PHANTOM
 48
0.2
100
AcDbLine
 10
437.0
 20
374.5
 30
0.0
 11
437.0
 21
393.100006
 31
0.0
  0
LINE
  5
A222
330
9FAD
100
AcDbEntity
  8
4
  6
CENTER
 48
0.2
100
AcDbLine
 10
457.5039059999999
 20
383.0
 30
0.0
 11
424.3713679999998
 21
383.0
 31
0.0
  0
LINE
  5
A223
330
9FAD
100
AcDbEntity
  8
5
  6
PHANTOM
 48
0.1
100
AcDbLine
 10
433.3500059999998
 20
383.0
 30
0.0
 11
432.6000059999998
 21
382.5
 31
0.0
  0
LINE
  5
A224
330
9FAD
100
AcDbEntity
  8
5
  6
PHANTOM
 48
0.1
100
AcDbLine
 10
434.1000059999998
 20
380.0
 30
0.0
 11
432.6000059999998
 21
380.0
 31
0.0
  0
LINE
  5
A225
330
9FAD
100
AcDbEntity
  8
5
  6
PHANTOM
 48
0.1
100
AcDbLine
 10
434.1000059999998
 20
386.0
 30
0.0
 11
432.6000059999998
 21
386.0
 31
0.0
  0
LINE
  5
A226
330
9FAD
100
AcDbEntity
  8
5
  6
PHANTOM
 48
0.1
100
AcDbLine
 10
432.6000059999998
 20
383.4999999999998
 30
0.0
 11
432.6000059999998
 21
386.0
 31
0.0
  0
LINE
  5
A227
330
9FAD
100
AcDbEntity
  8
5
  6
PHANTOM
 48
0.2
100
AcDbLine
 10
437.0
 20
375.0
 30
0.0
 11
434.1000059999998
 21
375.0
 31
0.0
  0
LINE
  5
A228
330
9FAD
100
AcDbEntity
  8
5
  6
PHANTOM
 48
0.1
100
AcDbLine
 10
432.6000059999998
 20
383.4999999999998
 30
0.0
 11
433.3499759999998
 21
383.0
 31
0.0
  0
LINE
  5
A229
330
9FAD
100
AcDbEntity
  8
5
  6
PHANTOM
 48
0.1
100
AcDbLine
 10
432.6000059999998
 20
380.0
 30
0.0
 11
432.6000059999998
 21
382.5
 31
0.0
  0
LINE
  5
A22A
330
9FAD
100
AcDbEntity
  8
5
  6
PHANTOM
 48
0.2
100
AcDbLine
 10
449.9000239999999
 20
376.5
 30
0.0
 11
448.899994
 21
375.4999999999999
 31
0.0
  0
LINE
  5
A22B
330
9FAD
100
AcDbEntity
  8
5
  6
PHANTOM
 48
0.2
100
AcDbLine
 10
448.899994
 20
375.4999999999999
 30
0.0
 11
446.8999939999998
 21
375.4999999999999
 31
0.0
  0
LINE
  5
A22C
330
9FAD
100
AcDbEntity
  8
5
  6
PHANTOM
 48
0.1
100
AcDbLine
 10
441.0000059999998
 20
406.9999759999998
 30
0.0
 11
434.999994
 21
406.9999759999998
 31
0.0
  0
LINE
  5
A22D
330
9FAD
100
AcDbEntity
  8
5
  6
PHANTOM
 48
0.1
100
AcDbLine
 10
438.6000059999998
 20
393.0
 30
0.0
 11
446.8999939999998
 21
393.0
 31
0.0
  0
LINE
  5
A22E
330
9FAD
100
AcDbEntity
  8
5
  6
PHANTOM
 48
0.2
100
AcDbLine
 10
433.999994
 20
399.999994
 30
0.0
 11
433.8999939999998
 21
399.999994
 31
0.0
  0
ARC
  5
A22F
330
9FAD
100
AcDbEntity
  8
5
  6
PHANTOM
 48
0.1
100
AcDbCircle
 10
433.999994
 20
400.999994
 30
0.0
 40
1.0
100
AcDbArc
 50
269.999999
 51
359.999995
  0
LINE
  5
A230
330
9FAD
100
AcDbEntity
  8
5
  6
PHANTOM
 48
0.1
100
AcDbLine
 10
434.999994
 20
400.999994
 30
0.0
 11
434.999994
 21
406.9999759999998
 31
0.0
  0
ARC
  5
A231
330
9FAD
100
AcDbEntity
  8
5
  6
PHANTOM
 48
0.2
100
AcDbCircle
 10
433.8999939999998
 20
408.099976
 30
0.0
 40
2.9
100
AcDbArc
 50
90.00000300000001
 51
180.000005
  0
ARC
  5
A232
330
9FAD
100
AcDbEntity
  8
5
  6
PHANTOM
 48
0.2
100
AcDbCircle
 10
433.8999939999998
 20
396.0
 30
0.0
 40
2.9
100
AcDbArc
 50
179.9999909999999
 51
270.000001
  0
ARC
  5
A233
330
9FAD
100
AcDbEntity
  8
5
  6
PHANTOM
 48
0.2
100
AcDbCircle
 10
434.1000059999998
 20
393.100006
 30
0.0
 40
2.9
100
AcDbArc
 50
0.0
 51
90.00000300000001
  0
LINE
  5
A234
330
9FAD
100
AcDbEntity
  8
5
  6
PHANTOM
 48
0.2
100
AcDbLine
 10
433.8999939999998
 20
396.0
 30
0.0
 11
433.8999939999998
 21
408.099976
 31
0.0
  0
LINE
  5
A235
330
9FAD
100
AcDbEntity
  8
5
  6
PHANTOM
 48
0.2
100
AcDbLine
 10
438.6000059999998
 20
391.8500059999999
 30
0.0
 11
437.0
 21
391.8500059999999
 31
0.0
  0
LINE
  5
A236
330
9FAD
100
AcDbEntity
  8
4
  6
CENTER
 48
0.2
100
AcDbLine
 10
438.25
 20
402.0
 30
0.0
 11
426.649994
 21
402.0
 31
0.0
  0
LINE
  5
A237
330
9FAD
100
AcDbEntity
  8
5
  6
PHANTOM
 48
0.2
100
AcDbLine
 10
431.0
 20
396.0
 30
0.0
 11
431.0
 21
408.099976
 31
0.0
  0
LINE
  5
A238
330
9FAD
100
AcDbEntity
  8
5
  6
PHANTOM
 48
0.2
100
AcDbLine
 10
434.1000059999998
 20
393.100006
 30
0.0
 11
433.8999939999998
 21
393.100006
 31
0.0
  0
LINE
  5
A239
330
9FAD
100
AcDbEntity
  8
5
  6
PHANTOM
 48
0.2
100
AcDbLine
 10
434.1000059999998
 20
396.0
 30
0.0
 11
433.8999939999998
 21
396.0
 31
0.0
  0
LINE
  5
A23A
330
9FAD
100
AcDbEntity
  8
5
  6
PHANTOM
 48
0.2
100
AcDbLine
 10
442.0000059999998
 20
407.9999749999998
 30
0.0
 11
442.0000059999998
 21
408.099976
 31
0.0
  0
ARC
  5
A23B
330
9FAD
100
AcDbEntity
  8
5
  6
PHANTOM
 48
0.1
100
AcDbCircle
 10
441.0000059999998
 20
407.9999759999997
 30
0.0
 40
1.0
100
AcDbArc
 50
269.999999
 51
359.999995
  0
LINE
  5
A23C
330
9FAD
100
AcDbEntity
  8
5
  6
PHANTOM
 48
0.2
100
AcDbLine
 10
449.899994
 20
389.4999999999998
 30
0.0
 11
448.900024
 21
390.5
 31
0.0
  0
LINE
  5
A23D
330
9FAD
100
AcDbEntity
  8
5
  6
PHANTOM
 48
0.2
100
AcDbLine
 10
448.899994
 20
390.5
 30
0.0
 11
446.8999939999998
 21
390.5
 31
0.0
  0
LINE
  5
A23E
330
9FAD
100
AcDbEntity
  8
5
  6
PHANTOM
 48
0.2
100
AcDbLine
 10
461.0
 20
408.099976
 30
0.0
 11
461.0
 21
411.0
 31
0.0
  0
ARC
  5
A23F
330
9FAD
100
AcDbEntity
  8
1
  6
Continuous
100
AcDbCircle
 10
457.299988
 20
171.0
 30
0.0
 40
2.0
100
AcDbArc
 50
270.0
 51
0.0
  0
ARC
  5
A240
330
9FAD
100
AcDbEntity
  8
1
  6
Continuous
100
AcDbCircle
 10
457.299988
 20
197.0
 30
0.0
 40
2.0
100
AcDbArc
 50
0.0
 51
90.0
  0
ARC
  5
A241
330
9FAD
100
AcDbEntity
  8
1
  6
Continuous
100
AcDbCircle
 10
168.699997
 20
197.0
 30
0.0
 40
2.0
100
AcDbArc
 50
90.0
 51
180.0
  0
ARC
  5
A242
330
9FAD
100
AcDbEntity
  8
1
  6
Continuous
100
AcDbCircle
 10
168.699997
 20
171.0
 30
0.0
 40
2.0
100
AcDbArc
 50
180.0
 51
270.0
  0
ARC
  5
A243
330
9FAD
100
AcDbEntity
  8
1
  6
Continuous
100
AcDbCircle
 10
167.0
 20
82.0
 30
0.0
 40
2.0
100
AcDbArc
 50
90.0
 51
180.0
  0
ARC
  5
A244
330
9FAD
100
AcDbEntity
  8
1
  6
Continuous
100
AcDbCircle
 10
167.0
 20
56.0
 30
0.0
 40
2.0
100
AcDbArc
 50
180.0
 51
270.0
  0
ARC
  5
A245
330
9FAD
100
AcDbEntity
  8
1
  6
Continuous
100
AcDbCircle
 10
167.0
 20
617.0
 30
0.0
 40
2.0
100
AcDbArc
 50
90.0
 51
180.0
  0
ARC
  5
A246
330
9FAD
100
AcDbEntity
  8
1
  6
Continuous
100
AcDbCircle
 10
167.0
 20
591.0
 30
0.0
 40
2.0
100
AcDbArc
 50
180.0
 51
270.0
  0
LINE
  5
A265
330
9FAD
100
AcDbEntity
  8
1
  6
Continuous
100
AcDbLine
 10
190.600006
 20
192.850006
 30
0.0
 11
190.600006
 21
175.1499939999999
 31
0.0
  0
LINE
  5
A266
330
9FAD
100
AcDbEntity
  8
1
  6
Continuous
100
AcDbLine
 10
195.1
 20
72.0
 30
0.0
 11
195.1
 21
69.499992
 31
0.0
  0
LINE
  5
A267
330
9FAD
100
AcDbEntity
  8
1
  6
Continuous
100
AcDbLine
 10
195.1
 20
68.500008
 30
0.0
 11
195.1
 21
66.0
 31
0.0
  0
LINE
  5
A268
330
9FAD
100
AcDbEntity
  8
1
  6
Continuous
100
AcDbLine
 10
195.0
 20
69.43332640000001
 30
0.0
 11
195.0
 21
68.56667466666666
 31
0.0
  0
LINE
  5
A269
330
9FAD
100
AcDbEntity
  8
1
  6
Continuous
100
AcDbLine
 10
195.0
 20
66.0
 30
0.0
 11
195.0
 21
58.640076
 31
0.0
  0
LINE
  5
A26A
330
9FAD
100
AcDbEntity
  8
1
  6
Continuous
100
AcDbLine
 10
190.600006
 20
77.849998
 30
0.0
 11
190.600006
 21
60.150002
 31
0.0
  0
ENDSEC
  0
SECTION
  2
OBJECTS
  0
DICTIONARY
  5
9F9B
330
0
100
AcDbDictionary
281
     1
  3
ACAD_CIP_PREVIOUS_PRODUCT_INFO
350
A526
  3
ACAD_COLOR
350
A508
  3
ACAD_DETAILVIEWSTYLE
350
A521
  3
ACAD_GROUP
350
9F9C
  3
ACAD_LAYOUT
350
9FA8
  3
ACAD_MATERIAL
350
A4D6
  3
ACAD_MLEADERSTYLE
350
A51D
  3
ACAD_MLINESTYLE
350
9FA5
  3
ACAD_PLOTSETTINGS
350
9FA7
  3
ACAD_PLOTSTYLENAME
350
A4D4
  3
ACAD_SCALELIST
350
A50B
  3
ACAD_SECTIONVIEWSTYLE
350
A51F
  3
ACAD_TABLESTYLE
350
A509
  3
ACAD_VISUALSTYLE
350
A4EF
  3
ACDB_RECOMPOSE_DATA
350
A544
  3
AcDbVariableDictionary
350
A537
  3
DWGPROPS
350
A545
  0
DICTIONARY
  5
A527
330
9F9F
100
AcDbDictionary
280
     1
281
     1
  3
ADSK_XREC_LAYER_RECONCILED
360
A528
  0
DICTIONARY
  5
A529
330
9FB5
100
AcDbDictionary
280
     1
281
     1
  3
ADSK_XREC_LAYER_RECONCILED
360
A52A
  0
DICTIONARY
  5
A52B
330
9FB6
100
AcDbDictionary
280
     1
281
     1
  3
ADSK_XREC_LAYER_RECONCILED
360
A52C
  0
DICTIONARY
  5
A52D
330
9FB7
100
AcDbDictionary
280
     1
281
     1
  3
ADSK_XREC_LAYER_RECONCILED
360
A52E
  0
DICTIONARY
  5
A52F
330
9FB8
100
AcDbDictionary
280
     1
281
     1
  3
ADSK_XREC_LAYER_RECONCILED
360
A530
  0
DICTIONARY
  5
A531
330
9FB9
100
AcDbDictionary
280
     1
281
     1
  3
ADSK_XREC_LAYER_RECONCILED
360
A532
  0
DICTIONARY
  5
A533
330
9FBA
100
AcDbDictionary
280
     1
281
     1
  3
ADSK_XREC_LAYER_RECONCILED
360
A534
  0
DICTIONARY
  5
A535
330
9FBB
100
AcDbDictionary
280
     1
281
     1
  3
ADSK_XREC_LAYER_RECONCILED
360
A536
  0
DICTIONARY
  5
A255
330
9FAD
100
AcDbDictionary
281
     1
  3
ACAD_LAYOUTSELFREF
350
A4D0
  0
DICTIONARY
  5
A253
330
9FA9
100
AcDbDictionary
281
     1
  3
ACAD_LAYOUTSELFREF
350
A4CF
  0
XRECORD
  5
A526
102
{ACAD_REACTORS
330
9F9B
102
}
330
9F9B
100
AcDbXrecord
280
     1
300
ACDLT
300
2014
300
ACDLT_F_S
  0
DICTIONARY
  5
A508
102
{ACAD_REACTORS
330
9F9B
102
}
330
9F9B
100
AcDbDictionary
281
     1
  0
DICTIONARY
  5
A521
102
{ACAD_REACTORS
330
9F9B
102
}
330
9F9B
100
AcDbDictionary
281
     1
  3
Imperial24
350
A522
  0
DICTIONARY
  5
9F9C
102
{ACAD_REACTORS
330
9F9B
102
}
330
9F9B
100
AcDbDictionary
281
     1
  0
DICTIONARY
  5
9FA8
102
{ACAD_REACTORS
330
9F9B
102
}
330
9F9B
100
AcDbDictionary
281
     1
  3
Model
350
A523
  3
レイアウト1
350
A524
  0
DICTIONARY
  5
A4D6
102
{ACAD_REACTORS
330
9F9B
102
}
330
9F9B
100
AcDbDictionary
281
     1
  3
ByBlock
350
A4DF
  3
ByLayer
350
A4D7
  3
Global
350
A4E7
  0
DICTIONARY
  5
A51D
102
{ACAD_REACTORS
330
9F9B
102
}
330
9F9B
100
AcDbDictionary
281
     1
  3
Standard
350
A51E
  0
DICTIONARY
  5
9FA5
102
{ACAD_REACTORS
330
9F9B
102
}
330
9F9B
100
AcDbDictionary
281
     1
  3
STANDARD
350
9FA6
  0
DICTIONARY
  5
9FA7
102
{ACAD_REACTORS
330
9F9B
102
}
330
9F9B
100
AcDbDictionary
281
     1
  0
ACDBDICTIONARYWDFLT
  5
A4D4
102
{ACAD_REACTORS
330
9F9B
102
}
330
9F9B
100
AcDbDictionary
281
     1
  3
Normal
350
A4D5
100
AcDbDictionaryWithDefault
340
A4D5
  0
DICTIONARY
  5
A50B
102
{ACAD_REACTORS
330
9F9B
102
}
330
9F9B
100
AcDbDictionary
281
     1
  3
A0
350
A50C
  3
A1
350
A50D
  3
A2
350
A50E
  3
A3
350
A50F
  3
A4
350
A510
  3
A5
350
A511
  3
A6
350
A512
  3
A7
350
A513
  3
A8
350
A514
  3
A9
350
A515
  3
B0
350
A516
  3
B1
350
A517
  3
B2
350
A518
  3
B3
350
A519
  3
B4
350
A51A
  3
B5
350
A51B
  3
B6
350
A51C
  0
DICTIONARY
  5
A51F
102
{ACAD_REACTORS
330
9F9B
102
}
330
9F9B
100
AcDbDictionary
281
     1
  3
Imperial24
350
A520
  0
DICTIONARY
  5
A509
102
{ACAD_REACTORS
330
9F9B
102
}
330
9F9B
100
AcDbDictionary
281
     1
  3
Standard
350
A50A
  0
DICTIONARY
  5
A4EF
102
{ACAD_REACTORS
330
9F9B
102
}
330
9F9B
100
AcDbDictionary
281
     1
  3
2dWireframe
350
A4F5
  3
Basic
350
A4F4
  3
Brighten
350
A4FB
  3
ColorChange
350
A4FF
  3
Conceptual
350
A4F8
  3
Dim
350
A4FA
  3
EdgeColorOff
350
A507
  3
Facepattern
350
A4FE
  3
Flat
350
A4F0
  3
FlatWithEdges
350
A4F1
  3
Gouraud
350
A4F2
  3
GouraudWithEdges
350
A4F3
  3
Hidden
350
A4F7
  3
JitterOff
350
A505
  3
Linepattern
350
A4FD
  3
OverhangOff
350
A506
  3
Realistic
350
A4F9
  3
Shaded
350
A504
  3
Shaded with edges
350
A503
  3
Shades of Gray
350
A500
  3
Sketchy
350
A501
  3
Thicken
350
A4FC
  3
Wireframe
350
A4F6
  3
X-Ray
350
A502
  0
XRECORD
  5
A544
102
{ACAD_REACTORS
330
9F9B
102
}
330
9F9B
100
AcDbXrecord
280
     1
 90
        1
330
A50A
  0
DICTIONARY
  5
A537
102
{ACAD_REACTORS
330
9F9B
102
}
330
9F9B
100
AcDbDictionary
281
     1
  3
CANNOSCALE
350
A53C
  3
CMLEADERSTYLE
350
A539
  3
CTABLESTYLE
350
A538
  3
CVIEWDETAILSTYLE
350
A53A
  3
CVIEWSECTIONSTYLE
350
A53B
  3
DIMASSOC
350
A53F
  3
INDEXCTL
350
A53E
  3
SORTENTS
350
A53D
  3
XCLIPFRAME
350
A540
  0
XRECORD
  5
A545
102
{ACAD_REACTORS
330
9F9B
102
}
330
9F9B
100
AcDbXrecord
280
     1
  1
DWGPROPS COOKIE
  2

  3

  4

  6

  7

  8
Yoshitsune
  9

300
=
301
=
302
=
303
=
304
=
305
=
306
=
307
=
308
=
309
=
 40
0.0271531828703704
 41
2451065.508393865
 42
2457192.622764132
  1

 90
        0
  0
XRECORD
  5
A528
102
{ACAD_REACTORS
330
A527
102
}
330
A527
100
AcDbXrecord
280
     1
290
     1
  0
XRECORD
  5
A52A
102
{ACAD_REACTORS
330
A529
102
}
330
A529
100
AcDbXrecord
280
     1
290
     1
  0
XRECORD
  5
A52C
102
{ACAD_REACTORS
330
A52B
102
}
330
A52B
100
AcDbXrecord
280
     1
290
     1
  0
XRECORD
  5
A52E
102
{ACAD_REACTORS
330
A52D
102
}
330
A52D
100
AcDbXrecord
280
     1
290
     1
  0
XRECORD
  5
A530
102
{ACAD_REACTORS
330
A52F
102
}
330
A52F
100
AcDbXrecord
280
     1
290
     1
  0
XRECORD
  5
A532
102
{ACAD_REACTORS
330
A531
102
}
330
A531
100
AcDbXrecord
280
     1
290
     1
  0
XRECORD
  5
A534
102
{ACAD_REACTORS
330
A533
102
}
330
A533
100
AcDbXrecord
280
     1
290
     1
  0
XRECORD
  5
A536
102
{ACAD_REACTORS
330
A535
102
}
330
A535
100
AcDbXrecord
280
     1
290
     1
  0
XRECORD
  5
A4D0
102
{ACAD_REACTORS
330
A255
102
}
330
A255
100
AcDbXrecord
280
     1
340
9FAD
  0
XRECORD
  5
A4CF
102
{ACAD_REACTORS
330
A253
102
}
330
A253
100
AcDbXrecord
280
     1
340
9FA9
  0
ACDBDETAILVIEWSTYLE
  5
A522
102
{ACAD_XDICTIONARY
360
A57D
102
}
102
{ACAD_REACTORS
330
A521
102
}
330
A521
100
AcDbModelDocViewStyle
 70
     0
  3
Imperial24
290
     0
100
AcDbDetailViewStyle
 70
     0
 71
     0
 90
        3
 71
     1
340
9FA0
 40
0.24
340
0
 40
0.24
300

 40
0.36
280
     3
 71
     2
340
9FA4
 90
       25
 71
     3
340
9FA0
 40
0.24
 90
        1
 40
0.75
 90
        1
300
%<\AcVar ViewType \f "%tc1">% %<\AcVar ViewDetailId>%\PSCALE %<\AcVar ViewScale \f "%sn">%
 71
     4
340
9FA4
 90
       25
340
9FA4
 90
       25
280
     0
  0
LAYOUT
  5
A523
102
{ACAD_XDICTIONARY
360
A57F
102
}
102
{ACAD_REACTORS
330
9FA8
102
}
330
9FA8
100
AcDbPlotSettings
  1

  2
Canon LBP9100C
  4

  6

 40
0.0
 41
0.0
 42
0.0
 43
0.0
 44
0.0
 45
0.0
 46
0.0
 47
0.0
 48
0.0
 49
0.0
140
0.0
141
0.0
142
1.0
143
1.0
 70
  1712
 72
     0
 73
     0
 74
     0
  7

 75
     0
147
1.0
148
0.0
149
0.0
100
AcDbLayout
  1
Model
 70
     1
 71
     0
 10
0.0
 20
0.0
 11
12.0
 21
9.0
 12
0.0
 22
0.0
 32
0.0
 14
0.0
 24
0.0
 34
0.0
 15
0.0
 25
0.0
 35
0.0
146
0.0
 13
0.0
 23
0.0
 33
0.0
 16
1.0
 26
0.0
 36
0.0
 17
0.0
 27
1.0
 37
0.0
 76
     0
330
9FAD
331
A4CE
  0
LAYOUT
  5
A524
102
{ACAD_XDICTIONARY
360
A581
102
}
102
{ACAD_REACTORS
330
9FA8
102
}
330
9FA8
100
AcDbPlotSettings
  1

  2
Canon LBP9100C
  4

  6

 40
0.0
 41
0.0
 42
0.0
 43
0.0
 44
0.0
 45
0.0
 46
0.0
 47
0.0
 48
0.0
 49
0.0
140
0.0
141
0.0
142
1.0
143
1.0
 70
   688
 72
     0
 73
     0
 74
     5
  7

 75
    16
147
1.0
148
0.0
149
0.0
100
AcDbLayout
  1
レイアウト1
 70
     0
 71
     1
 10
0.0
 20
0.0
 11
420.0
 21
297.0
 12
0.0
 22
0.0
 32
0.0
 14
1.000000000000000E+20
 24
1.000000000000000E+20
 34
1.000000000000000E+20
 15
-1.000000000000000E+20
 25
-1.000000000000000E+20
 35
-1.000000000000000E+20
146
0.0
 13
0.0
 23
0.0
 33
0.0
 16
1.0
 26
0.0
 36
0.0
 17
0.0
 27
1.0
 37
0.0
 76
     0
330
9FA9
  0
MATERIAL
  5
A4DF
102
{ACAD_XDICTIONARY
360
A4E0
102
}
102
{ACAD_REACTORS
330
A4D6
102
}
330
A4D6
100
AcDbMaterial
  1
ByBlock
 72
     0
 43
0.0208333333333333
 43
0.0
 43
0.0
 43
0.0
 43
0.0
 43
0.0208333333333333
 43
0.0
 43
0.0
 43
0.0
 43
0.0
 43
1.0
 43
0.0
 43
0.0
 43
0.0
 43
0.0
 43
1.0
 77
     0
 47
0.0208333333333333
 47
0.0
 47
0.0
 47
0.0
 47
0.0
 47
0.0208333333333333
 47
0.0
 47
0.0
 47
0.0
 47
0.0
 47
1.0
 47
0.0
 47
0.0
 47
0.0
 47
0.0
 47
1.0
171
     0
 49
0.0208333333333333
 49
0.0
 49
0.0
 49
0.0
 49
0.0
 49
0.0208333333333333
 49
0.0
 49
0.0
 49
0.0
 49
0.0
 49
1.0
 49
0.0
 49
0.0
 49
0.0
 49
0.0
 49
1.0
175
     0
142
0.0208333333333333
142
0.0
142
0.0
142
0.0
142
0.0
142
0.0208333333333333
142
0.0
142
0.0
142
0.0
142
0.0
142
1.0
142
0.0
142
0.0
142
0.0
142
0.0
142
1.0
179
     0
144
0.0208333333333333
144
0.0
144
0.0
144
0.0
144
0.0
144
0.0208333333333333
144
0.0
144
0.0
144
0.0
144
0.0
144
1.0
144
0.0
144
0.0
144
0.0
144
0.0
144
1.0
147
0.0208333333333333
147
0.0
147
0.0
147
0.0
147
0.0
147
0.0208333333333333
147
0.0
147
0.0
147
0.0
147
0.0
147
1.0
147
0.0
147
0.0
147
0.0
147
0.0
147
1.0
  0
MATERIAL
  5
A4D7
102
{ACAD_XDICTIONARY
360
A4D8
102
}
102
{ACAD_REACTORS
330
A4D6
102
}
330
A4D6
100
AcDbMaterial
  1
ByLayer
 72
     0
 43
0.0208333333333333
 43
0.0
 43
0.0
 43
0.0
 43
0.0
 43
0.0208333333333333
 43
0.0
 43
0.0
 43
0.0
 43
0.0
 43
1.0
 43
0.0
 43
0.0
 43
0.0
 43
0.0
 43
1.0
 77
     0
 47
0.0208333333333333
 47
0.0
 47
0.0
 47
0.0
 47
0.0
 47
0.0208333333333333
 47
0.0
 47
0.0
 47
0.0
 47
0.0
 47
1.0
 47
0.0
 47
0.0
 47
0.0
 47
0.0
 47
1.0
171
     0
 49
0.0208333333333333
 49
0.0
 49
0.0
 49
0.0
 49
0.0
 49
0.0208333333333333
 49
0.0
 49
0.0
 49
0.0
 49
0.0
 49
1.0
 49
0.0
 49
0.0
 49
0.0
 49
0.0
 49
1.0
175
     0
142
0.0208333333333333
142
0.0
142
0.0
142
0.0
142
0.0
142
0.0208333333333333
142
0.0
142
0.0
142
0.0
142
0.0
142
1.0
142
0.0
142
0.0
142
0.0
142
0.0
142
1.0
179
     0
144
0.0208333333333333
144
0.0
144
0.0
144
0.0
144
0.0
144
0.0208333333333333
144
0.0
144
0.0
144
0.0
144
0.0
144
1.0
144
0.0
144
0.0
144
0.0
144
0.0
144
1.0
147
0.0208333333333333
147
0.0
147
0.0
147
0.0
147
0.0
147
0.0208333333333333
147
0.0
147
0.0
147
0.0
147
0.0
147
1.0
147
0.0
147
0.0
147
0.0
147
0.0
147
1.0
  0
MATERIAL
  5
A4E7
102
{ACAD_XDICTIONARY
360
A4E8
102
}
102
{ACAD_REACTORS
330
A4D6
102
}
330
A4D6
100
AcDbMaterial
  1
Global
 72
     0
 43
0.0208333333333333
 43
0.0
 43
0.0
 43
0.0
 43
0.0
 43
0.0208333333333333
 43
0.0
 43
0.0
 43
0.0
 43
0.0
 43
1.0
 43
0.0
 43
0.0
 43
0.0
 43
0.0
 43
1.0
 77
     0
 47
0.0208333333333333
 47
0.0
 47
0.0
 47
0.0
 47
0.0
 47
0.0208333333333333
 47
0.0
 47
0.0
 47
0.0
 47
0.0
 47
1.0
 47
0.0
 47
0.0
 47
0.0
 47
0.0
 47
1.0
171
     0
 49
0.0208333333333333
 49
0.0
 49
0.0
 49
0.0
 49
0.0
 49
0.0208333333333333
 49
0.0
 49
0.0
 49
0.0
 49
0.0
 49
1.0
 49
0.0
 49
0.0
 49
0.0
 49
0.0
 49
1.0
175
     0
142
0.0208333333333333
142
0.0
142
0.0
142
0.0
142
0.0
142
0.0208333333333333
142
0.0
142
0.0
142
0.0
142
0.0
142
1.0
142
0.0
142
0.0
142
0.0
142
0.0
142
1.0
179
     0
144
0.0208333333333333
144
0.0
144
0.0
144
0.0
144
0.0
144
0.0208333333333333
144
0.0
144
0.0
144
0.0
144
0.0
144
1.0
144
0.0
144
0.0
144
0.0
144
0.0
144
1.0
147
0.0208333333333333
147
0.0
147
0.0
147
0.0
147
0.0
147
0.0208333333333333
147
0.0
147
0.0
147
0.0
147
0.0
147
1.0
147
0.0
147
0.0
147
0.0
147
0.0
147
1.0
  0
MLEADERSTYLE
  5
A51E
102
{ACAD_REACTORS
330
A51D
102
}
330
A51D
100
AcDbMLeaderStyle
170
     2
171
     1
172
     0
 90
        2
 40
0.0
 41
0.0
173
     1
 91
-1056964608
340
9FA2
 92
       -2
290
     1
 42
0.09
291
     1
 43
0.36
  3
Standard
 44
0.18
300

342
9FA0
174
     1
178
     6
175
     1
176
     0
 93
-1056964608
 45
0.18
292
     0
297
     0
 46
0.18
 94
-1056964608
 47
1.0
 49
1.0
140
1.0
293
     1
141
0.0
294
     1
177
     0
142
1.0
295
     0
296
     0
143
0.125
1001
ACAD_MLEADERVER
1070
     2
  0
MLINESTYLE
  5
9FA6
102
{ACAD_REACTORS
330
9FA5
102
}
330
9FA5
100
AcDbMlineStyle
  2
STANDARD
 70
     0
  3

 62
   256
 51
90.0
 52
90.0
 71
     2
 49
0.5
 62
   256
  6
BYLAYER
 49
-0.5
 62
   256
  6
BYLAYER
  0
ACDBPLACEHOLDER
  5
A4D5
102
{ACAD_REACTORS
330
A4D4
102
}
330
A4D4
  0
SCALE
  5
A50C
102
{ACAD_REACTORS
330
A50B
102
}
330
A50B
100
AcDbScale
 70
     0
300
1:1
140
1.0
141
1.0
290
     1
  0
SCALE
  5
A50D
102
{ACAD_REACTORS
330
A50B
102
}
330
A50B
100
AcDbScale
 70
     0
300
1/128" = 1'-0"
140
0.0078125
141
12.0
290
     0
  0
SCALE
  5
A50E
102
{ACAD_REACTORS
330
A50B
102
}
330
A50B
100
AcDbScale
 70
     0
300
1/64" = 1'-0"
140
0.015625
141
12.0
290
     0
  0
SCALE
  5
A50F
102
{ACAD_REACTORS
330
A50B
102
}
330
A50B
100
AcDbScale
 70
     0
300
1/32" = 1'-0"
140
0.03125
141
12.0
290
     0
  0
SCALE
  5
A510
102
{ACAD_REACTORS
330
A50B
102
}
330
A50B
100
AcDbScale
 70
     0
300
1/16" = 1'-0"
140
0.0625
141
12.0
290
     0
  0
SCALE
  5
A511
102
{ACAD_REACTORS
330
A50B
102
}
330
A50B
100
AcDbScale
 70
     0
300
3/32" = 1'-0"
140
0.09375
141
12.0
290
     0
  0
SCALE
  5
A512
102
{ACAD_REACTORS
330
A50B
102
}
330
A50B
100
AcDbScale
 70
     0
300
1/8" = 1'-0"
140
0.125
141
12.0
290
     0
  0
SCALE
  5
A513
102
{ACAD_REACTORS
330
A50B
102
}
330
A50B
100
AcDbScale
 70
     0
300
3/16" = 1'-0"
140
0.1875
141
12.0
290
     0
  0
SCALE
  5
A514
102
{ACAD_REACTORS
330
A50B
102
}
330
A50B
100
AcDbScale
 70
     0
300
1/4" = 1'-0"
140
0.25
141
12.0
290
     0
  0
SCALE
  5
A515
102
{ACAD_REACTORS
330
A50B
102
}
330
A50B
100
AcDbScale
 70
     0
300
3/8" = 1'-0"
140
0.375
141
12.0
290
     0
  0
SCALE
  5
A516
102
{ACAD_REACTORS
330
A50B
102
}
330
A50B
100
AcDbScale
 70
     0
300
1/2" = 1'-0"
140
0.5
141
12.0
290
     0
  0
SCALE
  5
A517
102
{ACAD_REACTORS
330
A50B
102
}
330
A50B
100
AcDbScale
 70
     0
300
3/4" = 1'-0"
140
0.75
141
12.0
290
     0
  0
SCALE
  5
A518
102
{ACAD_REACTORS
330
A50B
102
}
330
A50B
100
AcDbScale
 70
     0
300
1" = 1'-0"
140
1.0
141
12.0
290
     0
  0
SCALE
  5
A519
102
{ACAD_REACTORS
330
A50B
102
}
330
A50B
100
AcDbScale
 70
     0
300
1-1/2" = 1'-0"
140
1.5
141
12.0
290
     0
  0
SCALE
  5
A51A
102
{ACAD_REACTORS
330
A50B
102
}
330
A50B
100
AcDbScale
 70
     0
300
3" = 1'-0"
140
3.0
141
12.0
290
     0
  0
SCALE
  5
A51B
102
{ACAD_REACTORS
330
A50B
102
}
330
A50B
100
AcDbScale
 70
     0
300
6" = 1'-0"
140
6.0
141
12.0
290
     0
  0
SCALE
  5
A51C
102
{ACAD_REACTORS
330
A50B
102
}
330
A50B
100
AcDbScale
 70
     0
300
1'-0" = 1'-0"
140
12.0
141
12.0
290
     0
  0
ACDBSECTIONVIEWSTYLE
  5
A520
102
{ACAD_XDICTIONARY
360
A57B
102
}
102
{ACAD_REACTORS
330
A51F
102
}
330
A51F
100
AcDbModelDocViewStyle
 70
     0
  3
Imperial24
290
     0
100
AcDbSectionViewStyle
 70
     0
 71
     0
 90
       78
 71
     1
340
9FA0
 40
0.24
340
0
340
0
 40
0.24
300
I, O, Q, S, X, Z
 40
0.48
 90
        3
 40
0.18
 90
        1
 71
     2
340
9FA4
 90
       25
340
9FA4
 90
       50
 40
0.24
 40
0.0
 40
0.24
 71
     3
340
9FA0
 40
0.24
 90
        1
 40
0.75
 90
        1
300
%<\AcVar ViewType \f "%tc1">% %<\AcVar ViewSectionStartId>%-%<\AcVar ViewSectionEndId>%\PSCALE %<\AcVar ViewScale \f "%sn">%
 71
     4
300
ANSI31
 40
1.0
 90
        0
290
     0
290
     0
 90
        6
 40
0.0
 40
1.570796326794896
 40
0.2617993877991494
 40
1.308996938995747
 40
-0.2617993877991494
 40
1.832595714594046
  0
TABLESTYLE
  5
A50A
102
{ACAD_XDICTIONARY
360
A542
102
}
102
{ACAD_REACTORS
330
A509
102
}
330
A509
100
AcDbTableStyle
  3
Standard
 70
     0
 71
     0
 40
0.06
 41
0.06
280
     0
281
     0
  7
STANDARD
140
0.18
170
     2
 62
     0
 63
     7
283
     0
274
    -2
284
     1
 64
     0
275
    -2
285
     1
 65
     0
276
    -2
286
     1
 66
     0
277
    -2
287
     1
 67
     0
278
    -2
288
     1
 68
     0
279
    -2
289
     1
 69
     0
  7
STANDARD
140
0.25
170
     5
 62
     0
 63
     7
283
     0
274
    -2
284
     1
 64
     0
275
    -2
285
     1
 65
     0
276
    -2
286
     1
 66
     0
277
    -2
287
     1
 67
     0
278
    -2
288
     1
 68
     0
279
    -2
289
     1
 69
     0
  7
STANDARD
140
0.18
170
     5
 62
     0
 63
     7
283
     0
274
    -2
284
     1
 64
     0
275
    -2
285
     1
 65
     0
276
    -2
286
     1
 66
     0
277
    -2
287
     1
 67
     0
278
    -2
288
     1
 68
     0
279
    -2
289
     1
 69
     0
  0
VISUALSTYLE
  5
A4F5
102
{ACAD_XDICTIONARY
360
A553
102
}
102
{ACAD_REACTORS
330
A4EF
102
}
330
A4EF
100
AcDbVisualStyle
  2
2dWireframe
 70
     4
 71
     0
 72
     2
 73
     0
 90
        0
 40
-0.6
 41
-30.0
 62
     5
 63
     7
 74
     1
 91
        4
 64
     7
 65
   257
 75
     1
175
     1
 42
1.0
 92
        0
 66
   257
 43
1.0
 76
     1
 77
     6
 78
     2
 67
     7
 79
     5
170
     0
171
     0
290
     0
174
     0
 93
        1
 44
0.0
173
     0
291
     0
 45
0.0
1001
ACAD
1000
AcDbSavedByObjectVersion
1070
     0
  0
VISUALSTYLE
  5
A4F4
102
{ACAD_XDICTIONARY
360
A551
102
}
102
{ACAD_REACTORS
330
A4EF
102
}
330
A4EF
100
AcDbVisualStyle
  2
Basic
 70
     7
 71
     1
 72
     0
 73
     1
 90
        0
 40
-0.6
 41
-30.0
 62
     5
 63
     7
 74
     0
 91
        4
 64
     7
 65
   257
 75
     1
175
     1
 42
1.0
 92
        8
 66
     7
 43
1.0
 76
     1
 77
     6
 78
     2
 67
     7
 79
     5
170
     0
171
     0
290
     0
174
     0
 93
        1
 44
0.0
173
     0
291
     1
 45
0.0
1001
ACAD
1000
AcDbSavedByObjectVersion
1070
     0
  0
VISUALSTYLE
  5
A4FB
102
{ACAD_XDICTIONARY
360
A55F
102
}
102
{ACAD_REACTORS
330
A4EF
102
}
330
A4EF
100
AcDbVisualStyle
  2
Brighten
 70
    12
 71
     2
 72
     2
 73
     0
 90
        0
 40
-0.6
 41
-30.0
 62
     5
 63
     7
 74
     1
 91
        4
 64
     7
 65
   257
 75
     1
175
     1
 42
1.0
 92
        8
 66
     7
 43
1.0
 76
     1
 77
     6
 78
     2
 67
     7
 79
     5
170
     0
171
     0
290
     0
174
     0
 93
        1
 44
50.0
173
     0
291
     1
 45
0.0
1001
ACAD
1000
AcDbSavedByObjectVersion
1070
     0
  0
VISUALSTYLE
  5
A4FF
102
{ACAD_XDICTIONARY
360
A567
102
}
102
{ACAD_REACTORS
330
A4EF
102
}
330
A4EF
100
AcDbVisualStyle
  2
ColorChange
 70
    16
 71
     2
 72
     2
 73
     3
 90
        0
 40
-0.6
 41
-30.0
 62
     5
 63
     8
 74
     1
 91
        4
 64
     7
 65
   257
 75
     1
175
     1
 42
1.0
 92
        8
 66
     8
 43
1.0
 76
     1
 77
     6
 78
     2
 67
     7
 79
     5
170
     0
171
     0
290
     0
174
     0
 93
        1
 44
0.0
173
     0
291
     1
 45
0.0
1001
ACAD
1000
AcDbSavedByObjectVersion
1070
     0
  0
VISUALSTYLE
  5
A4F8
102
{ACAD_XDICTIONARY
360
A559
102
}
102
{ACAD_REACTORS
330
A4EF
102
}
330
A4EF
100
AcDbVisualStyle
  2
Conceptual
 70
     9
 71
     3
 72
     2
 73
     0
 90
        0
 40
-0.6
 41
-30.0
 62
     5
 63
     7
 74
     2
 91
        2
 64
     7
 65
   257
 75
     1
175
     1
 42
179.0
 92
        8
 66
     7
 43
1.0
 76
     1
 77
     6
 78
     2
 67
     7
 79
     3
170
     0
171
     0
290
     0
174
     0
 93
        1
 44
0.0
173
     0
291
     0
 45
0.0
1001
ACAD
1000
AcDbSavedByObjectVersion
1070
     0
  0
VISUALSTYLE
  5
A4FA
102
{ACAD_XDICTIONARY
360
A55D
102
}
102
{ACAD_REACTORS
330
A4EF
102
}
330
A4EF
100
AcDbVisualStyle
  2
Dim
 70
    11
 71
     2
 72
     2
 73
     0
 90
        0
 40
-0.6
 41
-30.0
 62
     5
 63
     7
 74
     1
 91
        4
 64
     7
 65
   257
 75
     1
175
     1
 42
1.0
 92
        8
 66
     7
 43
1.0
 76
     1
 77
     6
 78
     2
 67
     7
 79
     5
170
     0
171
     0
290
     0
174
     0
 93
        1
 44
-50.0
173
     0
291
     1
 45
0.0
1001
ACAD
1000
AcDbSavedByObjectVersion
1070
     0
  0
VISUALSTYLE
  5
A507
102
{ACAD_XDICTIONARY
360
A577
102
}
102
{ACAD_REACTORS
330
A4EF
102
}
330
A4EF
100
AcDbVisualStyle
  2
EdgeColorOff
 70
    22
 71
     2
 72
     2
 73
     0
 90
        0
 40
-0.6
 41
-30.0
 62
     5
 63
     7
 74
     1
 91
        4
 64
     7
 65
   257
 75
     1
175
     1
 42
1.0
 92
        8
 66
     7
 43
1.0
 76
     1
 77
     6
 78
     2
 67
     7
 79
     5
170
     0
171
     0
290
     0
174
     0
 93
        1
 44
0.0
173
     0
291
     1
 45
0.0
1001
ACAD
1000
AcDbSavedByObjectVersion
1070
     0
  0
VISUALSTYLE
  5
A4FE
102
{ACAD_XDICTIONARY
360
A565
102
}
102
{ACAD_REACTORS
330
A4EF
102
}
330
A4EF
100
AcDbVisualStyle
  2
Facepattern
 70
    15
 71
     2
 72
     2
 73
     0
 90
        0
 40
-0.6
 41
-30.0
 62
     5
 63
     7
 74
     1
 91
        4
 64
     7
 65
   257
 75
     1
175
     1
 42
1.0
 92
        8
 66
     7
 43
1.0
 76
     1
 77
     6
 78
     2
 67
     7
 79
     5
170
     0
171
     0
290
     0
174
     0
 93
        1
 44
0.0
173
     0
291
     1
 45
0.0
1001
ACAD
1000
AcDbSavedByObjectVersion
1070
     0
  0
VISUALSTYLE
  5
A4F0
102
{ACAD_XDICTIONARY
360
A549
102
}
102
{ACAD_REACTORS
330
A4EF
102
}
330
A4EF
100
AcDbVisualStyle
  2
Flat
 70
     0
 71
     2
 72
     1
 73
     1
 90
        2
 40
-0.6
 41
30.0
 62
     5
 63
     7
 74
     0
 91
        0
 64
     7
 65
   257
 75
     1
175
     1
 42
1.0
 92
        8
 66
     7
 43
1.0
 76
     1
 77
     6
 78
     2
 67
     7
 79
     5
170
     0
171
     0
290
     0
174
     0
 93
       13
 44
0.0
173
     0
291
     1
 45
0.0
1001
ACAD
1000
AcDbSavedByObjectVersion
1070
     0
  0
VISUALSTYLE
  5
A4F1
102
{ACAD_XDICTIONARY
360
A54B
102
}
102
{ACAD_REACTORS
330
A4EF
102
}
330
A4EF
100
AcDbVisualStyle
  2
FlatWithEdges
 70
     1
 71
     2
 72
     1
 73
     1
 90
        2
 40
-0.6
 41
30.0
 62
     5
 63
     7
 74
     1
 91
        0
 64
     7
 65
   257
 75
     1
175
     1
 42
1.0
 92
        0
 66
   257
 43
1.0
 76
     1
 77
     6
 78
     2
 67
     7
 79
     5
170
     0
171
     0
290
     0
174
     0
 93
       13
 44
0.0
173
     0
291
     1
 45
0.0
1001
ACAD
1000
AcDbSavedByObjectVersion
1070
     0
  0
VISUALSTYLE
  5
A4F2
102
{ACAD_XDICTIONARY
360
A54D
102
}
102
{ACAD_REACTORS
330
A4EF
102
}
330
A4EF
100
AcDbVisualStyle
  2
Gouraud
 70
     2
 71
     2
 72
     2
 73
     1
 90
        2
 40
-0.6
 41
30.0
 62
     5
 63
     7
 74
     0
 91
        0
 64
     7
 65
   257
 75
     1
175
     1
 42
1.0
 92
        0
 66
     7
 43
1.0
 76
     1
 77
     6
 78
     2
 67
     7
 79
     5
170
     0
171
     0
290
     0
174
     0
 93
       13
 44
0.0
173
     0
291
     1
 45
0.0
1001
ACAD
1000
AcDbSavedByObjectVersion
1070
     0
  0
VISUALSTYLE
  5
A4F3
102
{ACAD_XDICTIONARY
360
A54F
102
}
102
{ACAD_REACTORS
330
A4EF
102
}
330
A4EF
100
AcDbVisualStyle
  2
GouraudWithEdges
 70
     3
 71
     2
 72
     2
 73
     1
 90
        2
 40
-0.6
 41
30.0
 62
     5
 63
     7
 74
     1
 91
        0
 64
     7
 65
   257
 75
     1
175
     1
 42
1.0
 92
        0
 66
   257
 43
1.0
 76
     1
 77
     6
 78
     2
 67
     7
 79
     5
170
     0
171
     0
290
     0
174
     0
 93
       13
 44
0.0
173
     0
291
     1
 45
0.0
1001
ACAD
1000
AcDbSavedByObjectVersion
1070
     0
  0
VISUALSTYLE
  5
A4F7
102
{ACAD_XDICTIONARY
360
A557
102
}
102
{ACAD_REACTORS
330
A4EF
102
}
330
A4EF
100
AcDbVisualStyle
  2
Hidden
 70
     6
 71
     1
 72
     2
 73
     2
 90
        0
 40
-0.6
 41
-30.0
 62
     5
 63
     7
 74
     2
 91
        2
 64
     7
 65
   257
 75
     2
175
     1
 42
40.0
 92
        0
 66
   257
 43
1.0
 76
     1
 77
     6
 78
     2
 67
     7
 79
     3
170
     0
171
     0
290
     0
174
     0
 93
        1
 44
0.0
173
     0
291
     0
 45
0.0
1001
ACAD
1000
AcDbSavedByObjectVersion
1070
     0
  0
VISUALSTYLE
  5
A505
102
{ACAD_XDICTIONARY
360
A573
102
}
102
{ACAD_REACTORS
330
A4EF
102
}
330
A4EF
100
AcDbVisualStyle
  2
JitterOff
 70
    20
 71
     2
 72
     2
 73
     0
 90
        0
 40
-0.6
 41
-30.0
 62
     5
 63
     7
 74
     1
 91
        4
 64
     7
 65
   257
 75
     1
175
     1
 42
1.0
 92
       10
 66
     7
 43
1.0
 76
     1
 77
     6
 78
     2
 67
     7
 79
     5
170
     0
171
     0
290
     0
174
     0
 93
        1
 44
0.0
173
     0
291
     1
 45
0.0
1001
ACAD
1000
AcDbSavedByObjectVersion
1070
     0
  0
VISUALSTYLE
  5
A4FD
102
{ACAD_XDICTIONARY
360
A563
102
}
102
{ACAD_REACTORS
330
A4EF
102
}
330
A4EF
100
AcDbVisualStyle
  2
Linepattern
 70
    14
 71
     2
 72
     2
 73
     0
 90
        0
 40
-0.6
 41
-30.0
 62
     5
 63
     7
 74
     1
 91
        4
 64
     7
 65
   257
 75
     7
175
     7
 42
1.0
 92
        8
 66
     7
 43
1.0
 76
     1
 77
     6
 78
     2
 67
     7
 79
     5
170
     0
171
     0
290
     0
174
     0
 93
        1
 44
0.0
173
     0
291
     1
 45
0.0
1001
ACAD
1000
AcDbSavedByObjectVersion
1070
     0
  0
VISUALSTYLE
  5
A506
102
{ACAD_XDICTIONARY
360
A575
102
}
102
{ACAD_REACTORS
330
A4EF
102
}
330
A4EF
100
AcDbVisualStyle
  2
OverhangOff
 70
    21
 71
     2
 72
     2
 73
     0
 90
        0
 40
-0.6
 41
-30.0
 62
     5
 63
     7
 74
     1
 91
        4
 64
     7
 65
   257
 75
     1
175
     1
 42
1.0
 92
        9
 66
     7
 43
1.0
 76
     1
 77
     6
 78
     2
 67
     7
 79
     5
170
     0
171
     0
290
     0
174
     0
 93
        1
 44
0.0
173
     0
291
     1
 45
0.0
1001
ACAD
1000
AcDbSavedByObjectVersion
1070
     0
  0
VISUALSTYLE
  5
A4F9
102
{ACAD_XDICTIONARY
360
A55B
102
}
102
{ACAD_REACTORS
330
A4EF
102
}
330
A4EF
100
AcDbVisualStyle
  2
Realistic
 70
     8
 71
     2
 72
     3
 73
     0
 90
        2
 40
-0.6
 41
30.0
 62
     5
 63
     7
 74
     0
 91
        0
 64
     7
 65
   257
 75
     1
175
     1
 42
1.0
 92
        8
 66
   257
 43
1.0
 76
     1
 77
     6
 78
     2
 67
     7
 79
     3
170
     0
171
     0
290
     0
174
     0
 93
       13
 44
0.0
173
     0
291
     0
 45
0.0
1001
ACAD
1000
AcDbSavedByObjectVersion
1070
     0
  0
VISUALSTYLE
  5
A504
102
{ACAD_XDICTIONARY
360
A571
102
}
102
{ACAD_REACTORS
330
A4EF
102
}
330
A4EF
100
AcDbVisualStyle
  2
Shaded
 70
    27
 71
     2
 72
     2
 73
     1
 90
        2
 40
-0.6
 41
30.0
 62
     5
 63
     7
 74
     0
 91
        4
 64
     7
 65
   257
 75
     1
175
     1
 42
1.0
 92
        8
 66
   257
 43
1.0
 76
     1
 77
     6
 78
     2
 67
     8
 79
     3
170
     0
171
     0
290
     0
174
     0
 93
        5
 44
0.0
173
     0
291
     0
 45
0.0
1001
ACAD
1000
AcDbSavedByObjectVersion
1070
     0
  0
VISUALSTYLE
  5
A503
102
{ACAD_XDICTIONARY
360
A56F
102
}
102
{ACAD_REACTORS
330
A4EF
102
}
330
A4EF
100
AcDbVisualStyle
  2
Shaded with edges
 70
    26
 71
     2
 72
     2
 73
     1
 90
        2
 40
-0.6
 41
30.0
 62
     5
 63
     7
 74
     1
 91
       10
 64
     7
 65
   257
 75
     2
175
     1
 42
1.0
 92
        8
 66
   257
 43
1.0
 76
     1
 77
     6
 78
     2
 67
     7
 79
     3
170
     0
171
     0
290
     0
174
     0
 93
        5
 44
0.0
173
     0
291
     0
 45
0.0
1001
ACAD
1000
AcDbSavedByObjectVersion
1070
     0
  0
VISUALSTYLE
  5
A500
102
{ACAD_XDICTIONARY
360
A569
102
}
102
{ACAD_REACTORS
330
A4EF
102
}
330
A4EF
100
AcDbVisualStyle
  2
Shades of Gray
 70
    23
 71
     2
 72
     2
 73
     3
 90
        0
 40
-0.6
 41
-30.0
 62
     5
 63
     7
 74
     2
 91
        2
 64
     7
 65
     7
 75
     1
175
     1
 42
40.0
 92
        8
 66
     7
 43
1.0
 76
     1
 77
     6
 78
     2
 67
     7
 79
     3
170
     0
171
     0
290
     0
174
     0
 93
        1
 44
0.0
173
     0
291
     0
 45
0.0
1001
ACAD
1000
AcDbSavedByObjectVersion
1070
     0
  0
VISUALSTYLE
  5
A501
102
{ACAD_XDICTIONARY
360
A56B
102
}
102
{ACAD_REACTORS
330
A4EF
102
}
330
A4EF
100
AcDbVisualStyle
  2
Sketchy
 70
    24
 71
     1
 72
     2
 73
     2
 90
        0
 40
-0.6
 41
-30.0
 62
     5
 63
     7
 74
     2
 91
        2
 64
     7
 65
     7
 75
     1
175
     1
 42
40.0
 92
       11
 66
     7
 43
1.0
 76
     1
 77
     6
 78
     2
 67
     7
 79
     6
170
     0
171
     0
290
     0
174
     0
 93
        1
 44
0.0
173
     0
291
     0
 45
0.0
1001
ACAD
1000
AcDbSavedByObjectVersion
1070
     0
  0
VISUALSTYLE
  5
A4FC
102
{ACAD_XDICTIONARY
360
A561
102
}
102
{ACAD_REACTORS
330
A4EF
102
}
330
A4EF
100
AcDbVisualStyle
  2
Thicken
 70
    13
 71
     2
 72
     2
 73
     0
 90
        0
 40
-0.6
 41
-30.0
 62
     5
 63
     7
 74
     1
 91
        4
 64
     7
 65
   257
 75
     1
175
     1
 42
1.0
 92
       12
 66
     7
 43
1.0
 76
     1
 77
     6
 78
     2
 67
     7
 79
     5
170
     0
171
     0
290
     0
174
     0
 93
        1
 44
0.0
173
     0
291
     1
 45
0.0
1001
ACAD
1000
AcDbSavedByObjectVersion
1070
     0
  0
VISUALSTYLE
  5
A4F6
102
{ACAD_XDICTIONARY
360
A555
102
}
102
{ACAD_REACTORS
330
A4EF
102
}
330
A4EF
100
AcDbVisualStyle
  2
Wireframe
 70
     5
 71
     0
 72
     2
 73
     0
 90
        0
 40
-0.6
 41
-30.0
 62
     5
 63
     7
 74
     1
 91
        4
 64
     7
 65
   257
 75
     1
175
     1
 42
1.0
 92
        0
 66
   257
 43
1.0
 76
     1
 77
     6
 78
     2
 67
     7
 79
     3
170
     0
171
     0
290
     0
174
     0
 93
        1
 44
0.0
173
     0
291
     0
 45
0.0
1001
ACAD
1000
AcDbSavedByObjectVersion
1070
     0
  0
VISUALSTYLE
  5
A502
102
{ACAD_XDICTIONARY
360
A56D
102
}
102
{ACAD_REACTORS
330
A4EF
102
}
330
A4EF
100
AcDbVisualStyle
  2
X-Ray
 70
    25
 71
     2
 72
     2
 73
     1
 90
        1
 40
0.5
 41
-30.0
 62
     5
 63
     7
 74
     1
 91
        0
 64
     7
 65
   257
 75
     1
175
     1
 42
1.0
 92
        8
 66
     7
 43
1.0
 76
     1
 77
     6
 78
     2
 67
     7
 79
     3
170
     0
171
     0
290
     0
174
     0
 93
       13
 44
0.0
173
     0
291
     0
 45
0.0
1001
ACAD
1000
AcDbSavedByObjectVersion
1070
     0
  0
DICTIONARYVAR
  5
A53C
102
{ACAD_REACTORS
330
A537
102
}
330
A537
100
DictionaryVariables
280
     0
  1
1:1
  0
DICTIONARYVAR
  5
A539
102
{ACAD_REACTORS
330
A537
102
}
330
A537
100
DictionaryVariables
280
     0
  1
STANDARD
  0
DICTIONARYVAR
  5
A538
102
{ACAD_REACTORS
330
A537
102
}
330
A537
100
DictionaryVariables
280
     0
  1
STANDARD
  0
DICTIONARYVAR
  5
A53A
102
{ACAD_REACTORS
330
A537
102
}
330
A537
100
DictionaryVariables
280
     0
  1
Imperial24
  0
DICTIONARYVAR
  5
A53B
102
{ACAD_REACTORS
330
A537
102
}
330
A537
100
DictionaryVariables
280
     0
  1
Imperial24
  0
DICTIONARYVAR
  5
A53F
102
{ACAD_REACTORS
330
A537
102
}
330
A537
100
DictionaryVariables
280
     0
  1
1
  0
DICTIONARYVAR
  5
A53E
102
{ACAD_REACTORS
330
A537
102
}
330
A537
100
DictionaryVariables
280
     0
  1
0
  0
DICTIONARYVAR
  5
A53D
102
{ACAD_REACTORS
330
A537
102
}
330
A537
100
DictionaryVariables
280
     0
  1
127
  0
DICTIONARYVAR
  5
A540
102
{ACAD_REACTORS
330
A537
102
}
330
A537
100
DictionaryVariables
280
     0
  1
2
  0
DICTIONARY
  5
A57D
330
A522
100
AcDbDictionary
280
     1
281
     1
  3
ACAD_XREC_ROUNDTRIP
360
A57E
  0
DICTIONARY
  5
A57F
330
A523
100
AcDbDictionary
280
     1
281
     1
  3
ACAD_XREC_ROUNDTRIP
360
A580
  0
DICTIONARY
  5
A581
330
A524
100
AcDbDictionary
280
     1
281
     1
  3
ACAD_XREC_ROUNDTRIP
360
A582
  0
DICTIONARY
  5
A4E0
330
A4DF
100
AcDbDictionary
280
     1
281
     1
  3
ACAD_XREC_ROUNDTRIP
360
A547
  3
BUMPTILE
360
A4E2
  3
DIFFUSETILE
360
A4E1
  3
OPACITYTILE
360
A4E5
  3
REFLECTIONTILE
360
A4E4
  3
REFRACTIONTILE
360
A4E6
  3
SPECULARTILE
360
A4E3
  0
DICTIONARY
  5
A4D8
330
A4D7
100
AcDbDictionary
280
     1
281
     1
  3
ACAD_XREC_ROUNDTRIP
360
A546
  3
BUMPTILE
360
A4DA
  3
DIFFUSETILE
360
A4D9
  3
OPACITYTILE
360
A4DD
  3
REFLECTIONTILE
360
A4DC
  3
REFRACTIONTILE
360
A4DE
  3
SPECULARTILE
360
A4DB
  0
DICTIONARY
  5
A4E8
330
A4E7
100
AcDbDictionary
280
     1
281
     1
  3
ACAD_XREC_ROUNDTRIP
360
A548
  3
BUMPTILE
360
A4EA
  3
DIFFUSETILE
360
A4E9
  3
OPACITYTILE
360
A4ED
  3
REFLECTIONTILE
360
A4EC
  3
REFRACTIONTILE
360
A4EE
  3
SPECULARTILE
360
A4EB
  0
DICTIONARY
  5
A57B
330
A520
100
AcDbDictionary
280
     1
281
     1
  3
ACAD_XREC_ROUNDTRIP
360
A57C
  0
DICTIONARY
  5
A542
330
A50A
100
AcDbDictionary
280
     1
281
     1
  3
ACAD_ROUNDTRIP_2008_TABLESTYLE_CELLSTYLEMAP
360
A543
  3
ACAD_XREC_ROUNDTRIP
360
A579
  0
DICTIONARY
  5
A553
330
A4F5
100
AcDbDictionary
280
     1
281
     1
  3
ACAD_XREC_ROUNDTRIP
360
A554
  0
DICTIONARY
  5
A551
330
A4F4
100
AcDbDictionary
280
     1
281
     1
  3
ACAD_XREC_ROUNDTRIP
360
A552
  0
DICTIONARY
  5
A55F
330
A4FB
100
AcDbDictionary
280
     1
281
     1
  3
ACAD_XREC_ROUNDTRIP
360
A560
  0
DICTIONARY
  5
A567
330
A4FF
100
AcDbDictionary
280
     1
281
     1
  3
ACAD_XREC_ROUNDTRIP
360
A568
  0
DICTIONARY
  5
A559
330
A4F8
100
AcDbDictionary
280
     1
281
     1
  3
ACAD_XREC_ROUNDTRIP
360
A55A
  0
DICTIONARY
  5
A55D
330
A4FA
100
AcDbDictionary
280
     1
281
     1
  3
ACAD_XREC_ROUNDTRIP
360
A55E
  0
DICTIONARY
  5
A577
330
A507
100
AcDbDictionary
280
     1
281
     1
  3
ACAD_XREC_ROUNDTRIP
360
A578
  0
DICTIONARY
  5
A565
330
A4FE
100
AcDbDictionary
280
     1
281
     1
  3
ACAD_XREC_ROUNDTRIP
360
A566
  0
DICTIONARY
  5
A549
330
A4F0
100
AcDbDictionary
280
     1
281
     1
  3
ACAD_XREC_ROUNDTRIP
360
A54A
  0
DICTIONARY
  5
A54B
330
A4F1
100
AcDbDictionary
280
     1
281
     1
  3
ACAD_XREC_ROUNDTRIP
360
A54C
  0
DICTIONARY
  5
A54D
330
A4F2
100
AcDbDictionary
280
     1
281
     1
  3
ACAD_XREC_ROUNDTRIP
360
A54E
  0
DICTIONARY
  5
A54F
330
A4F3
100
AcDbDictionary
280
     1
281
     1
  3
ACAD_XREC_ROUNDTRIP
360
A550
  0
DICTIONARY
  5
A557
330
A4F7
100
AcDbDictionary
280
     1
281
     1
  3
ACAD_XREC_ROUNDTRIP
360
A558
  0
DICTIONARY
  5
A573
330
A505
100
AcDbDictionary
280
     1
281
     1
  3
ACAD_XREC_ROUNDTRIP
360
A574
  0
DICTIONARY
  5
A563
330
A4FD
100
AcDbDictionary
280
     1
281
     1
  3
ACAD_XREC_ROUNDTRIP
360
A564
  0
DICTIONARY
  5
A575
330
A506
100
AcDbDictionary
280
     1
281
     1
  3
ACAD_XREC_ROUNDTRIP
360
A576
  0
DICTIONARY
  5
A55B
330
A4F9
100
AcDbDictionary
280
     1
281
     1
  3
ACAD_XREC_ROUNDTRIP
360
A55C
  0
DICTIONARY
  5
A571
330
A504
100
AcDbDictionary
280
     1
281
     1
  3
ACAD_XREC_ROUNDTRIP
360
A572
  0
DICTIONARY
  5
A56F
330
A503
100
AcDbDictionary
280
     1
281
     1
  3
ACAD_XREC_ROUNDTRIP
360
A570
  0
DICTIONARY
  5
A569
330
A500
100
AcDbDictionary
280
     1
281
     1
  3
ACAD_XREC_ROUNDTRIP
360
A56A
  0
DICTIONARY
  5
A56B
330
A501
100
AcDbDictionary
280
     1
281
     1
  3
ACAD_XREC_ROUNDTRIP
360
A56C
  0
DICTIONARY
  5
A561
330
A4FC
100
AcDbDictionary
280
     1
281
     1
  3
ACAD_XREC_ROUNDTRIP
360
A562
  0
DICTIONARY
  5
A555
330
A4F6
100
AcDbDictionary
280
     1
281
     1
  3
ACAD_XREC_ROUNDTRIP
360
A556
  0
DICTIONARY
  5
A56D
330
A502
100
AcDbDictionary
280
     1
281
     1
  3
ACAD_XREC_ROUNDTRIP
360
A56E
  0
XRECORD
  5
A57E
102
{ACAD_REACTORS
330
A57D
102
}
330
A57D
100
AcDbXrecord
280
     1
102
DISPLAYNAME
  1
Imperial24
102
FLAGS
 90
        0
  0
XRECORD
  5
A580
102
{ACAD_REACTORS
330
A57F
102
}
330
A57F
100
AcDbXrecord
280
     1
102
SHADEPLOT
 70
     0
102
SHADEPLOTRESLEVEL
 70
     2
102
SHADEPLOTCUSTOMDPI
 70
   300
  0
XRECORD
  5
A582
102
{ACAD_REACTORS
330
A581
102
}
330
A581
100
AcDbXrecord
280
     1
102
SHADEPLOT
 70
     0
102
SHADEPLOTRESLEVEL
 70
     2
102
SHADEPLOTCUSTOMDPI
 70
   300
  0
XRECORD
  5
A547
102
{ACAD_REACTORS
330
A4E0
102
}
330
A4E0
100
AcDbXrecord
280
     1
102
MATERIAL
148
0.0
149
0.0
149
0.0
 93
        0
 94
      127
282
     0
 72
     0
 77
     0
171
     0
175
     0
179
     0
273
     0
  0
XRECORD
  5
A4E2
102
{ACAD_REACTORS
330
A4E0
102
}
330
A4E0
100
AcDbXrecord
280
     1
270
     1
271
     1
  0
XRECORD
  5
A4E1
102
{ACAD_REACTORS
330
A4E0
102
}
330
A4E0
100
AcDbXrecord
280
     1
270
     1
271
     1
  0
XRECORD
  5
A4E5
102
{ACAD_REACTORS
330
A4E0
102
}
330
A4E0
100
AcDbXrecord
280
     1
270
     1
271
     1
  0
XRECORD
  5
A4E4
102
{ACAD_REACTORS
330
A4E0
102
}
330
A4E0
100
AcDbXrecord
280
     1
270
     1
271
     1
  0
XRECORD
  5
A4E6
102
{ACAD_REACTORS
330
A4E0
102
}
330
A4E0
100
AcDbXrecord
280
     1
270
     1
271
     1
  0
XRECORD
  5
A4E3
102
{ACAD_REACTORS
330
A4E0
102
}
330
A4E0
100
AcDbXrecord
280
     1
270
     1
271
     1
  0
XRECORD
  5
A546
102
{ACAD_REACTORS
330
A4D8
102
}
330
A4D8
100
AcDbXrecord
280
     1
102
MATERIAL
148
0.0
149
0.0
149
0.0
 93
        0
 94
      127
282
     0
 72
     0
 77
     0
171
     0
175
     0
179
     0
273
     0
  0
XRECORD
  5
A4DA
102
{ACAD_REACTORS
330
A4D8
102
}
330
A4D8
100
AcDbXrecord
280
     1
270
     1
271
     1
  0
XRECORD
  5
A4D9
102
{ACAD_REACTORS
330
A4D8
102
}
330
A4D8
100
AcDbXrecord
280
     1
270
     1
271
     1
  0
XRECORD
  5
A4DD
102
{ACAD_REACTORS
330
A4D8
102
}
330
A4D8
100
AcDbXrecord
280
     1
270
     1
271
     1
  0
XRECORD
  5
A4DC
102
{ACAD_REACTORS
330
A4D8
102
}
330
A4D8
100
AcDbXrecord
280
     1
270
     1
271
     1
  0
XRECORD
  5
A4DE
102
{ACAD_REACTORS
330
A4D8
102
}
330
A4D8
100
AcDbXrecord
280
     1
270
     1
271
     1
  0
XRECORD
  5
A4DB
102
{ACAD_REACTORS
330
A4D8
102
}
330
A4D8
100
AcDbXrecord
280
     1
270
     1
271
     1
  0
XRECORD
  5
A548
102
{ACAD_REACTORS
330
A4E8
102
}
330
A4E8
100
AcDbXrecord
280
     1
102
MATERIAL
148
0.0
149
0.0
149
0.0
 93
        0
 94
      127
282
     0
 72
     0
 77
     0
171
     0
175
     0
179
     0
273
     0
  0
XRECORD
  5
A4EA
102
{ACAD_REACTORS
330
A4E8
102
}
330
A4E8
100
AcDbXrecord
280
     1
270
     1
271
     1
  0
XRECORD
  5
A4E9
102
{ACAD_REACTORS
330
A4E8
102
}
330
A4E8
100
AcDbXrecord
280
     1
270
     1
271
     1
  0
XRECORD
  5
A4ED
102
{ACAD_REACTORS
330
A4E8
102
}
330
A4E8
100
AcDbXrecord
280
     1
270
     1
271
     1
  0
XRECORD
  5
A4EC
102
{ACAD_REACTORS
330
A4E8
102
}
330
A4E8
100
AcDbXrecord
280
     1
270
     1
271
     1
  0
XRECORD
  5
A4EE
102
{ACAD_REACTORS
330
A4E8
102
}
330
A4E8
100
AcDbXrecord
280
     1
270
     1
271
     1
  0
XRECORD
  5
A4EB
102
{ACAD_REACTORS
330
A4E8
102
}
330
A4E8
100
AcDbXrecord
280
     1
270
     1
271
     1
  0
XRECORD
  5
A57C
102
{ACAD_REACTORS
330
A57B
102
}
330
A57B
100
AcDbXrecord
280
     1
102
DISPLAYNAME
  1
Imperial24
102
FLAGS
 90
        0
  0
CELLSTYLEMAP
  5
A543
102
{ACAD_REACTORS
330
A542
102
}
330
A542
100
AcDbCellStyleMap
 90
        3
300
CELLSTYLE
  1
TABLEFORMAT_BEGIN
 90
        5
170
     1
 91
        0
 92
    32768
 62
   257
 93
        1
300
CONTENTFORMAT
  1
CONTENTFORMAT_BEGIN
 90
        0
 91
        0
 92
      512
 93
        0
300

 40
0.0
140
1.0
 94
        5
 62
     0
340
9FA0
144
0.25
309
CONTENTFORMAT_END
171
     0
 94
        0
309
TABLEFORMAT_END
  1
CELLSTYLE_BEGIN
 90
        1
 91
        1
300
_TITLE
309
CELLSTYLE_END
300
CELLSTYLE
  1
TABLEFORMAT_BEGIN
 90
        5
170
     1
 91
        0
 92
        0
 62
   257
 93
        1
300
CONTENTFORMAT
  1
CONTENTFORMAT_BEGIN
 90
        0
 91
        0
 92
      512
 93
        0
300

 40
0.0
140
1.0
 94
        5
 62
     0
340
9FA0
144
0.18
309
CONTENTFORMAT_END
171
     0
 94
        0
309
TABLEFORMAT_END
  1
CELLSTYLE_BEGIN
 90
        2
 91
        1
300
_HEADER
309
CELLSTYLE_END
300
CELLSTYLE
  1
TABLEFORMAT_BEGIN
 90
        5
170
     1
 91
        0
 92
        0
 62
   257
 93
        1
300
CONTENTFORMAT
  1
CONTENTFORMAT_BEGIN
 90
        0
 91
        0
 92
      512
 93
        0
300

 40
0.0
140
1.0
 94
        2
 62
     0
340
9FA0
144
0.18
309
CONTENTFORMAT_END
171
     0
 94
        0
309
TABLEFORMAT_END
  1
CELLSTYLE_BEGIN
 90
        3
 91
        2
300
_DATA
309
CELLSTYLE_END
  0
XRECORD
  5
A579
102
{ACAD_REACTORS
330
A542
102
}
330
A542
100
AcDbXrecord
280
     1
102
ACAD_ROUNDTRIP_PRE2007_TABLESTYLE
 90
      512
 91
        0
  1

 92
      512
 93
        0
  2

 94
      512
 95
        0
  3

  0
XRECORD
  5
A554
102
{ACAD_REACTORS
330
A553
102
}
330
A553
100
AcDbXrecord
280
     1
102
RTVSPost2010Prop28
280
     1
102
RTVSPost2010PropOp28
 70
     1
102
RTVSPost2010Prop29
280
     1
102
RTVSPost2010PropOp29
 70
     1
102
RTVSPost2010Prop30
280
     0
102
RTVSPost2010PropOp30
 70
     1
102
RTVSPost2010Prop31
280
     0
102
RTVSPost2010PropOp31
 70
     1
102
RTVSPost2010Prop32
280
     0
102
RTVSPost2010PropOp32
 70
     1
102
RTVSPost2010Prop33
280
     0
102
RTVSPost2010PropOp33
 70
     1
102
RTVSPost2010Prop34
280
     0
102
RTVSPost2010PropOp34
 70
     1
102
RTVSPost2010Prop35
280
     0
102
RTVSPost2010PropOp35
 70
     1
102
RTVSPost2010Prop36
280
     0
102
RTVSPost2010PropOp36
 70
     1
102
RTVSPost2010Prop37
 90
       50
102
RTVSPost2010PropOp37
 70
     1
102
RTVSPost2010Prop38
140
0.0
102
RTVSPost2010PropOp38
 70
     1
102
RTVSPost2010Prop39
140
1.0
102
RTVSPost2010PropOp39
 70
     1
102
RTVSPost2010Prop40
 90
        0
102
RTVSPost2010PropOp40
 70
     1
102
RTVSPost2010Prop41ColorIndex
 90
       18
102
RTVSPost2010Prop41ColorRGB
 90
        0
102
RTVSPost2010PropOp41
 70
     1
102
RTVSPost2010Prop42
 90
       50
102
RTVSPost2010PropOp42
 70
     1
102
RTVSPost2010Prop43
 90
        3
102
RTVSPost2010PropOp43
 70
     1
102
RTVSPost2010Prop44ColorIndex
 90
        5
102
RTVSPost2010Prop44ColorRGB
 90
      255
102
RTVSPost2010PropOp44
 70
     1
102
RTVSPost2010Prop45
280
     0
102
RTVSPost2010PropOp45
 70
     1
102
RTVSPost2010Prop46
 90
       50
102
RTVSPost2010PropOp46
 70
     1
102
RTVSPost2010Prop47
 90
       50
102
RTVSPost2010PropOp47
 70
     1
102
RTVSPost2010Prop48
 90
       50
102
RTVSPost2010PropOp48
 70
     1
102
RTVSPost2010Prop49
280
     0
102
RTVSPost2010PropOp49
 70
     1
102
RTVSPost2010Prop50
 90
       50
102
RTVSPost2010PropOp50
 70
     1
102
RTVSPost2010Prop51ColorIndex
 90
      256
102
RTVSPost2010Prop51ColorRGB
 90
-16777216
102
RTVSPost2010PropOp51
 70
     0
102
RTVSPost2010Prop52
140
1.0
102
RTVSPost2010PropOp52
 70
     0
102
RTVSPost2010Prop53
 90
        2
102
RTVSPost2010PropOp53
 70
     1
102
RTVSPost2010Prop54
  1
strokes_ogs.tif
102
RTVSPost2010PropOp54
 70
     1
102
RTVSPost2010Prop55
280
     0
102
RTVSPost2010PropOp55
 70
     1
102
RTVSPost2010Prop56
140
1.0
102
RTVSPost2010PropOp56
 70
     1
102
RTVSPost2010Prop57
140
1.0
102
RTVSPost2010PropOp57
 70
     1
102
RTVSPropertyOp0
 70
     1
102
RTVSPropertyOp1
 70
     1
102
RTVSPropertyOp2
 70
     1
102
RTVSPropertyOp3
 70
     1
102
RTVSPropertyOp4
 70
     1
102
RTVSPropertyOp5
 70
     1
102
RTVSPropertyOp6
 70
     1
102
RTVSPropertyOp7
 70
     1
102
RTVSPropertyOp8
 70
     1
102
RTVSPropertyOp9
 70
     1
102
RTVSPropertyOp10
 70
     1
102
RTVSPropertyOp11
 70
     1
102
RTVSPropertyOp12
 70
     1
102
RTVSPropertyOp13
 70
     1
102
RTVSPropertyOp14
 70
     1
102
RTVSPropertyOp15
 70
     1
102
RTVSPropertyOp16
 70
     1
102
RTVSPropertyOp17
 70
     1
102
RTVSPropertyOp18
 70
     1
102
RTVSPropertyOp19
 70
     1
102
RTVSPropertyOp20
 70
     1
102
RTVSPropertyOp21
 70
     1
102
RTVSPropertyOp22
 70
     1
102
RTVSPropertyOp23
 70
     1
102
RTVSPropertyOp24
 70
     1
102
RTVSPropertyOp25
 70
     1
102
RTVSPropertyOp26
 70
     1
102
RTVSPropertyOp27
 70
     1
102
RTVSPropertyOp28
 70
     1
102
RTVSPropertyOp29
 70
     1
102
RTVSPropertyOp30
 70
     1
102
RTVSPropertyOp31
 70
     1
102
RTVSPropertyOp32
 70
     1
102
RTVSPropertyOp33
 70
     1
102
RTVSPropertyOp34
 70
     1
102
RTVSPropertyOp35
 70
     1
102
RTVSPropertyOp36
 70
     1
102
RTVSPropertyOp37
 70
     1
102
RTVSPropertyOp38
 70
     1
102
RTVSPropertyOp39
 70
     1
102
RTVSPropertyOp40
 70
     1
102
RTVSPropertyOp41
 70
     1
102
RTVSPropertyOp42
 70
     1
102
RTVSPropertyOp43
 70
     1
102
RTVSPropertyOp44
 70
     1
102
RTVSPropertyOp45
 70
     1
102
RTVSPropertyOp46
 70
     1
102
RTVSPropertyOp47
 70
     1
102
RTVSPropertyOp48
 70
     1
102
RTVSPropertyOp49
 70
     1
102
RTVSPropertyOp50
 70
     1
102
RTVSPropertyOp51
 70
     0
102
RTVSPropertyOp52
 70
     0
102
RTVSPropertyOp53
 70
     1
102
RTVSPropertyOp54
 70
     1
102
RTVSPropertyOp55
 70
     1
102
RTVSPropertyOp56
 70
     1
102
RTVSPropertyOp57
 70
     1
102
RTVSPropertyOp58
 70
     1
102
RTVSPropertyOp59
 70
     1
102
RTVSPropertyOp60
 70
     1
102
RTVSPropertyOp61
 70
     1
102
RTVSPropertyOp62
 70
     1
  0
XRECORD
  5
A552
102
{ACAD_REACTORS
330
A551
102
}
330
A551
100
AcDbXrecord
280
     1
102
RTVSPost2010Prop28
280
     0
102
RTVSPost2010PropOp28
 70
     1
102
RTVSPost2010Prop29
280
     1
102
RTVSPost2010PropOp29
 70
     1
102
RTVSPost2010Prop30
280
     1
102
RTVSPost2010PropOp30
 70
     1
102
RTVSPost2010Prop31
280
     0
102
RTVSPost2010PropOp31
 70
     1
102
RTVSPost2010Prop32
280
     0
102
RTVSPost2010PropOp32
 70
     1
102
RTVSPost2010Prop33
280
     0
102
RTVSPost2010PropOp33
 70
     1
102
RTVSPost2010Prop34
280
     0
102
RTVSPost2010PropOp34
 70
     1
102
RTVSPost2010Prop35
280
     0
102
RTVSPost2010PropOp35
 70
     1
102
RTVSPost2010Prop36
280
     0
102
RTVSPost2010PropOp36
 70
     1
102
RTVSPost2010Prop37
 90
       50
102
RTVSPost2010PropOp37
 70
     1
102
RTVSPost2010Prop38
140
0.0
102
RTVSPost2010PropOp38
 70
     1
102
RTVSPost2010Prop39
140
1.0
102
RTVSPost2010PropOp39
 70
     1
102
RTVSPost2010Prop40
 90
        0
102
RTVSPost2010PropOp40
 70
     1
102
RTVSPost2010Prop41ColorIndex
 90
       18
102
RTVSPost2010Prop41ColorRGB
 90
        0
102
RTVSPost2010PropOp41
 70
     1
102
RTVSPost2010Prop42
 90
       50
102
RTVSPost2010PropOp42
 70
     1
102
RTVSPost2010Prop43
 90
        3
102
RTVSPost2010PropOp43
 70
     1
102
RTVSPost2010Prop44ColorIndex
 90
        5
102
RTVSPost2010Prop44ColorRGB
 90
      255
102
RTVSPost2010PropOp44
 70
     1
102
RTVSPost2010Prop45
280
     0
102
RTVSPost2010PropOp45
 70
     1
102
RTVSPost2010Prop46
 90
       50
102
RTVSPost2010PropOp46
 70
     1
102
RTVSPost2010Prop47
 90
       50
102
RTVSPost2010PropOp47
 70
     1
102
RTVSPost2010Prop48
 90
       50
102
RTVSPost2010PropOp48
 70
     1
102
RTVSPost2010Prop49
280
     0
102
RTVSPost2010PropOp49
 70
     1
102
RTVSPost2010Prop50
 90
       50
102
RTVSPost2010PropOp50
 70
     1
102
RTVSPost2010Prop51ColorIndex
 90
      256
102
RTVSPost2010Prop51ColorRGB
 90
-16777216
102
RTVSPost2010PropOp51
 70
     0
102
RTVSPost2010Prop52
140
1.0
102
RTVSPost2010PropOp52
 70
     0
102
RTVSPost2010Prop53
 90
        2
102
RTVSPost2010PropOp53
 70
     1
102
RTVSPost2010Prop54
  1
strokes_ogs.tif
102
RTVSPost2010PropOp54
 70
     1
102
RTVSPost2010Prop55
280
     0
102
RTVSPost2010PropOp55
 70
     1
102
RTVSPost2010Prop56
140
1.0
102
RTVSPost2010PropOp56
 70
     1
102
RTVSPost2010Prop57
140
1.0
102
RTVSPost2010PropOp57
 70
     1
102
RTVSPropertyOp0
 70
     1
102
RTVSPropertyOp1
 70
     1
102
RTVSPropertyOp2
 70
     1
102
RTVSPropertyOp3
 70
     1
102
RTVSPropertyOp4
 70
     1
102
RTVSPropertyOp5
 70
     1
102
RTVSPropertyOp6
 70
     1
102
RTVSPropertyOp7
 70
     1
102
RTVSPropertyOp8
 70
     1
102
RTVSPropertyOp9
 70
     1
102
RTVSPropertyOp10
 70
     1
102
RTVSPropertyOp11
 70
     1
102
RTVSPropertyOp12
 70
     1
102
RTVSPropertyOp13
 70
     1
102
RTVSPropertyOp14
 70
     1
102
RTVSPropertyOp15
 70
     1
102
RTVSPropertyOp16
 70
     1
102
RTVSPropertyOp17
 70
     1
102
RTVSPropertyOp18
 70
     1
102
RTVSPropertyOp19
 70
     1
102
RTVSPropertyOp20
 70
     1
102
RTVSPropertyOp21
 70
     1
102
RTVSPropertyOp22
 70
     1
102
RTVSPropertyOp23
 70
     1
102
RTVSPropertyOp24
 70
     1
102
RTVSPropertyOp25
 70
     1
102
RTVSPropertyOp26
 70
     1
102
RTVSPropertyOp27
 70
     1
102
RTVSPropertyOp28
 70
     1
102
RTVSPropertyOp29
 70
     1
102
RTVSPropertyOp30
 70
     1
102
RTVSPropertyOp31
 70
     1
102
RTVSPropertyOp32
 70
     1
102
RTVSPropertyOp33
 70
     1
102
RTVSPropertyOp34
 70
     1
102
RTVSPropertyOp35
 70
     1
102
RTVSPropertyOp36
 70
     1
102
RTVSPropertyOp37
 70
     1
102
RTVSPropertyOp38
 70
     1
102
RTVSPropertyOp39
 70
     1
102
RTVSPropertyOp40
 70
     1
102
RTVSPropertyOp41
 70
     1
102
RTVSPropertyOp42
 70
     1
102
RTVSPropertyOp43
 70
     1
102
RTVSPropertyOp44
 70
     1
102
RTVSPropertyOp45
 70
     1
102
RTVSPropertyOp46
 70
     1
102
RTVSPropertyOp47
 70
     1
102
RTVSPropertyOp48
 70
     1
102
RTVSPropertyOp49
 70
     1
102
RTVSPropertyOp50
 70
     1
102
RTVSPropertyOp51
 70
     0
102
RTVSPropertyOp52
 70
     0
102
RTVSPropertyOp53
 70
     1
102
RTVSPropertyOp54
 70
     1
102
RTVSPropertyOp55
 70
     1
102
RTVSPropertyOp56
 70
     1
102
RTVSPropertyOp57
 70
     1
102
RTVSPropertyOp58
 70
     1
102
RTVSPropertyOp59
 70
     1
102
RTVSPropertyOp60
 70
     1
102
RTVSPropertyOp61
 70
     1
102
RTVSPropertyOp62
 70
     1
  0
XRECORD
  5
A560
102
{ACAD_REACTORS
330
A55F
102
}
330
A55F
100
AcDbXrecord
280
     1
102
RTVSPost2010Prop28
280
     0
102
RTVSPost2010PropOp28
 70
     1
102
RTVSPost2010Prop29
280
     1
102
RTVSPost2010PropOp29
 70
     1
102
RTVSPost2010Prop30
280
     1
102
RTVSPost2010PropOp30
 70
     1
102
RTVSPost2010Prop31
280
     0
102
RTVSPost2010PropOp31
 70
     1
102
RTVSPost2010Prop32
280
     0
102
RTVSPost2010PropOp32
 70
     1
102
RTVSPost2010Prop33
280
     0
102
RTVSPost2010PropOp33
 70
     1
102
RTVSPost2010Prop34
280
     0
102
RTVSPost2010PropOp34
 70
     1
102
RTVSPost2010Prop35
280
     0
102
RTVSPost2010PropOp35
 70
     1
102
RTVSPost2010Prop36
280
     0
102
RTVSPost2010PropOp36
 70
     1
102
RTVSPost2010Prop37
 90
       50
102
RTVSPost2010PropOp37
 70
     1
102
RTVSPost2010Prop38
140
0.0
102
RTVSPost2010PropOp38
 70
     1
102
RTVSPost2010Prop39
140
1.0
102
RTVSPost2010PropOp39
 70
     1
102
RTVSPost2010Prop40
 90
        0
102
RTVSPost2010PropOp40
 70
     1
102
RTVSPost2010Prop41ColorIndex
 90
       18
102
RTVSPost2010Prop41ColorRGB
 90
        0
102
RTVSPost2010PropOp41
 70
     1
102
RTVSPost2010Prop42
 90
       50
102
RTVSPost2010PropOp42
 70
     1
102
RTVSPost2010Prop43
 90
        3
102
RTVSPost2010PropOp43
 70
     1
102
RTVSPost2010Prop44ColorIndex
 90
        5
102
RTVSPost2010Prop44ColorRGB
 90
      255
102
RTVSPost2010PropOp44
 70
     1
102
RTVSPost2010Prop45
280
     0
102
RTVSPost2010PropOp45
 70
     1
102
RTVSPost2010Prop46
 90
       50
102
RTVSPost2010PropOp46
 70
     1
102
RTVSPost2010Prop47
 90
       50
102
RTVSPost2010PropOp47
 70
     1
102
RTVSPost2010Prop48
 90
       50
102
RTVSPost2010PropOp48
 70
     1
102
RTVSPost2010Prop49
280
     0
102
RTVSPost2010PropOp49
 70
     1
102
RTVSPost2010Prop50
 90
       50
102
RTVSPost2010PropOp50
 70
     1
102
RTVSPost2010Prop51ColorIndex
 90
      256
102
RTVSPost2010Prop51ColorRGB
 90
-16777216
102
RTVSPost2010PropOp51
 70
     0
102
RTVSPost2010Prop52
140
1.0
102
RTVSPost2010PropOp52
 70
     0
102
RTVSPost2010Prop53
 90
        2
102
RTVSPost2010PropOp53
 70
     1
102
RTVSPost2010Prop54
  1
strokes_ogs.tif
102
RTVSPost2010PropOp54
 70
     1
102
RTVSPost2010Prop55
280
     0
102
RTVSPost2010PropOp55
 70
     1
102
RTVSPost2010Prop56
140
1.0
102
RTVSPost2010PropOp56
 70
     1
102
RTVSPost2010Prop57
140
1.0
102
RTVSPost2010PropOp57
 70
     1
102
RTVSPropertyOp0
 70
     1
102
RTVSPropertyOp1
 70
     1
102
RTVSPropertyOp2
 70
     1
102
RTVSPropertyOp3
 70
     1
102
RTVSPropertyOp4
 70
     1
102
RTVSPropertyOp5
 70
     1
102
RTVSPropertyOp6
 70
     1
102
RTVSPropertyOp7
 70
     1
102
RTVSPropertyOp8
 70
     1
102
RTVSPropertyOp9
 70
     1
102
RTVSPropertyOp10
 70
     1
102
RTVSPropertyOp11
 70
     1
102
RTVSPropertyOp12
 70
     1
102
RTVSPropertyOp13
 70
     1
102
RTVSPropertyOp14
 70
     1
102
RTVSPropertyOp15
 70
     1
102
RTVSPropertyOp16
 70
     1
102
RTVSPropertyOp17
 70
     1
102
RTVSPropertyOp18
 70
     1
102
RTVSPropertyOp19
 70
     1
102
RTVSPropertyOp20
 70
     1
102
RTVSPropertyOp21
 70
     1
102
RTVSPropertyOp22
 70
     1
102
RTVSPropertyOp23
 70
     1
102
RTVSPropertyOp24
 70
     1
102
RTVSPropertyOp25
 70
     1
102
RTVSPropertyOp26
 70
     1
102
RTVSPropertyOp27
 70
     1
102
RTVSPropertyOp28
 70
     1
102
RTVSPropertyOp29
 70
     1
102
RTVSPropertyOp30
 70
     1
102
RTVSPropertyOp31
 70
     1
102
RTVSPropertyOp32
 70
     1
102
RTVSPropertyOp33
 70
     1
102
RTVSPropertyOp34
 70
     1
102
RTVSPropertyOp35
 70
     1
102
RTVSPropertyOp36
 70
     1
102
RTVSPropertyOp37
 70
     1
102
RTVSPropertyOp38
 70
     1
102
RTVSPropertyOp39
 70
     1
102
RTVSPropertyOp40
 70
     1
102
RTVSPropertyOp41
 70
     1
102
RTVSPropertyOp42
 70
     1
102
RTVSPropertyOp43
 70
     1
102
RTVSPropertyOp44
 70
     1
102
RTVSPropertyOp45
 70
     1
102
RTVSPropertyOp46
 70
     1
102
RTVSPropertyOp47
 70
     1
102
RTVSPropertyOp48
 70
     1
102
RTVSPropertyOp49
 70
     1
102
RTVSPropertyOp50
 70
     1
102
RTVSPropertyOp51
 70
     0
102
RTVSPropertyOp52
 70
     0
102
RTVSPropertyOp53
 70
     1
102
RTVSPropertyOp54
 70
     1
102
RTVSPropertyOp55
 70
     1
102
RTVSPropertyOp56
 70
     1
102
RTVSPropertyOp57
 70
     1
102
RTVSPropertyOp58
 70
     1
102
RTVSPropertyOp59
 70
     1
102
RTVSPropertyOp60
 70
     1
102
RTVSPropertyOp61
 70
     1
102
RTVSPropertyOp62
 70
     1
  0
XRECORD
  5
A568
102
{ACAD_REACTORS
330
A567
102
}
330
A567
100
AcDbXrecord
280
     1
102
RTVSPost2010Prop28
280
     0
102
RTVSPost2010PropOp28
 70
     1
102
RTVSPost2010Prop29
280
     1
102
RTVSPost2010PropOp29
 70
     1
102
RTVSPost2010Prop30
280
     1
102
RTVSPost2010PropOp30
 70
     1
102
RTVSPost2010Prop31
280
     0
102
RTVSPost2010PropOp31
 70
     1
102
RTVSPost2010Prop32
280
     0
102
RTVSPost2010PropOp32
 70
     1
102
RTVSPost2010Prop33
280
     0
102
RTVSPost2010PropOp33
 70
     1
102
RTVSPost2010Prop34
280
     0
102
RTVSPost2010PropOp34
 70
     1
102
RTVSPost2010Prop35
280
     0
102
RTVSPost2010PropOp35
 70
     1
102
RTVSPost2010Prop36
280
     0
102
RTVSPost2010PropOp36
 70
     1
102
RTVSPost2010Prop37
 90
       50
102
RTVSPost2010PropOp37
 70
     1
102
RTVSPost2010Prop38
140
0.0
102
RTVSPost2010PropOp38
 70
     1
102
RTVSPost2010Prop39
140
1.0
102
RTVSPost2010PropOp39
 70
     1
102
RTVSPost2010Prop40
 90
        0
102
RTVSPost2010PropOp40
 70
     1
102
RTVSPost2010Prop41ColorIndex
 90
       18
102
RTVSPost2010Prop41ColorRGB
 90
        0
102
RTVSPost2010PropOp41
 70
     1
102
RTVSPost2010Prop42
 90
       50
102
RTVSPost2010PropOp42
 70
     1
102
RTVSPost2010Prop43
 90
        3
102
RTVSPost2010PropOp43
 70
     1
102
RTVSPost2010Prop44ColorIndex
 90
        5
102
RTVSPost2010Prop44ColorRGB
 90
      255
102
RTVSPost2010PropOp44
 70
     1
102
RTVSPost2010Prop45
280
     0
102
RTVSPost2010PropOp45
 70
     1
102
RTVSPost2010Prop46
 90
       50
102
RTVSPost2010PropOp46
 70
     1
102
RTVSPost2010Prop47
 90
       50
102
RTVSPost2010PropOp47
 70
     1
102
RTVSPost2010Prop48
 90
       50
102
RTVSPost2010PropOp48
 70
     1
102
RTVSPost2010Prop49
280
     0
102
RTVSPost2010PropOp49
 70
     1
102
RTVSPost2010Prop50
 90
       50
102
RTVSPost2010PropOp50
 70
     1
102
RTVSPost2010Prop51ColorIndex
 90
      256
102
RTVSPost2010Prop51ColorRGB
 90
-16777216
102
RTVSPost2010PropOp51
 70
     0
102
RTVSPost2010Prop52
140
1.0
102
RTVSPost2010PropOp52
 70
     0
102
RTVSPost2010Prop53
 90
        2
102
RTVSPost2010PropOp53
 70
     1
102
RTVSPost2010Prop54
  1
strokes_ogs.tif
102
RTVSPost2010PropOp54
 70
     1
102
RTVSPost2010Prop55
280
     0
102
RTVSPost2010PropOp55
 70
     1
102
RTVSPost2010Prop56
140
1.0
102
RTVSPost2010PropOp56
 70
     1
102
RTVSPost2010Prop57
140
1.0
102
RTVSPost2010PropOp57
 70
     1
102
RTVSPropertyOp0
 70
     1
102
RTVSPropertyOp1
 70
     1
102
RTVSPropertyOp2
 70
     1
102
RTVSPropertyOp3
 70
     1
102
RTVSPropertyOp4
 70
     1
102
RTVSPropertyOp5
 70
     1
102
RTVSPropertyOp6
 70
     1
102
RTVSPropertyOp7
 70
     1
102
RTVSPropertyOp8
 70
     1
102
RTVSPropertyOp9
 70
     1
102
RTVSPropertyOp10
 70
     1
102
RTVSPropertyOp11
 70
     1
102
RTVSPropertyOp12
 70
     1
102
RTVSPropertyOp13
 70
     1
102
RTVSPropertyOp14
 70
     1
102
RTVSPropertyOp15
 70
     1
102
RTVSPropertyOp16
 70
     1
102
RTVSPropertyOp17
 70
     1
102
RTVSPropertyOp18
 70
     1
102
RTVSPropertyOp19
 70
     1
102
RTVSPropertyOp20
 70
     1
102
RTVSPropertyOp21
 70
     1
102
RTVSPropertyOp22
 70
     1
102
RTVSPropertyOp23
 70
     1
102
RTVSPropertyOp24
 70
     1
102
RTVSPropertyOp25
 70
     1
102
RTVSPropertyOp26
 70
     1
102
RTVSPropertyOp27
 70
     1
102
RTVSPropertyOp28
 70
     1
102
RTVSPropertyOp29
 70
     1
102
RTVSPropertyOp30
 70
     1
102
RTVSPropertyOp31
 70
     1
102
RTVSPropertyOp32
 70
     1
102
RTVSPropertyOp33
 70
     1
102
RTVSPropertyOp34
 70
     1
102
RTVSPropertyOp35
 70
     1
102
RTVSPropertyOp36
 70
     1
102
RTVSPropertyOp37
 70
     1
102
RTVSPropertyOp38
 70
     1
102
RTVSPropertyOp39
 70
     1
102
RTVSPropertyOp40
 70
     1
102
RTVSPropertyOp41
 70
     1
102
RTVSPropertyOp42
 70
     1
102
RTVSPropertyOp43
 70
     1
102
RTVSPropertyOp44
 70
     1
102
RTVSPropertyOp45
 70
     1
102
RTVSPropertyOp46
 70
     1
102
RTVSPropertyOp47
 70
     1
102
RTVSPropertyOp48
 70
     1
102
RTVSPropertyOp49
 70
     1
102
RTVSPropertyOp50
 70
     1
102
RTVSPropertyOp51
 70
     0
102
RTVSPropertyOp52
 70
     0
102
RTVSPropertyOp53
 70
     1
102
RTVSPropertyOp54
 70
     1
102
RTVSPropertyOp55
 70
     1
102
RTVSPropertyOp56
 70
     1
102
RTVSPropertyOp57
 70
     1
102
RTVSPropertyOp58
 70
     1
102
RTVSPropertyOp59
 70
     1
102
RTVSPropertyOp60
 70
     1
102
RTVSPropertyOp61
 70
     1
102
RTVSPropertyOp62
 70
     1
  0
XRECORD
  5
A55A
102
{ACAD_REACTORS
330
A559
102
}
330
A559
100
AcDbXrecord
280
     1
102
RTVSPost2010Prop28
280
     0
102
RTVSPost2010PropOp28
 70
     1
102
RTVSPost2010Prop29
280
     1
102
RTVSPost2010PropOp29
 70
     1
102
RTVSPost2010Prop30
280
     1
102
RTVSPost2010PropOp30
 70
     1
102
RTVSPost2010Prop31
280
     0
102
RTVSPost2010PropOp31
 70
     1
102
RTVSPost2010Prop32
280
     0
102
RTVSPost2010PropOp32
 70
     1
102
RTVSPost2010Prop33
280
     0
102
RTVSPost2010PropOp33
 70
     1
102
RTVSPost2010Prop34
280
     0
102
RTVSPost2010PropOp34
 70
     1
102
RTVSPost2010Prop35
280
     0
102
RTVSPost2010PropOp35
 70
     1
102
RTVSPost2010Prop36
280
     0
102
RTVSPost2010PropOp36
 70
     1
102
RTVSPost2010Prop37
 90
       50
102
RTVSPost2010PropOp37
 70
     1
102
RTVSPost2010Prop38
140
0.0
102
RTVSPost2010PropOp38
 70
     1
102
RTVSPost2010Prop39
140
1.0
102
RTVSPost2010PropOp39
 70
     1
102
RTVSPost2010Prop40
 90
        0
102
RTVSPost2010PropOp40
 70
     1
102
RTVSPost2010Prop41ColorIndex
 90
       18
102
RTVSPost2010Prop41ColorRGB
 90
        0
102
RTVSPost2010PropOp41
 70
     1
102
RTVSPost2010Prop42
 90
       50
102
RTVSPost2010PropOp42
 70
     1
102
RTVSPost2010Prop43
 90
        3
102
RTVSPost2010PropOp43
 70
     1
102
RTVSPost2010Prop44ColorIndex
 90
        5
102
RTVSPost2010Prop44ColorRGB
 90
      255
102
RTVSPost2010PropOp44
 70
     1
102
RTVSPost2010Prop45
280
     0
102
RTVSPost2010PropOp45
 70
     1
102
RTVSPost2010Prop46
 90
       50
102
RTVSPost2010PropOp46
 70
     1
102
RTVSPost2010Prop47
 90
       50
102
RTVSPost2010PropOp47
 70
     1
102
RTVSPost2010Prop48
 90
       50
102
RTVSPost2010PropOp48
 70
     1
102
RTVSPost2010Prop49
280
     0
102
RTVSPost2010PropOp49
 70
     1
102
RTVSPost2010Prop50
 90
       50
102
RTVSPost2010PropOp50
 70
     1
102
RTVSPost2010Prop51ColorIndex
 90
      256
102
RTVSPost2010Prop51ColorRGB
 90
-16777216
102
RTVSPost2010PropOp51
 70
     0
102
RTVSPost2010Prop52
140
1.0
102
RTVSPost2010PropOp52
 70
     0
102
RTVSPost2010Prop53
 90
        2
102
RTVSPost2010PropOp53
 70
     1
102
RTVSPost2010Prop54
  1
strokes_ogs.tif
102
RTVSPost2010PropOp54
 70
     1
102
RTVSPost2010Prop55
280
     0
102
RTVSPost2010PropOp55
 70
     1
102
RTVSPost2010Prop56
140
1.0
102
RTVSPost2010PropOp56
 70
     1
102
RTVSPost2010Prop57
140
1.0
102
RTVSPost2010PropOp57
 70
     1
102
RTVSPropertyOp0
 70
     1
102
RTVSPropertyOp1
 70
     1
102
RTVSPropertyOp2
 70
     1
102
RTVSPropertyOp3
 70
     1
102
RTVSPropertyOp4
 70
     1
102
RTVSPropertyOp5
 70
     1
102
RTVSPropertyOp6
 70
     1
102
RTVSPropertyOp7
 70
     1
102
RTVSPropertyOp8
 70
     1
102
RTVSPropertyOp9
 70
     1
102
RTVSPropertyOp10
 70
     1
102
RTVSPropertyOp11
 70
     1
102
RTVSPropertyOp12
 70
     1
102
RTVSPropertyOp13
 70
     1
102
RTVSPropertyOp14
 70
     1
102
RTVSPropertyOp15
 70
     1
102
RTVSPropertyOp16
 70
     1
102
RTVSPropertyOp17
 70
     1
102
RTVSPropertyOp18
 70
     1
102
RTVSPropertyOp19
 70
     1
102
RTVSPropertyOp20
 70
     1
102
RTVSPropertyOp21
 70
     1
102
RTVSPropertyOp22
 70
     1
102
RTVSPropertyOp23
 70
     1
102
RTVSPropertyOp24
 70
     1
102
RTVSPropertyOp25
 70
     1
102
RTVSPropertyOp26
 70
     1
102
RTVSPropertyOp27
 70
     1
102
RTVSPropertyOp28
 70
     1
102
RTVSPropertyOp29
 70
     1
102
RTVSPropertyOp30
 70
     1
102
RTVSPropertyOp31
 70
     1
102
RTVSPropertyOp32
 70
     1
102
RTVSPropertyOp33
 70
     1
102
RTVSPropertyOp34
 70
     1
102
RTVSPropertyOp35
 70
     1
102
RTVSPropertyOp36
 70
     1
102
RTVSPropertyOp37
 70
     1
102
RTVSPropertyOp38
 70
     1
102
RTVSPropertyOp39
 70
     1
102
RTVSPropertyOp40
 70
     1
102
RTVSPropertyOp41
 70
     1
102
RTVSPropertyOp42
 70
     1
102
RTVSPropertyOp43
 70
     1
102
RTVSPropertyOp44
 70
     1
102
RTVSPropertyOp45
 70
     1
102
RTVSPropertyOp46
 70
     1
102
RTVSPropertyOp47
 70
     1
102
RTVSPropertyOp48
 70
     1
102
RTVSPropertyOp49
 70
     1
102
RTVSPropertyOp50
 70
     1
102
RTVSPropertyOp51
 70
     0
102
RTVSPropertyOp52
 70
     0
102
RTVSPropertyOp53
 70
     1
102
RTVSPropertyOp54
 70
     1
102
RTVSPropertyOp55
 70
     1
102
RTVSPropertyOp56
 70
     1
102
RTVSPropertyOp57
 70
     1
102
RTVSPropertyOp58
 70
     1
102
RTVSPropertyOp59
 70
     1
102
RTVSPropertyOp60
 70
     1
102
RTVSPropertyOp61
 70
     1
102
RTVSPropertyOp62
 70
     1
  0
XRECORD
  5
A55E
102
{ACAD_REACTORS
330
A55D
102
}
330
A55D
100
AcDbXrecord
280
     1
102
RTVSPost2010Prop28
280
     0
102
RTVSPost2010PropOp28
 70
     1
102
RTVSPost2010Prop29
280
     1
102
RTVSPost2010PropOp29
 70
     1
102
RTVSPost2010Prop30
280
     1
102
RTVSPost2010PropOp30
 70
     1
102
RTVSPost2010Prop31
280
     0
102
RTVSPost2010PropOp31
 70
     1
102
RTVSPost2010Prop32
280
     0
102
RTVSPost2010PropOp32
 70
     1
102
RTVSPost2010Prop33
280
     0
102
RTVSPost2010PropOp33
 70
     1
102
RTVSPost2010Prop34
280
     0
102
RTVSPost2010PropOp34
 70
     1
102
RTVSPost2010Prop35
280
     0
102
RTVSPost2010PropOp35
 70
     1
102
RTVSPost2010Prop36
280
     0
102
RTVSPost2010PropOp36
 70
     1
102
RTVSPost2010Prop37
 90
       50
102
RTVSPost2010PropOp37
 70
     1
102
RTVSPost2010Prop38
140
0.0
102
RTVSPost2010PropOp38
 70
     1
102
RTVSPost2010Prop39
140
1.0
102
RTVSPost2010PropOp39
 70
     1
102
RTVSPost2010Prop40
 90
        0
102
RTVSPost2010PropOp40
 70
     1
102
RTVSPost2010Prop41ColorIndex
 90
       18
102
RTVSPost2010Prop41ColorRGB
 90
        0
102
RTVSPost2010PropOp41
 70
     1
102
RTVSPost2010Prop42
 90
       50
102
RTVSPost2010PropOp42
 70
     1
102
RTVSPost2010Prop43
 90
        3
102
RTVSPost2010PropOp43
 70
     1
102
RTVSPost2010Prop44ColorIndex
 90
        5
102
RTVSPost2010Prop44ColorRGB
 90
      255
102
RTVSPost2010PropOp44
 70
     1
102
RTVSPost2010Prop45
280
     0
102
RTVSPost2010PropOp45
 70
     1
102
RTVSPost2010Prop46
 90
       50
102
RTVSPost2010PropOp46
 70
     1
102
RTVSPost2010Prop47
 90
       50
102
RTVSPost2010PropOp47
 70
     1
102
RTVSPost2010Prop48
 90
       50
102
RTVSPost2010PropOp48
 70
     1
102
RTVSPost2010Prop49
280
     0
102
RTVSPost2010PropOp49
 70
     1
102
RTVSPost2010Prop50
 90
       50
102
RTVSPost2010PropOp50
 70
     1
102
RTVSPost2010Prop51ColorIndex
 90
      256
102
RTVSPost2010Prop51ColorRGB
 90
-16777216
102
RTVSPost2010PropOp51
 70
     0
102
RTVSPost2010Prop52
140
1.0
102
RTVSPost2010PropOp52
 70
     0
102
RTVSPost2010Prop53
 90
        2
102
RTVSPost2010PropOp53
 70
     1
102
RTVSPost2010Prop54
  1
strokes_ogs.tif
102
RTVSPost2010PropOp54
 70
     1
102
RTVSPost2010Prop55
280
     0
102
RTVSPost2010PropOp55
 70
     1
102
RTVSPost2010Prop56
140
1.0
102
RTVSPost2010PropOp56
 70
     1
102
RTVSPost2010Prop57
140
1.0
102
RTVSPost2010PropOp57
 70
     1
102
RTVSPropertyOp0
 70
     1
102
RTVSPropertyOp1
 70
     1
102
RTVSPropertyOp2
 70
     1
102
RTVSPropertyOp3
 70
     1
102
RTVSPropertyOp4
 70
     1
102
RTVSPropertyOp5
 70
     1
102
RTVSPropertyOp6
 70
     1
102
RTVSPropertyOp7
 70
     1
102
RTVSPropertyOp8
 70
     1
102
RTVSPropertyOp9
 70
     1
102
RTVSPropertyOp10
 70
     1
102
RTVSPropertyOp11
 70
     1
102
RTVSPropertyOp12
 70
     1
102
RTVSPropertyOp13
 70
     1
102
RTVSPropertyOp14
 70
     1
102
RTVSPropertyOp15
 70
     1
102
RTVSPropertyOp16
 70
     1
102
RTVSPropertyOp17
 70
     1
102
RTVSPropertyOp18
 70
     1
102
RTVSPropertyOp19
 70
     1
102
RTVSPropertyOp20
 70
     1
102
RTVSPropertyOp21
 70
     1
102
RTVSPropertyOp22
 70
     1
102
RTVSPropertyOp23
 70
     1
102
RTVSPropertyOp24
 70
     1
102
RTVSPropertyOp25
 70
     1
102
RTVSPropertyOp26
 70
     1
102
RTVSPropertyOp27
 70
     1
102
RTVSPropertyOp28
 70
     1
102
RTVSPropertyOp29
 70
     1
102
RTVSPropertyOp30
 70
     1
102
RTVSPropertyOp31
 70
     1
102
RTVSPropertyOp32
 70
     1
102
RTVSPropertyOp33
 70
     1
102
RTVSPropertyOp34
 70
     1
102
RTVSPropertyOp35
 70
     1
102
RTVSPropertyOp36
 70
     1
102
RTVSPropertyOp37
 70
     1
102
RTVSPropertyOp38
 70
     1
102
RTVSPropertyOp39
 70
     1
102
RTVSPropertyOp40
 70
     1
102
RTVSPropertyOp41
 70
     1
102
RTVSPropertyOp42
 70
     1
102
RTVSPropertyOp43
 70
     1
102
RTVSPropertyOp44
 70
     1
102
RTVSPropertyOp45
 70
     1
102
RTVSPropertyOp46
 70
     1
102
RTVSPropertyOp47
 70
     1
102
RTVSPropertyOp48
 70
     1
102
RTVSPropertyOp49
 70
     1
102
RTVSPropertyOp50
 70
     1
102
RTVSPropertyOp51
 70
     0
102
RTVSPropertyOp52
 70
     0
102
RTVSPropertyOp53
 70
     1
102
RTVSPropertyOp54
 70
     1
102
RTVSPropertyOp55
 70
     1
102
RTVSPropertyOp56
 70
     1
102
RTVSPropertyOp57
 70
     1
102
RTVSPropertyOp58
 70
     1
102
RTVSPropertyOp59
 70
     1
102
RTVSPropertyOp60
 70
     1
102
RTVSPropertyOp61
 70
     1
102
RTVSPropertyOp62
 70
     1
  0
XRECORD
  5
A578
102
{ACAD_REACTORS
330
A577
102
}
330
A577
100
AcDbXrecord
280
     1
102
RTVSPost2010Prop28
280
     0
102
RTVSPost2010PropOp28
 70
     1
102
RTVSPost2010Prop29
280
     1
102
RTVSPost2010PropOp29
 70
     1
102
RTVSPost2010Prop30
280
     1
102
RTVSPost2010PropOp30
 70
     1
102
RTVSPost2010Prop31
280
     0
102
RTVSPost2010PropOp31
 70
     1
102
RTVSPost2010Prop32
280
     0
102
RTVSPost2010PropOp32
 70
     1
102
RTVSPost2010Prop33
280
     0
102
RTVSPost2010PropOp33
 70
     1
102
RTVSPost2010Prop34
280
     0
102
RTVSPost2010PropOp34
 70
     1
102
RTVSPost2010Prop35
280
     0
102
RTVSPost2010PropOp35
 70
     1
102
RTVSPost2010Prop36
280
     0
102
RTVSPost2010PropOp36
 70
     1
102
RTVSPost2010Prop37
 90
       50
102
RTVSPost2010PropOp37
 70
     0
102
RTVSPost2010Prop38
140
0.0
102
RTVSPost2010PropOp38
 70
     0
102
RTVSPost2010Prop39
140
1.0
102
RTVSPost2010PropOp39
 70
     0
102
RTVSPost2010Prop40
 90
        0
102
RTVSPost2010PropOp40
 70
     0
102
RTVSPost2010Prop41ColorIndex
 90
       18
102
RTVSPost2010Prop41ColorRGB
 90
        0
102
RTVSPost2010PropOp41
 70
     0
102
RTVSPost2010Prop42
 90
       50
102
RTVSPost2010PropOp42
 70
     0
102
RTVSPost2010Prop43
 90
        3
102
RTVSPost2010PropOp43
 70
     0
102
RTVSPost2010Prop44ColorIndex
 90
        5
102
RTVSPost2010Prop44ColorRGB
 90
      255
102
RTVSPost2010PropOp44
 70
     0
102
RTVSPost2010Prop45
280
     0
102
RTVSPost2010PropOp45
 70
     1
102
RTVSPost2010Prop46
 90
       50
102
RTVSPost2010PropOp46
 70
     0
102
RTVSPost2010Prop47
 90
       50
102
RTVSPost2010PropOp47
 70
     0
102
RTVSPost2010Prop48
 90
       50
102
RTVSPost2010PropOp48
 70
     0
102
RTVSPost2010Prop49
280
     0
102
RTVSPost2010PropOp49
 70
     1
102
RTVSPost2010Prop50
 90
       50
102
RTVSPost2010PropOp50
 70
     0
102
RTVSPost2010Prop51ColorIndex
 90
      256
102
RTVSPost2010Prop51ColorRGB
 90
-16777216
102
RTVSPost2010PropOp51
 70
     0
102
RTVSPost2010Prop52
140
1.0
102
RTVSPost2010PropOp52
 70
     0
102
RTVSPost2010Prop53
 90
        2
102
RTVSPost2010PropOp53
 70
     0
102
RTVSPost2010Prop54
  1
strokes_ogs.tif
102
RTVSPost2010PropOp54
 70
     0
102
RTVSPost2010Prop55
280
     0
102
RTVSPost2010PropOp55
 70
     1
102
RTVSPost2010Prop56
140
1.0
102
RTVSPost2010PropOp56
 70
     0
102
RTVSPost2010Prop57
140
1.0
102
RTVSPost2010PropOp57
 70
     0
102
RTVSPropertyOp0
 70
     0
102
RTVSPropertyOp1
 70
     0
102
RTVSPropertyOp2
 70
     0
102
RTVSPropertyOp3
 70
     0
102
RTVSPropertyOp4
 70
     0
102
RTVSPropertyOp5
 70
     0
102
RTVSPropertyOp6
 70
     0
102
RTVSPropertyOp7
 70
     0
102
RTVSPropertyOp8
 70
     0
102
RTVSPropertyOp9
 70
     0
102
RTVSPropertyOp10
 70
     0
102
RTVSPropertyOp11
 70
     0
102
RTVSPropertyOp12
 70
     0
102
RTVSPropertyOp13
 70
     0
102
RTVSPropertyOp14
 70
     2
102
RTVSPropertyOp15
 70
     0
102
RTVSPropertyOp16
 70
     0
102
RTVSPropertyOp17
 70
     0
102
RTVSPropertyOp18
 70
     0
102
RTVSPropertyOp19
 70
     0
102
RTVSPropertyOp20
 70
     0
102
RTVSPropertyOp21
 70
     0
102
RTVSPropertyOp22
 70
     0
102
RTVSPropertyOp23
 70
     0
102
RTVSPropertyOp24
 70
     0
102
RTVSPropertyOp25
 70
     0
102
RTVSPropertyOp26
 70
     0
102
RTVSPropertyOp27
 70
     0
102
RTVSPropertyOp28
 70
     1
102
RTVSPropertyOp29
 70
     1
102
RTVSPropertyOp30
 70
     1
102
RTVSPropertyOp31
 70
     1
102
RTVSPropertyOp32
 70
     1
102
RTVSPropertyOp33
 70
     1
102
RTVSPropertyOp34
 70
     1
102
RTVSPropertyOp35
 70
     1
102
RTVSPropertyOp36
 70
     1
102
RTVSPropertyOp37
 70
     0
102
RTVSPropertyOp38
 70
     0
102
RTVSPropertyOp39
 70
     0
102
RTVSPropertyOp40
 70
     0
102
RTVSPropertyOp41
 70
     0
102
RTVSPropertyOp42
 70
     0
102
RTVSPropertyOp43
 70
     0
102
RTVSPropertyOp44
 70
     0
102
RTVSPropertyOp45
 70
     1
102
RTVSPropertyOp46
 70
     0
102
RTVSPropertyOp47
 70
     0
102
RTVSPropertyOp48
 70
     0
102
RTVSPropertyOp49
 70
     1
102
RTVSPropertyOp50
 70
     0
102
RTVSPropertyOp51
 70
     0
102
RTVSPropertyOp52
 70
     0
102
RTVSPropertyOp53
 70
     0
102
RTVSPropertyOp54
 70
     0
102
RTVSPropertyOp55
 70
     1
102
RTVSPropertyOp56
 70
     0
102
RTVSPropertyOp57
 70
     0
102
RTVSPropertyOp58
 70
     0
102
RTVSPropertyOp59
 70
     0
102
RTVSPropertyOp60
 70
     0
102
RTVSPropertyOp61
 70
     0
102
RTVSPropertyOp62
 70
     0
  0
XRECORD
  5
A566
102
{ACAD_REACTORS
330
A565
102
}
330
A565
100
AcDbXrecord
280
     1
102
RTVSPost2010Prop28
280
     0
102
RTVSPost2010PropOp28
 70
     1
102
RTVSPost2010Prop29
280
     1
102
RTVSPost2010PropOp29
 70
     1
102
RTVSPost2010Prop30
280
     1
102
RTVSPost2010PropOp30
 70
     1
102
RTVSPost2010Prop31
280
     0
102
RTVSPost2010PropOp31
 70
     1
102
RTVSPost2010Prop32
280
     0
102
RTVSPost2010PropOp32
 70
     1
102
RTVSPost2010Prop33
280
     0
102
RTVSPost2010PropOp33
 70
     1
102
RTVSPost2010Prop34
280
     0
102
RTVSPost2010PropOp34
 70
     1
102
RTVSPost2010Prop35
280
     0
102
RTVSPost2010PropOp35
 70
     1
102
RTVSPost2010Prop36
280
     0
102
RTVSPost2010PropOp36
 70
     1
102
RTVSPost2010Prop37
 90
       50
102
RTVSPost2010PropOp37
 70
     1
102
RTVSPost2010Prop38
140
0.0
102
RTVSPost2010PropOp38
 70
     1
102
RTVSPost2010Prop39
140
1.0
102
RTVSPost2010PropOp39
 70
     1
102
RTVSPost2010Prop40
 90
        0
102
RTVSPost2010PropOp40
 70
     1
102
RTVSPost2010Prop41ColorIndex
 90
       18
102
RTVSPost2010Prop41ColorRGB
 90
        0
102
RTVSPost2010PropOp41
 70
     1
102
RTVSPost2010Prop42
 90
       50
102
RTVSPost2010PropOp42
 70
     1
102
RTVSPost2010Prop43
 90
        3
102
RTVSPost2010PropOp43
 70
     1
102
RTVSPost2010Prop44ColorIndex
 90
        5
102
RTVSPost2010Prop44ColorRGB
 90
      255
102
RTVSPost2010PropOp44
 70
     1
102
RTVSPost2010Prop45
280
     0
102
RTVSPost2010PropOp45
 70
     1
102
RTVSPost2010Prop46
 90
       50
102
RTVSPost2010PropOp46
 70
     1
102
RTVSPost2010Prop47
 90
       50
102
RTVSPost2010PropOp47
 70
     1
102
RTVSPost2010Prop48
 90
       50
102
RTVSPost2010PropOp48
 70
     1
102
RTVSPost2010Prop49
280
     0
102
RTVSPost2010PropOp49
 70
     1
102
RTVSPost2010Prop50
 90
       50
102
RTVSPost2010PropOp50
 70
     1
102
RTVSPost2010Prop51ColorIndex
 90
      256
102
RTVSPost2010Prop51ColorRGB
 90
-16777216
102
RTVSPost2010PropOp51
 70
     0
102
RTVSPost2010Prop52
140
1.0
102
RTVSPost2010PropOp52
 70
     0
102
RTVSPost2010Prop53
 90
        2
102
RTVSPost2010PropOp53
 70
     1
102
RTVSPost2010Prop54
  1
strokes_ogs.tif
102
RTVSPost2010PropOp54
 70
     1
102
RTVSPost2010Prop55
280
     0
102
RTVSPost2010PropOp55
 70
     1
102
RTVSPost2010Prop56
140
1.0
102
RTVSPost2010PropOp56
 70
     1
102
RTVSPost2010Prop57
140
1.0
102
RTVSPost2010PropOp57
 70
     1
102
RTVSPropertyOp0
 70
     1
102
RTVSPropertyOp1
 70
     1
102
RTVSPropertyOp2
 70
     1
102
RTVSPropertyOp3
 70
     1
102
RTVSPropertyOp4
 70
     1
102
RTVSPropertyOp5
 70
     1
102
RTVSPropertyOp6
 70
     1
102
RTVSPropertyOp7
 70
     1
102
RTVSPropertyOp8
 70
     1
102
RTVSPropertyOp9
 70
     1
102
RTVSPropertyOp10
 70
     1
102
RTVSPropertyOp11
 70
     1
102
RTVSPropertyOp12
 70
     1
102
RTVSPropertyOp13
 70
     1
102
RTVSPropertyOp14
 70
     1
102
RTVSPropertyOp15
 70
     1
102
RTVSPropertyOp16
 70
     1
102
RTVSPropertyOp17
 70
     1
102
RTVSPropertyOp18
 70
     1
102
RTVSPropertyOp19
 70
     1
102
RTVSPropertyOp20
 70
     1
102
RTVSPropertyOp21
 70
     1
102
RTVSPropertyOp22
 70
     1
102
RTVSPropertyOp23
 70
     1
102
RTVSPropertyOp24
 70
     1
102
RTVSPropertyOp25
 70
     1
102
RTVSPropertyOp26
 70
     1
102
RTVSPropertyOp27
 70
     1
102
RTVSPropertyOp28
 70
     1
102
RTVSPropertyOp29
 70
     1
102
RTVSPropertyOp30
 70
     1
102
RTVSPropertyOp31
 70
     1
102
RTVSPropertyOp32
 70
     1
102
RTVSPropertyOp33
 70
     1
102
RTVSPropertyOp34
 70
     1
102
RTVSPropertyOp35
 70
     1
102
RTVSPropertyOp36
 70
     1
102
RTVSPropertyOp37
 70
     1
102
RTVSPropertyOp38
 70
     1
102
RTVSPropertyOp39
 70
     1
102
RTVSPropertyOp40
 70
     1
102
RTVSPropertyOp41
 70
     1
102
RTVSPropertyOp42
 70
     1
102
RTVSPropertyOp43
 70
     1
102
RTVSPropertyOp44
 70
     1
102
RTVSPropertyOp45
 70
     1
102
RTVSPropertyOp46
 70
     1
102
RTVSPropertyOp47
 70
     1
102
RTVSPropertyOp48
 70
     1
102
RTVSPropertyOp49
 70
     1
102
RTVSPropertyOp50
 70
     1
102
RTVSPropertyOp51
 70
     0
102
RTVSPropertyOp52
 70
     0
102
RTVSPropertyOp53
 70
     1
102
RTVSPropertyOp54
 70
     1
102
RTVSPropertyOp55
 70
     1
102
RTVSPropertyOp56
 70
     1
102
RTVSPropertyOp57
 70
     1
102
RTVSPropertyOp58
 70
     1
102
RTVSPropertyOp59
 70
     1
102
RTVSPropertyOp60
 70
     1
102
RTVSPropertyOp61
 70
     1
102
RTVSPropertyOp62
 70
     1
  0
XRECORD
  5
A54A
102
{ACAD_REACTORS
330
A549
102
}
330
A549
100
AcDbXrecord
280
     1
102
RTVSPost2010Prop28
280
     0
102
RTVSPost2010PropOp28
 70
     1
102
RTVSPost2010Prop29
280
     1
102
RTVSPost2010PropOp29
 70
     1
102
RTVSPost2010Prop30
280
     1
102
RTVSPost2010PropOp30
 70
     1
102
RTVSPost2010Prop31
280
     0
102
RTVSPost2010PropOp31
 70
     1
102
RTVSPost2010Prop32
280
     0
102
RTVSPost2010PropOp32
 70
     1
102
RTVSPost2010Prop33
280
     0
102
RTVSPost2010PropOp33
 70
     1
102
RTVSPost2010Prop34
280
     0
102
RTVSPost2010PropOp34
 70
     1
102
RTVSPost2010Prop35
280
     0
102
RTVSPost2010PropOp35
 70
     1
102
RTVSPost2010Prop36
280
     0
102
RTVSPost2010PropOp36
 70
     1
102
RTVSPost2010Prop37
 90
       50
102
RTVSPost2010PropOp37
 70
     1
102
RTVSPost2010Prop38
140
0.0
102
RTVSPost2010PropOp38
 70
     1
102
RTVSPost2010Prop39
140
1.0
102
RTVSPost2010PropOp39
 70
     1
102
RTVSPost2010Prop40
 90
        0
102
RTVSPost2010PropOp40
 70
     1
102
RTVSPost2010Prop41ColorIndex
 90
       18
102
RTVSPost2010Prop41ColorRGB
 90
        0
102
RTVSPost2010PropOp41
 70
     1
102
RTVSPost2010Prop42
 90
       50
102
RTVSPost2010PropOp42
 70
     1
102
RTVSPost2010Prop43
 90
        3
102
RTVSPost2010PropOp43
 70
     1
102
RTVSPost2010Prop44ColorIndex
 90
        5
102
RTVSPost2010Prop44ColorRGB
 90
      255
102
RTVSPost2010PropOp44
 70
     1
102
RTVSPost2010Prop45
280
     0
102
RTVSPost2010PropOp45
 70
     1
102
RTVSPost2010Prop46
 90
       50
102
RTVSPost2010PropOp46
 70
     1
102
RTVSPost2010Prop47
 90
       50
102
RTVSPost2010PropOp47
 70
     1
102
RTVSPost2010Prop48
 90
       50
102
RTVSPost2010PropOp48
 70
     1
102
RTVSPost2010Prop49
280
     0
102
RTVSPost2010PropOp49
 70
     1
102
RTVSPost2010Prop50
 90
       50
102
RTVSPost2010PropOp50
 70
     1
102
RTVSPost2010Prop51ColorIndex
 90
      256
102
RTVSPost2010Prop51ColorRGB
 90
-16777216
102
RTVSPost2010PropOp51
 70
     0
102
RTVSPost2010Prop52
140
1.0
102
RTVSPost2010PropOp52
 70
     0
102
RTVSPost2010Prop53
 90
        2
102
RTVSPost2010PropOp53
 70
     1
102
RTVSPost2010Prop54
  1
strokes_ogs.tif
102
RTVSPost2010PropOp54
 70
     1
102
RTVSPost2010Prop55
280
     0
102
RTVSPost2010PropOp55
 70
     1
102
RTVSPost2010Prop56
140
1.0
102
RTVSPost2010PropOp56
 70
     1
102
RTVSPost2010Prop57
140
1.0
102
RTVSPost2010PropOp57
 70
     1
102
RTVSPropertyOp0
 70
     1
102
RTVSPropertyOp1
 70
     1
102
RTVSPropertyOp2
 70
     1
102
RTVSPropertyOp3
 70
     1
102
RTVSPropertyOp4
 70
     1
102
RTVSPropertyOp5
 70
     1
102
RTVSPropertyOp6
 70
     1
102
RTVSPropertyOp7
 70
     1
102
RTVSPropertyOp8
 70
     1
102
RTVSPropertyOp9
 70
     1
102
RTVSPropertyOp10
 70
     1
102
RTVSPropertyOp11
 70
     1
102
RTVSPropertyOp12
 70
     1
102
RTVSPropertyOp13
 70
     1
102
RTVSPropertyOp14
 70
     1
102
RTVSPropertyOp15
 70
     1
102
RTVSPropertyOp16
 70
     1
102
RTVSPropertyOp17
 70
     1
102
RTVSPropertyOp18
 70
     1
102
RTVSPropertyOp19
 70
     1
102
RTVSPropertyOp20
 70
     1
102
RTVSPropertyOp21
 70
     1
102
RTVSPropertyOp22
 70
     1
102
RTVSPropertyOp23
 70
     1
102
RTVSPropertyOp24
 70
     1
102
RTVSPropertyOp25
 70
     1
102
RTVSPropertyOp26
 70
     1
102
RTVSPropertyOp27
 70
     1
102
RTVSPropertyOp28
 70
     1
102
RTVSPropertyOp29
 70
     1
102
RTVSPropertyOp30
 70
     1
102
RTVSPropertyOp31
 70
     1
102
RTVSPropertyOp32
 70
     1
102
RTVSPropertyOp33
 70
     1
102
RTVSPropertyOp34
 70
     1
102
RTVSPropertyOp35
 70
     1
102
RTVSPropertyOp36
 70
     1
102
RTVSPropertyOp37
 70
     1
102
RTVSPropertyOp38
 70
     1
102
RTVSPropertyOp39
 70
     1
102
RTVSPropertyOp40
 70
     1
102
RTVSPropertyOp41
 70
     1
102
RTVSPropertyOp42
 70
     1
102
RTVSPropertyOp43
 70
     1
102
RTVSPropertyOp44
 70
     1
102
RTVSPropertyOp45
 70
     1
102
RTVSPropertyOp46
 70
     1
102
RTVSPropertyOp47
 70
     1
102
RTVSPropertyOp48
 70
     1
102
RTVSPropertyOp49
 70
     1
102
RTVSPropertyOp50
 70
     1
102
RTVSPropertyOp51
 70
     0
102
RTVSPropertyOp52
 70
     0
102
RTVSPropertyOp53
 70
     1
102
RTVSPropertyOp54
 70
     1
102
RTVSPropertyOp55
 70
     1
102
RTVSPropertyOp56
 70
     1
102
RTVSPropertyOp57
 70
     1
102
RTVSPropertyOp58
 70
     1
102
RTVSPropertyOp59
 70
     1
102
RTVSPropertyOp60
 70
     1
102
RTVSPropertyOp61
 70
     1
102
RTVSPropertyOp62
 70
     1
  0
XRECORD
  5
A54C
102
{ACAD_REACTORS
330
A54B
102
}
330
A54B
100
AcDbXrecord
280
     1
102
RTVSPost2010Prop28
280
     0
102
RTVSPost2010PropOp28
 70
     1
102
RTVSPost2010Prop29
280
     1
102
RTVSPost2010PropOp29
 70
     1
102
RTVSPost2010Prop30
280
     1
102
RTVSPost2010PropOp30
 70
     1
102
RTVSPost2010Prop31
280
     0
102
RTVSPost2010PropOp31
 70
     1
102
RTVSPost2010Prop32
280
     0
102
RTVSPost2010PropOp32
 70
     1
102
RTVSPost2010Prop33
280
     0
102
RTVSPost2010PropOp33
 70
     1
102
RTVSPost2010Prop34
280
     0
102
RTVSPost2010PropOp34
 70
     1
102
RTVSPost2010Prop35
280
     0
102
RTVSPost2010PropOp35
 70
     1
102
RTVSPost2010Prop36
280
     0
102
RTVSPost2010PropOp36
 70
     1
102
RTVSPost2010Prop37
 90
       50
102
RTVSPost2010PropOp37
 70
     1
102
RTVSPost2010Prop38
140
0.0
102
RTVSPost2010PropOp38
 70
     1
102
RTVSPost2010Prop39
140
1.0
102
RTVSPost2010PropOp39
 70
     1
102
RTVSPost2010Prop40
 90
        0
102
RTVSPost2010PropOp40
 70
     1
102
RTVSPost2010Prop41ColorIndex
 90
       18
102
RTVSPost2010Prop41ColorRGB
 90
        0
102
RTVSPost2010PropOp41
 70
     1
102
RTVSPost2010Prop42
 90
       50
102
RTVSPost2010PropOp42
 70
     1
102
RTVSPost2010Prop43
 90
        3
102
RTVSPost2010PropOp43
 70
     1
102
RTVSPost2010Prop44ColorIndex
 90
        5
102
RTVSPost2010Prop44ColorRGB
 90
      255
102
RTVSPost2010PropOp44
 70
     1
102
RTVSPost2010Prop45
280
     0
102
RTVSPost2010PropOp45
 70
     1
102
RTVSPost2010Prop46
 90
       50
102
RTVSPost2010PropOp46
 70
     1
102
RTVSPost2010Prop47
 90
       50
102
RTVSPost2010PropOp47
 70
     1
102
RTVSPost2010Prop48
 90
       50
102
RTVSPost2010PropOp48
 70
     1
102
RTVSPost2010Prop49
280
     0
102
RTVSPost2010PropOp49
 70
     1
102
RTVSPost2010Prop50
 90
       50
102
RTVSPost2010PropOp50
 70
     1
102
RTVSPost2010Prop51ColorIndex
 90
      256
102
RTVSPost2010Prop51ColorRGB
 90
-16777216
102
RTVSPost2010PropOp51
 70
     0
102
RTVSPost2010Prop52
140
1.0
102
RTVSPost2010PropOp52
 70
     0
102
RTVSPost2010Prop53
 90
        2
102
RTVSPost2010PropOp53
 70
     1
102
RTVSPost2010Prop54
  1
strokes_ogs.tif
102
RTVSPost2010PropOp54
 70
     1
102
RTVSPost2010Prop55
280
     0
102
RTVSPost2010PropOp55
 70
     1
102
RTVSPost2010Prop56
140
1.0
102
RTVSPost2010PropOp56
 70
     1
102
RTVSPost2010Prop57
140
1.0
102
RTVSPost2010PropOp57
 70
     1
102
RTVSPropertyOp0
 70
     1
102
RTVSPropertyOp1
 70
     1
102
RTVSPropertyOp2
 70
     1
102
RTVSPropertyOp3
 70
     1
102
RTVSPropertyOp4
 70
     1
102
RTVSPropertyOp5
 70
     1
102
RTVSPropertyOp6
 70
     1
102
RTVSPropertyOp7
 70
     1
102
RTVSPropertyOp8
 70
     1
102
RTVSPropertyOp9
 70
     1
102
RTVSPropertyOp10
 70
     1
102
RTVSPropertyOp11
 70
     1
102
RTVSPropertyOp12
 70
     1
102
RTVSPropertyOp13
 70
     1
102
RTVSPropertyOp14
 70
     1
102
RTVSPropertyOp15
 70
     1
102
RTVSPropertyOp16
 70
     1
102
RTVSPropertyOp17
 70
     1
102
RTVSPropertyOp18
 70
     1
102
RTVSPropertyOp19
 70
     1
102
RTVSPropertyOp20
 70
     1
102
RTVSPropertyOp21
 70
     1
102
RTVSPropertyOp22
 70
     1
102
RTVSPropertyOp23
 70
     1
102
RTVSPropertyOp24
 70
     1
102
RTVSPropertyOp25
 70
     1
102
RTVSPropertyOp26
 70
     1
102
RTVSPropertyOp27
 70
     1
102
RTVSPropertyOp28
 70
     1
102
RTVSPropertyOp29
 70
     1
102
RTVSPropertyOp30
 70
     1
102
RTVSPropertyOp31
 70
     1
102
RTVSPropertyOp32
 70
     1
102
RTVSPropertyOp33
 70
     1
102
RTVSPropertyOp34
 70
     1
102
RTVSPropertyOp35
 70
     1
102
RTVSPropertyOp36
 70
     1
102
RTVSPropertyOp37
 70
     1
102
RTVSPropertyOp38
 70
     1
102
RTVSPropertyOp39
 70
     1
102
RTVSPropertyOp40
 70
     1
102
RTVSPropertyOp41
 70
     1
102
RTVSPropertyOp42
 70
     1
102
RTVSPropertyOp43
 70
     1
102
RTVSPropertyOp44
 70
     1
102
RTVSPropertyOp45
 70
     1
102
RTVSPropertyOp46
 70
     1
102
RTVSPropertyOp47
 70
     1
102
RTVSPropertyOp48
 70
     1
102
RTVSPropertyOp49
 70
     1
102
RTVSPropertyOp50
 70
     1
102
RTVSPropertyOp51
 70
     0
102
RTVSPropertyOp52
 70
     0
102
RTVSPropertyOp53
 70
     1
102
RTVSPropertyOp54
 70
     1
102
RTVSPropertyOp55
 70
     1
102
RTVSPropertyOp56
 70
     1
102
RTVSPropertyOp57
 70
     1
102
RTVSPropertyOp58
 70
     1
102
RTVSPropertyOp59
 70
     1
102
RTVSPropertyOp60
 70
     1
102
RTVSPropertyOp61
 70
     1
102
RTVSPropertyOp62
 70
     1
  0
XRECORD
  5
A54E
102
{ACAD_REACTORS
330
A54D
102
}
330
A54D
100
AcDbXrecord
280
     1
102
RTVSPost2010Prop28
280
     0
102
RTVSPost2010PropOp28
 70
     1
102
RTVSPost2010Prop29
280
     1
102
RTVSPost2010PropOp29
 70
     1
102
RTVSPost2010Prop30
280
     1
102
RTVSPost2010PropOp30
 70
     1
102
RTVSPost2010Prop31
280
     0
102
RTVSPost2010PropOp31
 70
     1
102
RTVSPost2010Prop32
280
     0
102
RTVSPost2010PropOp32
 70
     1
102
RTVSPost2010Prop33
280
     0
102
RTVSPost2010PropOp33
 70
     1
102
RTVSPost2010Prop34
280
     0
102
RTVSPost2010PropOp34
 70
     1
102
RTVSPost2010Prop35
280
     0
102
RTVSPost2010PropOp35
 70
     1
102
RTVSPost2010Prop36
280
     0
102
RTVSPost2010PropOp36
 70
     1
102
RTVSPost2010Prop37
 90
       50
102
RTVSPost2010PropOp37
 70
     1
102
RTVSPost2010Prop38
140
0.0
102
RTVSPost2010PropOp38
 70
     1
102
RTVSPost2010Prop39
140
1.0
102
RTVSPost2010PropOp39
 70
     1
102
RTVSPost2010Prop40
 90
        0
102
RTVSPost2010PropOp40
 70
     1
102
RTVSPost2010Prop41ColorIndex
 90
       18
102
RTVSPost2010Prop41ColorRGB
 90
        0
102
RTVSPost2010PropOp41
 70
     1
102
RTVSPost2010Prop42
 90
       50
102
RTVSPost2010PropOp42
 70
     1
102
RTVSPost2010Prop43
 90
        3
102
RTVSPost2010PropOp43
 70
     1
102
RTVSPost2010Prop44ColorIndex
 90
        5
102
RTVSPost2010Prop44ColorRGB
 90
      255
102
RTVSPost2010PropOp44
 70
     1
102
RTVSPost2010Prop45
280
     0
102
RTVSPost2010PropOp45
 70
     1
102
RTVSPost2010Prop46
 90
       50
102
RTVSPost2010PropOp46
 70
     1
102
RTVSPost2010Prop47
 90
       50
102
RTVSPost2010PropOp47
 70
     1
102
RTVSPost2010Prop48
 90
       50
102
RTVSPost2010PropOp48
 70
     1
102
RTVSPost2010Prop49
280
     0
102
RTVSPost2010PropOp49
 70
     1
102
RTVSPost2010Prop50
 90
       50
102
RTVSPost2010PropOp50
 70
     1
102
RTVSPost2010Prop51ColorIndex
 90
      256
102
RTVSPost2010Prop51ColorRGB
 90
-16777216
102
RTVSPost2010PropOp51
 70
     0
102
RTVSPost2010Prop52
140
1.0
102
RTVSPost2010PropOp52
 70
     0
102
RTVSPost2010Prop53
 90
        2
102
RTVSPost2010PropOp53
 70
     1
102
RTVSPost2010Prop54
  1
strokes_ogs.tif
102
RTVSPost2010PropOp54
 70
     1
102
RTVSPost2010Prop55
280
     0
102
RTVSPost2010PropOp55
 70
     1
102
RTVSPost2010Prop56
140
1.0
102
RTVSPost2010PropOp56
 70
     1
102
RTVSPost2010Prop57
140
1.0
102
RTVSPost2010PropOp57
 70
     1
102
RTVSPropertyOp0
 70
     1
102
RTVSPropertyOp1
 70
     1
102
RTVSPropertyOp2
 70
     1
102
RTVSPropertyOp3
 70
     1
102
RTVSPropertyOp4
 70
     1
102
RTVSPropertyOp5
 70
     1
102
RTVSPropertyOp6
 70
     1
102
RTVSPropertyOp7
 70
     1
102
RTVSPropertyOp8
 70
     1
102
RTVSPropertyOp9
 70
     1
102
RTVSPropertyOp10
 70
     1
102
RTVSPropertyOp11
 70
     1
102
RTVSPropertyOp12
 70
     1
102
RTVSPropertyOp13
 70
     1
102
RTVSPropertyOp14
 70
     1
102
RTVSPropertyOp15
 70
     1
102
RTVSPropertyOp16
 70
     1
102
RTVSPropertyOp17
 70
     1
102
RTVSPropertyOp18
 70
     1
102
RTVSPropertyOp19
 70
     1
102
RTVSPropertyOp20
 70
     1
102
RTVSPropertyOp21
 70
     1
102
RTVSPropertyOp22
 70
     1
102
RTVSPropertyOp23
 70
     1
102
RTVSPropertyOp24
 70
     1
102
RTVSPropertyOp25
 70
     1
102
RTVSPropertyOp26
 70
     1
102
RTVSPropertyOp27
 70
     1
102
RTVSPropertyOp28
 70
     1
102
RTVSPropertyOp29
 70
     1
102
RTVSPropertyOp30
 70
     1
102
RTVSPropertyOp31
 70
     1
102
RTVSPropertyOp32
 70
     1
102
RTVSPropertyOp33
 70
     1
102
RTVSPropertyOp34
 70
     1
102
RTVSPropertyOp35
 70
     1
102
RTVSPropertyOp36
 70
     1
102
RTVSPropertyOp37
 70
     1
102
RTVSPropertyOp38
 70
     1
102
RTVSPropertyOp39
 70
     1
102
RTVSPropertyOp40
 70
     1
102
RTVSPropertyOp41
 70
     1
102
RTVSPropertyOp42
 70
     1
102
RTVSPropertyOp43
 70
     1
102
RTVSPropertyOp44
 70
     1
102
RTVSPropertyOp45
 70
     1
102
RTVSPropertyOp46
 70
     1
102
RTVSPropertyOp47
 70
     1
102
RTVSPropertyOp48
 70
     1
102
RTVSPropertyOp49
 70
     1
102
RTVSPropertyOp50
 70
     1
102
RTVSPropertyOp51
 70
     0
102
RTVSPropertyOp52
 70
     0
102
RTVSPropertyOp53
 70
     1
102
RTVSPropertyOp54
 70
     1
102
RTVSPropertyOp55
 70
     1
102
RTVSPropertyOp56
 70
     1
102
RTVSPropertyOp57
 70
     1
102
RTVSPropertyOp58
 70
     1
102
RTVSPropertyOp59
 70
     1
102
RTVSPropertyOp60
 70
     1
102
RTVSPropertyOp61
 70
     1
102
RTVSPropertyOp62
 70
     1
  0
XRECORD
  5
A550
102
{ACAD_REACTORS
330
A54F
102
}
330
A54F
100
AcDbXrecord
280
     1
102
RTVSPost2010Prop28
280
     0
102
RTVSPost2010PropOp28
 70
     1
102
RTVSPost2010Prop29
280
     1
102
RTVSPost2010PropOp29
 70
     1
102
RTVSPost2010Prop30
280
     1
102
RTVSPost2010PropOp30
 70
     1
102
RTVSPost2010Prop31
280
     0
102
RTVSPost2010PropOp31
 70
     1
102
RTVSPost2010Prop32
280
     0
102
RTVSPost2010PropOp32
 70
     1
102
RTVSPost2010Prop33
280
     0
102
RTVSPost2010PropOp33
 70
     1
102
RTVSPost2010Prop34
280
     0
102
RTVSPost2010PropOp34
 70
     1
102
RTVSPost2010Prop35
280
     0
102
RTVSPost2010PropOp35
 70
     1
102
RTVSPost2010Prop36
280
     0
102
RTVSPost2010PropOp36
 70
     1
102
RTVSPost2010Prop37
 90
       50
102
RTVSPost2010PropOp37
 70
     1
102
RTVSPost2010Prop38
140
0.0
102
RTVSPost2010PropOp38
 70
     1
102
RTVSPost2010Prop39
140
1.0
102
RTVSPost2010PropOp39
 70
     1
102
RTVSPost2010Prop40
 90
        0
102
RTVSPost2010PropOp40
 70
     1
102
RTVSPost2010Prop41ColorIndex
 90
       18
102
RTVSPost2010Prop41ColorRGB
 90
        0
102
RTVSPost2010PropOp41
 70
     1
102
RTVSPost2010Prop42
 90
       50
102
RTVSPost2010PropOp42
 70
     1
102
RTVSPost2010Prop43
 90
        3
102
RTVSPost2010PropOp43
 70
     1
102
RTVSPost2010Prop44ColorIndex
 90
        5
102
RTVSPost2010Prop44ColorRGB
 90
      255
102
RTVSPost2010PropOp44
 70
     1
102
RTVSPost2010Prop45
280
     0
102
RTVSPost2010PropOp45
 70
     1
102
RTVSPost2010Prop46
 90
       50
102
RTVSPost2010PropOp46
 70
     1
102
RTVSPost2010Prop47
 90
       50
102
RTVSPost2010PropOp47
 70
     1
102
RTVSPost2010Prop48
 90
       50
102
RTVSPost2010PropOp48
 70
     1
102
RTVSPost2010Prop49
280
     0
102
RTVSPost2010PropOp49
 70
     1
102
RTVSPost2010Prop50
 90
       50
102
RTVSPost2010PropOp50
 70
     1
102
RTVSPost2010Prop51ColorIndex
 90
      256
102
RTVSPost2010Prop51ColorRGB
 90
-16777216
102
RTVSPost2010PropOp51
 70
     0
102
RTVSPost2010Prop52
140
1.0
102
RTVSPost2010PropOp52
 70
     0
102
RTVSPost2010Prop53
 90
        2
102
RTVSPost2010PropOp53
 70
     1
102
RTVSPost2010Prop54
  1
strokes_ogs.tif
102
RTVSPost2010PropOp54
 70
     1
102
RTVSPost2010Prop55
280
     0
102
RTVSPost2010PropOp55
 70
     1
102
RTVSPost2010Prop56
140
1.0
102
RTVSPost2010PropOp56
 70
     1
102
RTVSPost2010Prop57
140
1.0
102
RTVSPost2010PropOp57
 70
     1
102
RTVSPropertyOp0
 70
     1
102
RTVSPropertyOp1
 70
     1
102
RTVSPropertyOp2
 70
     1
102
RTVSPropertyOp3
 70
     1
102
RTVSPropertyOp4
 70
     1
102
RTVSPropertyOp5
 70
     1
102
RTVSPropertyOp6
 70
     1
102
RTVSPropertyOp7
 70
     1
102
RTVSPropertyOp8
 70
     1
102
RTVSPropertyOp9
 70
     1
102
RTVSPropertyOp10
 70
     1
102
RTVSPropertyOp11
 70
     1
102
RTVSPropertyOp12
 70
     1
102
RTVSPropertyOp13
 70
     1
102
RTVSPropertyOp14
 70
     1
102
RTVSPropertyOp15
 70
     1
102
RTVSPropertyOp16
 70
     1
102
RTVSPropertyOp17
 70
     1
102
RTVSPropertyOp18
 70
     1
102
RTVSPropertyOp19
 70
     1
102
RTVSPropertyOp20
 70
     1
102
RTVSPropertyOp21
 70
     1
102
RTVSPropertyOp22
 70
     1
102
RTVSPropertyOp23
 70
     1
102
RTVSPropertyOp24
 70
     1
102
RTVSPropertyOp25
 70
     1
102
RTVSPropertyOp26
 70
     1
102
RTVSPropertyOp27
 70
     1
102
RTVSPropertyOp28
 70
     1
102
RTVSPropertyOp29
 70
     1
102
RTVSPropertyOp30
 70
     1
102
RTVSPropertyOp31
 70
     1
102
RTVSPropertyOp32
 70
     1
102
RTVSPropertyOp33
 70
     1
102
RTVSPropertyOp34
 70
     1
102
RTVSPropertyOp35
 70
     1
102
RTVSPropertyOp36
 70
     1
102
RTVSPropertyOp37
 70
     1
102
RTVSPropertyOp38
 70
     1
102
RTVSPropertyOp39
 70
     1
102
RTVSPropertyOp40
 70
     1
102
RTVSPropertyOp41
 70
     1
102
RTVSPropertyOp42
 70
     1
102
RTVSPropertyOp43
 70
     1
102
RTVSPropertyOp44
 70
     1
102
RTVSPropertyOp45
 70
     1
102
RTVSPropertyOp46
 70
     1
102
RTVSPropertyOp47
 70
     1
102
RTVSPropertyOp48
 70
     1
102
RTVSPropertyOp49
 70
     1
102
RTVSPropertyOp50
 70
     1
102
RTVSPropertyOp51
 70
     0
102
RTVSPropertyOp52
 70
     0
102
RTVSPropertyOp53
 70
     1
102
RTVSPropertyOp54
 70
     1
102
RTVSPropertyOp55
 70
     1
102
RTVSPropertyOp56
 70
     1
102
RTVSPropertyOp57
 70
     1
102
RTVSPropertyOp58
 70
     1
102
RTVSPropertyOp59
 70
     1
102
RTVSPropertyOp60
 70
     1
102
RTVSPropertyOp61
 70
     1
102
RTVSPropertyOp62
 70
     1
  0
XRECORD
  5
A558
102
{ACAD_REACTORS
330
A557
102
}
330
A557
100
AcDbXrecord
280
     1
102
RTVSPost2010Prop28
280
     0
102
RTVSPost2010PropOp28
 70
     1
102
RTVSPost2010Prop29
280
     1
102
RTVSPost2010PropOp29
 70
     1
102
RTVSPost2010Prop30
280
     1
102
RTVSPost2010PropOp30
 70
     1
102
RTVSPost2010Prop31
280
     0
102
RTVSPost2010PropOp31
 70
     1
102
RTVSPost2010Prop32
280
     0
102
RTVSPost2010PropOp32
 70
     1
102
RTVSPost2010Prop33
280
     0
102
RTVSPost2010PropOp33
 70
     1
102
RTVSPost2010Prop34
280
     0
102
RTVSPost2010PropOp34
 70
     1
102
RTVSPost2010Prop35
280
     0
102
RTVSPost2010PropOp35
 70
     1
102
RTVSPost2010Prop36
280
     0
102
RTVSPost2010PropOp36
 70
     1
102
RTVSPost2010Prop37
 90
       50
102
RTVSPost2010PropOp37
 70
     1
102
RTVSPost2010Prop38
140
0.0
102
RTVSPost2010PropOp38
 70
     1
102
RTVSPost2010Prop39
140
1.0
102
RTVSPost2010PropOp39
 70
     1
102
RTVSPost2010Prop40
 90
        0
102
RTVSPost2010PropOp40
 70
     1
102
RTVSPost2010Prop41ColorIndex
 90
       18
102
RTVSPost2010Prop41ColorRGB
 90
        0
102
RTVSPost2010PropOp41
 70
     1
102
RTVSPost2010Prop42
 90
       50
102
RTVSPost2010PropOp42
 70
     1
102
RTVSPost2010Prop43
 90
        3
102
RTVSPost2010PropOp43
 70
     1
102
RTVSPost2010Prop44ColorIndex
 90
        5
102
RTVSPost2010Prop44ColorRGB
 90
      255
102
RTVSPost2010PropOp44
 70
     1
102
RTVSPost2010Prop45
280
     0
102
RTVSPost2010PropOp45
 70
     1
102
RTVSPost2010Prop46
 90
       50
102
RTVSPost2010PropOp46
 70
     1
102
RTVSPost2010Prop47
 90
       50
102
RTVSPost2010PropOp47
 70
     1
102
RTVSPost2010Prop48
 90
       50
102
RTVSPost2010PropOp48
 70
     1
102
RTVSPost2010Prop49
280
     0
102
RTVSPost2010PropOp49
 70
     1
102
RTVSPost2010Prop50
 90
       50
102
RTVSPost2010PropOp50
 70
     1
102
RTVSPost2010Prop51ColorIndex
 90
      256
102
RTVSPost2010Prop51ColorRGB
 90
-16777216
102
RTVSPost2010PropOp51
 70
     0
102
RTVSPost2010Prop52
140
1.0
102
RTVSPost2010PropOp52
 70
     0
102
RTVSPost2010Prop53
 90
        2
102
RTVSPost2010PropOp53
 70
     1
102
RTVSPost2010Prop54
  1
strokes_ogs.tif
102
RTVSPost2010PropOp54
 70
     1
102
RTVSPost2010Prop55
280
     0
102
RTVSPost2010PropOp55
 70
     1
102
RTVSPost2010Prop56
140
1.0
102
RTVSPost2010PropOp56
 70
     1
102
RTVSPost2010Prop57
140
1.0
102
RTVSPost2010PropOp57
 70
     1
102
RTVSPropertyOp0
 70
     1
102
RTVSPropertyOp1
 70
     1
102
RTVSPropertyOp2
 70
     1
102
RTVSPropertyOp3
 70
     1
102
RTVSPropertyOp4
 70
     1
102
RTVSPropertyOp5
 70
     1
102
RTVSPropertyOp6
 70
     1
102
RTVSPropertyOp7
 70
     1
102
RTVSPropertyOp8
 70
     1
102
RTVSPropertyOp9
 70
     1
102
RTVSPropertyOp10
 70
     1
102
RTVSPropertyOp11
 70
     1
102
RTVSPropertyOp12
 70
     1
102
RTVSPropertyOp13
 70
     1
102
RTVSPropertyOp14
 70
     1
102
RTVSPropertyOp15
 70
     1
102
RTVSPropertyOp16
 70
     1
102
RTVSPropertyOp17
 70
     1
102
RTVSPropertyOp18
 70
     1
102
RTVSPropertyOp19
 70
     1
102
RTVSPropertyOp20
 70
     1
102
RTVSPropertyOp21
 70
     1
102
RTVSPropertyOp22
 70
     1
102
RTVSPropertyOp23
 70
     1
102
RTVSPropertyOp24
 70
     1
102
RTVSPropertyOp25
 70
     1
102
RTVSPropertyOp26
 70
     1
102
RTVSPropertyOp27
 70
     1
102
RTVSPropertyOp28
 70
     1
102
RTVSPropertyOp29
 70
     1
102
RTVSPropertyOp30
 70
     1
102
RTVSPropertyOp31
 70
     1
102
RTVSPropertyOp32
 70
     1
102
RTVSPropertyOp33
 70
     1
102
RTVSPropertyOp34
 70
     1
102
RTVSPropertyOp35
 70
     1
102
RTVSPropertyOp36
 70
     1
102
RTVSPropertyOp37
 70
     1
102
RTVSPropertyOp38
 70
     1
102
RTVSPropertyOp39
 70
     1
102
RTVSPropertyOp40
 70
     1
102
RTVSPropertyOp41
 70
     1
102
RTVSPropertyOp42
 70
     1
102
RTVSPropertyOp43
 70
     1
102
RTVSPropertyOp44
 70
     1
102
RTVSPropertyOp45
 70
     1
102
RTVSPropertyOp46
 70
     1
102
RTVSPropertyOp47
 70
     1
102
RTVSPropertyOp48
 70
     1
102
RTVSPropertyOp49
 70
     1
102
RTVSPropertyOp50
 70
     1
102
RTVSPropertyOp51
 70
     0
102
RTVSPropertyOp52
 70
     0
102
RTVSPropertyOp53
 70
     1
102
RTVSPropertyOp54
 70
     1
102
RTVSPropertyOp55
 70
     1
102
RTVSPropertyOp56
 70
     1
102
RTVSPropertyOp57
 70
     1
102
RTVSPropertyOp58
 70
     1
102
RTVSPropertyOp59
 70
     1
102
RTVSPropertyOp60
 70
     1
102
RTVSPropertyOp61
 70
     1
102
RTVSPropertyOp62
 70
     1
  0
XRECORD
  5
A574
102
{ACAD_REACTORS
330
A573
102
}
330
A573
100
AcDbXrecord
280
     1
102
RTVSPost2010Prop28
280
     0
102
RTVSPost2010PropOp28
 70
     1
102
RTVSPost2010Prop29
280
     1
102
RTVSPost2010PropOp29
 70
     1
102
RTVSPost2010Prop30
280
     1
102
RTVSPost2010PropOp30
 70
     1
102
RTVSPost2010Prop31
280
     0
102
RTVSPost2010PropOp31
 70
     1
102
RTVSPost2010Prop32
280
     0
102
RTVSPost2010PropOp32
 70
     1
102
RTVSPost2010Prop33
280
     0
102
RTVSPost2010PropOp33
 70
     1
102
RTVSPost2010Prop34
280
     0
102
RTVSPost2010PropOp34
 70
     1
102
RTVSPost2010Prop35
280
     0
102
RTVSPost2010PropOp35
 70
     1
102
RTVSPost2010Prop36
280
     0
102
RTVSPost2010PropOp36
 70
     1
102
RTVSPost2010Prop37
 90
       50
102
RTVSPost2010PropOp37
 70
     0
102
RTVSPost2010Prop38
140
0.0
102
RTVSPost2010PropOp38
 70
     0
102
RTVSPost2010Prop39
140
1.0
102
RTVSPost2010PropOp39
 70
     0
102
RTVSPost2010Prop40
 90
        0
102
RTVSPost2010PropOp40
 70
     0
102
RTVSPost2010Prop41ColorIndex
 90
       18
102
RTVSPost2010Prop41ColorRGB
 90
        0
102
RTVSPost2010PropOp41
 70
     0
102
RTVSPost2010Prop42
 90
       50
102
RTVSPost2010PropOp42
 70
     0
102
RTVSPost2010Prop43
 90
        3
102
RTVSPost2010PropOp43
 70
     0
102
RTVSPost2010Prop44ColorIndex
 90
        5
102
RTVSPost2010Prop44ColorRGB
 90
      255
102
RTVSPost2010PropOp44
 70
     0
102
RTVSPost2010Prop45
280
     0
102
RTVSPost2010PropOp45
 70
     1
102
RTVSPost2010Prop46
 90
       50
102
RTVSPost2010PropOp46
 70
     0
102
RTVSPost2010Prop47
 90
       50
102
RTVSPost2010PropOp47
 70
     0
102
RTVSPost2010Prop48
 90
       50
102
RTVSPost2010PropOp48
 70
     0
102
RTVSPost2010Prop49
280
     0
102
RTVSPost2010PropOp49
 70
     1
102
RTVSPost2010Prop50
 90
       50
102
RTVSPost2010PropOp50
 70
     0
102
RTVSPost2010Prop51ColorIndex
 90
      256
102
RTVSPost2010Prop51ColorRGB
 90
-16777216
102
RTVSPost2010PropOp51
 70
     0
102
RTVSPost2010Prop52
140
1.0
102
RTVSPost2010PropOp52
 70
     0
102
RTVSPost2010Prop53
 90
        2
102
RTVSPost2010PropOp53
 70
     0
102
RTVSPost2010Prop54
  1
strokes_ogs.tif
102
RTVSPost2010PropOp54
 70
     0
102
RTVSPost2010Prop55
280
     0
102
RTVSPost2010PropOp55
 70
     1
102
RTVSPost2010Prop56
140
1.0
102
RTVSPost2010PropOp56
 70
     0
102
RTVSPost2010Prop57
140
1.0
102
RTVSPost2010PropOp57
 70
     0
102
RTVSPropertyOp0
 70
     0
102
RTVSPropertyOp1
 70
     0
102
RTVSPropertyOp2
 70
     0
102
RTVSPropertyOp3
 70
     0
102
RTVSPropertyOp4
 70
     0
102
RTVSPropertyOp5
 70
     0
102
RTVSPropertyOp6
 70
     0
102
RTVSPropertyOp7
 70
     0
102
RTVSPropertyOp8
 70
     0
102
RTVSPropertyOp9
 70
     0
102
RTVSPropertyOp10
 70
     0
102
RTVSPropertyOp11
 70
     0
102
RTVSPropertyOp12
 70
     0
102
RTVSPropertyOp13
 70
     0
102
RTVSPropertyOp14
 70
     2
102
RTVSPropertyOp15
 70
     0
102
RTVSPropertyOp16
 70
     0
102
RTVSPropertyOp17
 70
     0
102
RTVSPropertyOp18
 70
     0
102
RTVSPropertyOp19
 70
     0
102
RTVSPropertyOp20
 70
     0
102
RTVSPropertyOp21
 70
     0
102
RTVSPropertyOp22
 70
     0
102
RTVSPropertyOp23
 70
     0
102
RTVSPropertyOp24
 70
     0
102
RTVSPropertyOp25
 70
     0
102
RTVSPropertyOp26
 70
     0
102
RTVSPropertyOp27
 70
     0
102
RTVSPropertyOp28
 70
     1
102
RTVSPropertyOp29
 70
     1
102
RTVSPropertyOp30
 70
     1
102
RTVSPropertyOp31
 70
     1
102
RTVSPropertyOp32
 70
     1
102
RTVSPropertyOp33
 70
     1
102
RTVSPropertyOp34
 70
     1
102
RTVSPropertyOp35
 70
     1
102
RTVSPropertyOp36
 70
     1
102
RTVSPropertyOp37
 70
     0
102
RTVSPropertyOp38
 70
     0
102
RTVSPropertyOp39
 70
     0
102
RTVSPropertyOp40
 70
     0
102
RTVSPropertyOp41
 70
     0
102
RTVSPropertyOp42
 70
     0
102
RTVSPropertyOp43
 70
     0
102
RTVSPropertyOp44
 70
     0
102
RTVSPropertyOp45
 70
     1
102
RTVSPropertyOp46
 70
     0
102
RTVSPropertyOp47
 70
     0
102
RTVSPropertyOp48
 70
     0
102
RTVSPropertyOp49
 70
     1
102
RTVSPropertyOp50
 70
     0
102
RTVSPropertyOp51
 70
     0
102
RTVSPropertyOp52
 70
     0
102
RTVSPropertyOp53
 70
     0
102
RTVSPropertyOp54
 70
     0
102
RTVSPropertyOp55
 70
     1
102
RTVSPropertyOp56
 70
     0
102
RTVSPropertyOp57
 70
     0
102
RTVSPropertyOp58
 70
     0
102
RTVSPropertyOp59
 70
     0
102
RTVSPropertyOp60
 70
     0
102
RTVSPropertyOp61
 70
     0
102
RTVSPropertyOp62
 70
     0
  0
XRECORD
  5
A564
102
{ACAD_REACTORS
330
A563
102
}
330
A563
100
AcDbXrecord
280
     1
102
RTVSPost2010Prop28
280
     0
102
RTVSPost2010PropOp28
 70
     1
102
RTVSPost2010Prop29
280
     1
102
RTVSPost2010PropOp29
 70
     1
102
RTVSPost2010Prop30
280
     1
102
RTVSPost2010PropOp30
 70
     1
102
RTVSPost2010Prop31
280
     0
102
RTVSPost2010PropOp31
 70
     1
102
RTVSPost2010Prop32
280
     0
102
RTVSPost2010PropOp32
 70
     1
102
RTVSPost2010Prop33
280
     0
102
RTVSPost2010PropOp33
 70
     1
102
RTVSPost2010Prop34
280
     0
102
RTVSPost2010PropOp34
 70
     1
102
RTVSPost2010Prop35
280
     0
102
RTVSPost2010PropOp35
 70
     1
102
RTVSPost2010Prop36
280
     0
102
RTVSPost2010PropOp36
 70
     1
102
RTVSPost2010Prop37
 90
       50
102
RTVSPost2010PropOp37
 70
     1
102
RTVSPost2010Prop38
140
0.0
102
RTVSPost2010PropOp38
 70
     1
102
RTVSPost2010Prop39
140
1.0
102
RTVSPost2010PropOp39
 70
     1
102
RTVSPost2010Prop40
 90
        0
102
RTVSPost2010PropOp40
 70
     1
102
RTVSPost2010Prop41ColorIndex
 90
       18
102
RTVSPost2010Prop41ColorRGB
 90
        0
102
RTVSPost2010PropOp41
 70
     1
102
RTVSPost2010Prop42
 90
       50
102
RTVSPost2010PropOp42
 70
     1
102
RTVSPost2010Prop43
 90
        3
102
RTVSPost2010PropOp43
 70
     1
102
RTVSPost2010Prop44ColorIndex
 90
        5
102
RTVSPost2010Prop44ColorRGB
 90
      255
102
RTVSPost2010PropOp44
 70
     1
102
RTVSPost2010Prop45
280
     0
102
RTVSPost2010PropOp45
 70
     1
102
RTVSPost2010Prop46
 90
       50
102
RTVSPost2010PropOp46
 70
     1
102
RTVSPost2010Prop47
 90
       50
102
RTVSPost2010PropOp47
 70
     1
102
RTVSPost2010Prop48
 90
       50
102
RTVSPost2010PropOp48
 70
     1
102
RTVSPost2010Prop49
280
     0
102
RTVSPost2010PropOp49
 70
     1
102
RTVSPost2010Prop50
 90
       50
102
RTVSPost2010PropOp50
 70
     1
102
RTVSPost2010Prop51ColorIndex
 90
      256
102
RTVSPost2010Prop51ColorRGB
 90
-16777216
102
RTVSPost2010PropOp51
 70
     0
102
RTVSPost2010Prop52
140
1.0
102
RTVSPost2010PropOp52
 70
     0
102
RTVSPost2010Prop53
 90
        2
102
RTVSPost2010PropOp53
 70
     1
102
RTVSPost2010Prop54
  1
strokes_ogs.tif
102
RTVSPost2010PropOp54
 70
     1
102
RTVSPost2010Prop55
280
     0
102
RTVSPost2010PropOp55
 70
     1
102
RTVSPost2010Prop56
140
1.0
102
RTVSPost2010PropOp56
 70
     1
102
RTVSPost2010Prop57
140
1.0
102
RTVSPost2010PropOp57
 70
     1
102
RTVSPropertyOp0
 70
     1
102
RTVSPropertyOp1
 70
     1
102
RTVSPropertyOp2
 70
     1
102
RTVSPropertyOp3
 70
     1
102
RTVSPropertyOp4
 70
     1
102
RTVSPropertyOp5
 70
     1
102
RTVSPropertyOp6
 70
     1
102
RTVSPropertyOp7
 70
     1
102
RTVSPropertyOp8
 70
     1
102
RTVSPropertyOp9
 70
     1
102
RTVSPropertyOp10
 70
     1
102
RTVSPropertyOp11
 70
     1
102
RTVSPropertyOp12
 70
     1
102
RTVSPropertyOp13
 70
     1
102
RTVSPropertyOp14
 70
     1
102
RTVSPropertyOp15
 70
     1
102
RTVSPropertyOp16
 70
     1
102
RTVSPropertyOp17
 70
     1
102
RTVSPropertyOp18
 70
     1
102
RTVSPropertyOp19
 70
     1
102
RTVSPropertyOp20
 70
     1
102
RTVSPropertyOp21
 70
     1
102
RTVSPropertyOp22
 70
     1
102
RTVSPropertyOp23
 70
     1
102
RTVSPropertyOp24
 70
     1
102
RTVSPropertyOp25
 70
     1
102
RTVSPropertyOp26
 70
     1
102
RTVSPropertyOp27
 70
     1
102
RTVSPropertyOp28
 70
     1
102
RTVSPropertyOp29
 70
     1
102
RTVSPropertyOp30
 70
     1
102
RTVSPropertyOp31
 70
     1
102
RTVSPropertyOp32
 70
     1
102
RTVSPropertyOp33
 70
     1
102
RTVSPropertyOp34
 70
     1
102
RTVSPropertyOp35
 70
     1
102
RTVSPropertyOp36
 70
     1
102
RTVSPropertyOp37
 70
     1
102
RTVSPropertyOp38
 70
     1
102
RTVSPropertyOp39
 70
     1
102
RTVSPropertyOp40
 70
     1
102
RTVSPropertyOp41
 70
     1
102
RTVSPropertyOp42
 70
     1
102
RTVSPropertyOp43
 70
     1
102
RTVSPropertyOp44
 70
     1
102
RTVSPropertyOp45
 70
     1
102
RTVSPropertyOp46
 70
     1
102
RTVSPropertyOp47
 70
     1
102
RTVSPropertyOp48
 70
     1
102
RTVSPropertyOp49
 70
     1
102
RTVSPropertyOp50
 70
     1
102
RTVSPropertyOp51
 70
     0
102
RTVSPropertyOp52
 70
     0
102
RTVSPropertyOp53
 70
     1
102
RTVSPropertyOp54
 70
     1
102
RTVSPropertyOp55
 70
     1
102
RTVSPropertyOp56
 70
     1
102
RTVSPropertyOp57
 70
     1
102
RTVSPropertyOp58
 70
     1
102
RTVSPropertyOp59
 70
     1
102
RTVSPropertyOp60
 70
     1
102
RTVSPropertyOp61
 70
     1
102
RTVSPropertyOp62
 70
     1
  0
XRECORD
  5
A576
102
{ACAD_REACTORS
330
A575
102
}
330
A575
100
AcDbXrecord
280
     1
102
RTVSPost2010Prop28
280
     0
102
RTVSPost2010PropOp28
 70
     1
102
RTVSPost2010Prop29
280
     1
102
RTVSPost2010PropOp29
 70
     1
102
RTVSPost2010Prop30
280
     1
102
RTVSPost2010PropOp30
 70
     1
102
RTVSPost2010Prop31
280
     0
102
RTVSPost2010PropOp31
 70
     1
102
RTVSPost2010Prop32
280
     0
102
RTVSPost2010PropOp32
 70
     1
102
RTVSPost2010Prop33
280
     0
102
RTVSPost2010PropOp33
 70
     1
102
RTVSPost2010Prop34
280
     0
102
RTVSPost2010PropOp34
 70
     1
102
RTVSPost2010Prop35
280
     0
102
RTVSPost2010PropOp35
 70
     1
102
RTVSPost2010Prop36
280
     0
102
RTVSPost2010PropOp36
 70
     1
102
RTVSPost2010Prop37
 90
       50
102
RTVSPost2010PropOp37
 70
     0
102
RTVSPost2010Prop38
140
0.0
102
RTVSPost2010PropOp38
 70
     0
102
RTVSPost2010Prop39
140
1.0
102
RTVSPost2010PropOp39
 70
     0
102
RTVSPost2010Prop40
 90
        0
102
RTVSPost2010PropOp40
 70
     0
102
RTVSPost2010Prop41ColorIndex
 90
       18
102
RTVSPost2010Prop41ColorRGB
 90
        0
102
RTVSPost2010PropOp41
 70
     0
102
RTVSPost2010Prop42
 90
       50
102
RTVSPost2010PropOp42
 70
     0
102
RTVSPost2010Prop43
 90
        3
102
RTVSPost2010PropOp43
 70
     0
102
RTVSPost2010Prop44ColorIndex
 90
        5
102
RTVSPost2010Prop44ColorRGB
 90
      255
102
RTVSPost2010PropOp44
 70
     0
102
RTVSPost2010Prop45
280
     0
102
RTVSPost2010PropOp45
 70
     1
102
RTVSPost2010Prop46
 90
       50
102
RTVSPost2010PropOp46
 70
     0
102
RTVSPost2010Prop47
 90
       50
102
RTVSPost2010PropOp47
 70
     0
102
RTVSPost2010Prop48
 90
       50
102
RTVSPost2010PropOp48
 70
     0
102
RTVSPost2010Prop49
280
     0
102
RTVSPost2010PropOp49
 70
     1
102
RTVSPost2010Prop50
 90
       50
102
RTVSPost2010PropOp50
 70
     0
102
RTVSPost2010Prop51ColorIndex
 90
      256
102
RTVSPost2010Prop51ColorRGB
 90
-16777216
102
RTVSPost2010PropOp51
 70
     0
102
RTVSPost2010Prop52
140
1.0
102
RTVSPost2010PropOp52
 70
     0
102
RTVSPost2010Prop53
 90
        2
102
RTVSPost2010PropOp53
 70
     0
102
RTVSPost2010Prop54
  1
strokes_ogs.tif
102
RTVSPost2010PropOp54
 70
     0
102
RTVSPost2010Prop55
280
     0
102
RTVSPost2010PropOp55
 70
     1
102
RTVSPost2010Prop56
140
1.0
102
RTVSPost2010PropOp56
 70
     0
102
RTVSPost2010Prop57
140
1.0
102
RTVSPost2010PropOp57
 70
     0
102
RTVSPropertyOp0
 70
     0
102
RTVSPropertyOp1
 70
     0
102
RTVSPropertyOp2
 70
     0
102
RTVSPropertyOp3
 70
     0
102
RTVSPropertyOp4
 70
     0
102
RTVSPropertyOp5
 70
     0
102
RTVSPropertyOp6
 70
     0
102
RTVSPropertyOp7
 70
     0
102
RTVSPropertyOp8
 70
     0
102
RTVSPropertyOp9
 70
     0
102
RTVSPropertyOp10
 70
     0
102
RTVSPropertyOp11
 70
     0
102
RTVSPropertyOp12
 70
     0
102
RTVSPropertyOp13
 70
     0
102
RTVSPropertyOp14
 70
     2
102
RTVSPropertyOp15
 70
     0
102
RTVSPropertyOp16
 70
     0
102
RTVSPropertyOp17
 70
     0
102
RTVSPropertyOp18
 70
     0
102
RTVSPropertyOp19
 70
     0
102
RTVSPropertyOp20
 70
     0
102
RTVSPropertyOp21
 70
     0
102
RTVSPropertyOp22
 70
     0
102
RTVSPropertyOp23
 70
     0
102
RTVSPropertyOp24
 70
     0
102
RTVSPropertyOp25
 70
     0
102
RTVSPropertyOp26
 70
     0
102
RTVSPropertyOp27
 70
     0
102
RTVSPropertyOp28
 70
     1
102
RTVSPropertyOp29
 70
     1
102
RTVSPropertyOp30
 70
     1
102
RTVSPropertyOp31
 70
     1
102
RTVSPropertyOp32
 70
     1
102
RTVSPropertyOp33
 70
     1
102
RTVSPropertyOp34
 70
     1
102
RTVSPropertyOp35
 70
     1
102
RTVSPropertyOp36
 70
     1
102
RTVSPropertyOp37
 70
     0
102
RTVSPropertyOp38
 70
     0
102
RTVSPropertyOp39
 70
     0
102
RTVSPropertyOp40
 70
     0
102
RTVSPropertyOp41
 70
     0
102
RTVSPropertyOp42
 70
     0
102
RTVSPropertyOp43
 70
     0
102
RTVSPropertyOp44
 70
     0
102
RTVSPropertyOp45
 70
     1
102
RTVSPropertyOp46
 70
     0
102
RTVSPropertyOp47
 70
     0
102
RTVSPropertyOp48
 70
     0
102
RTVSPropertyOp49
 70
     1
102
RTVSPropertyOp50
 70
     0
102
RTVSPropertyOp51
 70
     0
102
RTVSPropertyOp52
 70
     0
102
RTVSPropertyOp53
 70
     0
102
RTVSPropertyOp54
 70
     0
102
RTVSPropertyOp55
 70
     1
102
RTVSPropertyOp56
 70
     0
102
RTVSPropertyOp57
 70
     0
102
RTVSPropertyOp58
 70
     0
102
RTVSPropertyOp59
 70
     0
102
RTVSPropertyOp60
 70
     0
102
RTVSPropertyOp61
 70
     0
102
RTVSPropertyOp62
 70
     0
  0
XRECORD
  5
A55C
102
{ACAD_REACTORS
330
A55B
102
}
330
A55B
100
AcDbXrecord
280
     1
102
RTVSPost2010Prop28
280
     0
102
RTVSPost2010PropOp28
 70
     1
102
RTVSPost2010Prop29
280
     1
102
RTVSPost2010PropOp29
 70
     1
102
RTVSPost2010Prop30
280
     1
102
RTVSPost2010PropOp30
 70
     1
102
RTVSPost2010Prop31
280
     0
102
RTVSPost2010PropOp31
 70
     1
102
RTVSPost2010Prop32
280
     0
102
RTVSPost2010PropOp32
 70
     1
102
RTVSPost2010Prop33
280
     0
102
RTVSPost2010PropOp33
 70
     1
102
RTVSPost2010Prop34
280
     0
102
RTVSPost2010PropOp34
 70
     1
102
RTVSPost2010Prop35
280
     0
102
RTVSPost2010PropOp35
 70
     1
102
RTVSPost2010Prop36
280
     0
102
RTVSPost2010PropOp36
 70
     1
102
RTVSPost2010Prop37
 90
       50
102
RTVSPost2010PropOp37
 70
     1
102
RTVSPost2010Prop38
140
0.0
102
RTVSPost2010PropOp38
 70
     1
102
RTVSPost2010Prop39
140
1.0
102
RTVSPost2010PropOp39
 70
     1
102
RTVSPost2010Prop40
 90
        0
102
RTVSPost2010PropOp40
 70
     1
102
RTVSPost2010Prop41ColorIndex
 90
       18
102
RTVSPost2010Prop41ColorRGB
 90
        0
102
RTVSPost2010PropOp41
 70
     1
102
RTVSPost2010Prop42
 90
       50
102
RTVSPost2010PropOp42
 70
     1
102
RTVSPost2010Prop43
 90
        3
102
RTVSPost2010PropOp43
 70
     1
102
RTVSPost2010Prop44ColorIndex
 90
        5
102
RTVSPost2010Prop44ColorRGB
 90
      255
102
RTVSPost2010PropOp44
 70
     1
102
RTVSPost2010Prop45
280
     0
102
RTVSPost2010PropOp45
 70
     1
102
RTVSPost2010Prop46
 90
       50
102
RTVSPost2010PropOp46
 70
     1
102
RTVSPost2010Prop47
 90
       50
102
RTVSPost2010PropOp47
 70
     1
102
RTVSPost2010Prop48
 90
       50
102
RTVSPost2010PropOp48
 70
     1
102
RTVSPost2010Prop49
280
     0
102
RTVSPost2010PropOp49
 70
     1
102
RTVSPost2010Prop50
 90
       50
102
RTVSPost2010PropOp50
 70
     1
102
RTVSPost2010Prop51ColorIndex
 90
      256
102
RTVSPost2010Prop51ColorRGB
 90
-16777216
102
RTVSPost2010PropOp51
 70
     0
102
RTVSPost2010Prop52
140
1.0
102
RTVSPost2010PropOp52
 70
     0
102
RTVSPost2010Prop53
 90
        2
102
RTVSPost2010PropOp53
 70
     1
102
RTVSPost2010Prop54
  1
strokes_ogs.tif
102
RTVSPost2010PropOp54
 70
     1
102
RTVSPost2010Prop55
280
     0
102
RTVSPost2010PropOp55
 70
     1
102
RTVSPost2010Prop56
140
1.0
102
RTVSPost2010PropOp56
 70
     1
102
RTVSPost2010Prop57
140
1.0
102
RTVSPost2010PropOp57
 70
     1
102
RTVSPropertyOp0
 70
     1
102
RTVSPropertyOp1
 70
     1
102
RTVSPropertyOp2
 70
     1
102
RTVSPropertyOp3
 70
     1
102
RTVSPropertyOp4
 70
     1
102
RTVSPropertyOp5
 70
     1
102
RTVSPropertyOp6
 70
     1
102
RTVSPropertyOp7
 70
     1
102
RTVSPropertyOp8
 70
     1
102
RTVSPropertyOp9
 70
     1
102
RTVSPropertyOp10
 70
     1
102
RTVSPropertyOp11
 70
     1
102
RTVSPropertyOp12
 70
     1
102
RTVSPropertyOp13
 70
     1
102
RTVSPropertyOp14
 70
     1
102
RTVSPropertyOp15
 70
     1
102
RTVSPropertyOp16
 70
     1
102
RTVSPropertyOp17
 70
     1
102
RTVSPropertyOp18
 70
     1
102
RTVSPropertyOp19
 70
     1
102
RTVSPropertyOp20
 70
     1
102
RTVSPropertyOp21
 70
     1
102
RTVSPropertyOp22
 70
     1
102
RTVSPropertyOp23
 70
     1
102
RTVSPropertyOp24
 70
     1
102
RTVSPropertyOp25
 70
     1
102
RTVSPropertyOp26
 70
     1
102
RTVSPropertyOp27
 70
     1
102
RTVSPropertyOp28
 70
     1
102
RTVSPropertyOp29
 70
     1
102
RTVSPropertyOp30
 70
     1
102
RTVSPropertyOp31
 70
     1
102
RTVSPropertyOp32
 70
     1
102
RTVSPropertyOp33
 70
     1
102
RTVSPropertyOp34
 70
     1
102
RTVSPropertyOp35
 70
     1
102
RTVSPropertyOp36
 70
     1
102
RTVSPropertyOp37
 70
     1
102
RTVSPropertyOp38
 70
     1
102
RTVSPropertyOp39
 70
     1
102
RTVSPropertyOp40
 70
     1
102
RTVSPropertyOp41
 70
     1
102
RTVSPropertyOp42
 70
     1
102
RTVSPropertyOp43
 70
     1
102
RTVSPropertyOp44
 70
     1
102
RTVSPropertyOp45
 70
     1
102
RTVSPropertyOp46
 70
     1
102
RTVSPropertyOp47
 70
     1
102
RTVSPropertyOp48
 70
     1
102
RTVSPropertyOp49
 70
     1
102
RTVSPropertyOp50
 70
     1
102
RTVSPropertyOp51
 70
     0
102
RTVSPropertyOp52
 70
     0
102
RTVSPropertyOp53
 70
     1
102
RTVSPropertyOp54
 70
     1
102
RTVSPropertyOp55
 70
     1
102
RTVSPropertyOp56
 70
     1
102
RTVSPropertyOp57
 70
     1
102
RTVSPropertyOp58
 70
     1
102
RTVSPropertyOp59
 70
     1
102
RTVSPropertyOp60
 70
     1
102
RTVSPropertyOp61
 70
     1
102
RTVSPropertyOp62
 70
     1
  0
XRECORD
  5
A572
102
{ACAD_REACTORS
330
A571
102
}
330
A571
100
AcDbXrecord
280
     1
102
RTVSPost2010Prop28
280
     0
102
RTVSPost2010PropOp28
 70
     1
102
RTVSPost2010Prop29
280
     1
102
RTVSPost2010PropOp29
 70
     1
102
RTVSPost2010Prop30
280
     1
102
RTVSPost2010PropOp30
 70
     1
102
RTVSPost2010Prop31
280
     0
102
RTVSPost2010PropOp31
 70
     1
102
RTVSPost2010Prop32
280
     0
102
RTVSPost2010PropOp32
 70
     1
102
RTVSPost2010Prop33
280
     0
102
RTVSPost2010PropOp33
 70
     1
102
RTVSPost2010Prop34
280
     0
102
RTVSPost2010PropOp34
 70
     1
102
RTVSPost2010Prop35
280
     0
102
RTVSPost2010PropOp35
 70
     1
102
RTVSPost2010Prop36
280
     0
102
RTVSPost2010PropOp36
 70
     1
102
RTVSPost2010Prop37
 90
       50
102
RTVSPost2010PropOp37
 70
     1
102
RTVSPost2010Prop38
140
0.0
102
RTVSPost2010PropOp38
 70
     1
102
RTVSPost2010Prop39
140
1.0
102
RTVSPost2010PropOp39
 70
     1
102
RTVSPost2010Prop40
 90
        0
102
RTVSPost2010PropOp40
 70
     1
102
RTVSPost2010Prop41ColorIndex
 90
       18
102
RTVSPost2010Prop41ColorRGB
 90
        0
102
RTVSPost2010PropOp41
 70
     1
102
RTVSPost2010Prop42
 90
       50
102
RTVSPost2010PropOp42
 70
     1
102
RTVSPost2010Prop43
 90
        3
102
RTVSPost2010PropOp43
 70
     1
102
RTVSPost2010Prop44ColorIndex
 90
        5
102
RTVSPost2010Prop44ColorRGB
 90
      255
102
RTVSPost2010PropOp44
 70
     1
102
RTVSPost2010Prop45
280
     0
102
RTVSPost2010PropOp45
 70
     1
102
RTVSPost2010Prop46
 90
       50
102
RTVSPost2010PropOp46
 70
     1
102
RTVSPost2010Prop47
 90
       50
102
RTVSPost2010PropOp47
 70
     1
102
RTVSPost2010Prop48
 90
       50
102
RTVSPost2010PropOp48
 70
     1
102
RTVSPost2010Prop49
280
     0
102
RTVSPost2010PropOp49
 70
     1
102
RTVSPost2010Prop50
 90
       50
102
RTVSPost2010PropOp50
 70
     1
102
RTVSPost2010Prop51ColorIndex
 90
      256
102
RTVSPost2010Prop51ColorRGB
 90
-16777216
102
RTVSPost2010PropOp51
 70
     0
102
RTVSPost2010Prop52
140
1.0
102
RTVSPost2010PropOp52
 70
     0
102
RTVSPost2010Prop53
 90
        2
102
RTVSPost2010PropOp53
 70
     1
102
RTVSPost2010Prop54
  1
strokes_ogs.tif
102
RTVSPost2010PropOp54
 70
     1
102
RTVSPost2010Prop55
280
     0
102
RTVSPost2010PropOp55
 70
     1
102
RTVSPost2010Prop56
140
1.0
102
RTVSPost2010PropOp56
 70
     1
102
RTVSPost2010Prop57
140
1.0
102
RTVSPost2010PropOp57
 70
     1
102
RTVSPropertyOp0
 70
     1
102
RTVSPropertyOp1
 70
     1
102
RTVSPropertyOp2
 70
     1
102
RTVSPropertyOp3
 70
     1
102
RTVSPropertyOp4
 70
     1
102
RTVSPropertyOp5
 70
     1
102
RTVSPropertyOp6
 70
     1
102
RTVSPropertyOp7
 70
     1
102
RTVSPropertyOp8
 70
     1
102
RTVSPropertyOp9
 70
     1
102
RTVSPropertyOp10
 70
     1
102
RTVSPropertyOp11
 70
     1
102
RTVSPropertyOp12
 70
     1
102
RTVSPropertyOp13
 70
     1
102
RTVSPropertyOp14
 70
     1
102
RTVSPropertyOp15
 70
     1
102
RTVSPropertyOp16
 70
     1
102
RTVSPropertyOp17
 70
     1
102
RTVSPropertyOp18
 70
     1
102
RTVSPropertyOp19
 70
     1
102
RTVSPropertyOp20
 70
     1
102
RTVSPropertyOp21
 70
     1
102
RTVSPropertyOp22
 70
     1
102
RTVSPropertyOp23
 70
     1
102
RTVSPropertyOp24
 70
     1
102
RTVSPropertyOp25
 70
     1
102
RTVSPropertyOp26
 70
     1
102
RTVSPropertyOp27
 70
     1
102
RTVSPropertyOp28
 70
     1
102
RTVSPropertyOp29
 70
     1
102
RTVSPropertyOp30
 70
     1
102
RTVSPropertyOp31
 70
     1
102
RTVSPropertyOp32
 70
     1
102
RTVSPropertyOp33
 70
     1
102
RTVSPropertyOp34
 70
     1
102
RTVSPropertyOp35
 70
     1
102
RTVSPropertyOp36
 70
     1
102
RTVSPropertyOp37
 70
     1
102
RTVSPropertyOp38
 70
     1
102
RTVSPropertyOp39
 70
     1
102
RTVSPropertyOp40
 70
     1
102
RTVSPropertyOp41
 70
     1
102
RTVSPropertyOp42
 70
     1
102
RTVSPropertyOp43
 70
     1
102
RTVSPropertyOp44
 70
     1
102
RTVSPropertyOp45
 70
     1
102
RTVSPropertyOp46
 70
     1
102
RTVSPropertyOp47
 70
     1
102
RTVSPropertyOp48
 70
     1
102
RTVSPropertyOp49
 70
     1
102
RTVSPropertyOp50
 70
     1
102
RTVSPropertyOp51
 70
     0
102
RTVSPropertyOp52
 70
     0
102
RTVSPropertyOp53
 70
     1
102
RTVSPropertyOp54
 70
     1
102
RTVSPropertyOp55
 70
     1
102
RTVSPropertyOp56
 70
     1
102
RTVSPropertyOp57
 70
     1
102
RTVSPropertyOp58
 70
     1
102
RTVSPropertyOp59
 70
     1
102
RTVSPropertyOp60
 70
     1
102
RTVSPropertyOp61
 70
     1
102
RTVSPropertyOp62
 70
     1
  0
XRECORD
  5
A570
102
{ACAD_REACTORS
330
A56F
102
}
330
A56F
100
AcDbXrecord
280
     1
102
RTVSPost2010Prop28
280
     0
102
RTVSPost2010PropOp28
 70
     1
102
RTVSPost2010Prop29
280
     1
102
RTVSPost2010PropOp29
 70
     1
102
RTVSPost2010Prop30
280
     1
102
RTVSPost2010PropOp30
 70
     1
102
RTVSPost2010Prop31
280
     0
102
RTVSPost2010PropOp31
 70
     1
102
RTVSPost2010Prop32
280
     0
102
RTVSPost2010PropOp32
 70
     1
102
RTVSPost2010Prop33
280
     0
102
RTVSPost2010PropOp33
 70
     1
102
RTVSPost2010Prop34
280
     0
102
RTVSPost2010PropOp34
 70
     1
102
RTVSPost2010Prop35
280
     0
102
RTVSPost2010PropOp35
 70
     1
102
RTVSPost2010Prop36
280
     0
102
RTVSPost2010PropOp36
 70
     1
102
RTVSPost2010Prop37
 90
       50
102
RTVSPost2010PropOp37
 70
     1
102
RTVSPost2010Prop38
140
0.0
102
RTVSPost2010PropOp38
 70
     1
102
RTVSPost2010Prop39
140
1.0
102
RTVSPost2010PropOp39
 70
     1
102
RTVSPost2010Prop40
 90
        0
102
RTVSPost2010PropOp40
 70
     1
102
RTVSPost2010Prop41ColorIndex
 90
       18
102
RTVSPost2010Prop41ColorRGB
 90
        0
102
RTVSPost2010PropOp41
 70
     1
102
RTVSPost2010Prop42
 90
       50
102
RTVSPost2010PropOp42
 70
     1
102
RTVSPost2010Prop43
 90
        3
102
RTVSPost2010PropOp43
 70
     1
102
RTVSPost2010Prop44ColorIndex
 90
        5
102
RTVSPost2010Prop44ColorRGB
 90
      255
102
RTVSPost2010PropOp44
 70
     1
102
RTVSPost2010Prop45
280
     0
102
RTVSPost2010PropOp45
 70
     1
102
RTVSPost2010Prop46
 90
       50
102
RTVSPost2010PropOp46
 70
     1
102
RTVSPost2010Prop47
 90
       50
102
RTVSPost2010PropOp47
 70
     1
102
RTVSPost2010Prop48
 90
       50
102
RTVSPost2010PropOp48
 70
     1
102
RTVSPost2010Prop49
280
     0
102
RTVSPost2010PropOp49
 70
     1
102
RTVSPost2010Prop50
 90
       50
102
RTVSPost2010PropOp50
 70
     1
102
RTVSPost2010Prop51ColorIndex
 90
      256
102
RTVSPost2010Prop51ColorRGB
 90
-16777216
102
RTVSPost2010PropOp51
 70
     0
102
RTVSPost2010Prop52
140
1.0
102
RTVSPost2010PropOp52
 70
     0
102
RTVSPost2010Prop53
 90
        2
102
RTVSPost2010PropOp53
 70
     1
102
RTVSPost2010Prop54
  1
strokes_ogs.tif
102
RTVSPost2010PropOp54
 70
     1
102
RTVSPost2010Prop55
280
     0
102
RTVSPost2010PropOp55
 70
     1
102
RTVSPost2010Prop56
140
1.0
102
RTVSPost2010PropOp56
 70
     1
102
RTVSPost2010Prop57
140
1.0
102
RTVSPost2010PropOp57
 70
     1
102
RTVSPropertyOp0
 70
     1
102
RTVSPropertyOp1
 70
     1
102
RTVSPropertyOp2
 70
     1
102
RTVSPropertyOp3
 70
     1
102
RTVSPropertyOp4
 70
     1
102
RTVSPropertyOp5
 70
     1
102
RTVSPropertyOp6
 70
     1
102
RTVSPropertyOp7
 70
     1
102
RTVSPropertyOp8
 70
     1
102
RTVSPropertyOp9
 70
     1
102
RTVSPropertyOp10
 70
     1
102
RTVSPropertyOp11
 70
     1
102
RTVSPropertyOp12
 70
     1
102
RTVSPropertyOp13
 70
     1
102
RTVSPropertyOp14
 70
     1
102
RTVSPropertyOp15
 70
     1
102
RTVSPropertyOp16
 70
     1
102
RTVSPropertyOp17
 70
     1
102
RTVSPropertyOp18
 70
     1
102
RTVSPropertyOp19
 70
     1
102
RTVSPropertyOp20
 70
     1
102
RTVSPropertyOp21
 70
     1
102
RTVSPropertyOp22
 70
     1
102
RTVSPropertyOp23
 70
     1
102
RTVSPropertyOp24
 70
     1
102
RTVSPropertyOp25
 70
     1
102
RTVSPropertyOp26
 70
     1
102
RTVSPropertyOp27
 70
     1
102
RTVSPropertyOp28
 70
     1
102
RTVSPropertyOp29
 70
     1
102
RTVSPropertyOp30
 70
     1
102
RTVSPropertyOp31
 70
     1
102
RTVSPropertyOp32
 70
     1
102
RTVSPropertyOp33
 70
     1
102
RTVSPropertyOp34
 70
     1
102
RTVSPropertyOp35
 70
     1
102
RTVSPropertyOp36
 70
     1
102
RTVSPropertyOp37
 70
     1
102
RTVSPropertyOp38
 70
     1
102
RTVSPropertyOp39
 70
     1
102
RTVSPropertyOp40
 70
     1
102
RTVSPropertyOp41
 70
     1
102
RTVSPropertyOp42
 70
     1
102
RTVSPropertyOp43
 70
     1
102
RTVSPropertyOp44
 70
     1
102
RTVSPropertyOp45
 70
     1
102
RTVSPropertyOp46
 70
     1
102
RTVSPropertyOp47
 70
     1
102
RTVSPropertyOp48
 70
     1
102
RTVSPropertyOp49
 70
     1
102
RTVSPropertyOp50
 70
     1
102
RTVSPropertyOp51
 70
     0
102
RTVSPropertyOp52
 70
     0
102
RTVSPropertyOp53
 70
     1
102
RTVSPropertyOp54
 70
     1
102
RTVSPropertyOp55
 70
     1
102
RTVSPropertyOp56
 70
     1
102
RTVSPropertyOp57
 70
     1
102
RTVSPropertyOp58
 70
     1
102
RTVSPropertyOp59
 70
     1
102
RTVSPropertyOp60
 70
     1
102
RTVSPropertyOp61
 70
     1
102
RTVSPropertyOp62
 70
     1
  0
XRECORD
  5
A56A
102
{ACAD_REACTORS
330
A569
102
}
330
A569
100
AcDbXrecord
280
     1
102
RTVSPost2010Prop28
280
     0
102
RTVSPost2010PropOp28
 70
     1
102
RTVSPost2010Prop29
280
     1
102
RTVSPost2010PropOp29
 70
     1
102
RTVSPost2010Prop30
280
     1
102
RTVSPost2010PropOp30
 70
     1
102
RTVSPost2010Prop31
280
     0
102
RTVSPost2010PropOp31
 70
     1
102
RTVSPost2010Prop32
280
     0
102
RTVSPost2010PropOp32
 70
     1
102
RTVSPost2010Prop33
280
     0
102
RTVSPost2010PropOp33
 70
     1
102
RTVSPost2010Prop34
280
     0
102
RTVSPost2010PropOp34
 70
     1
102
RTVSPost2010Prop35
280
     0
102
RTVSPost2010PropOp35
 70
     1
102
RTVSPost2010Prop36
280
     0
102
RTVSPost2010PropOp36
 70
     1
102
RTVSPost2010Prop37
 90
       50
102
RTVSPost2010PropOp37
 70
     1
102
RTVSPost2010Prop38
140
0.0
102
RTVSPost2010PropOp38
 70
     1
102
RTVSPost2010Prop39
140
1.0
102
RTVSPost2010PropOp39
 70
     1
102
RTVSPost2010Prop40
 90
        0
102
RTVSPost2010PropOp40
 70
     1
102
RTVSPost2010Prop41ColorIndex
 90
       18
102
RTVSPost2010Prop41ColorRGB
 90
        0
102
RTVSPost2010PropOp41
 70
     1
102
RTVSPost2010Prop42
 90
       50
102
RTVSPost2010PropOp42
 70
     1
102
RTVSPost2010Prop43
 90
        3
102
RTVSPost2010PropOp43
 70
     1
102
RTVSPost2010Prop44ColorIndex
 90
        5
102
RTVSPost2010Prop44ColorRGB
 90
      255
102
RTVSPost2010PropOp44
 70
     1
102
RTVSPost2010Prop45
280
     0
102
RTVSPost2010PropOp45
 70
     1
102
RTVSPost2010Prop46
 90
       50
102
RTVSPost2010PropOp46
 70
     1
102
RTVSPost2010Prop47
 90
       50
102
RTVSPost2010PropOp47
 70
     1
102
RTVSPost2010Prop48
 90
       50
102
RTVSPost2010PropOp48
 70
     1
102
RTVSPost2010Prop49
280
     0
102
RTVSPost2010PropOp49
 70
     1
102
RTVSPost2010Prop50
 90
       50
102
RTVSPost2010PropOp50
 70
     1
102
RTVSPost2010Prop51ColorIndex
 90
      256
102
RTVSPost2010Prop51ColorRGB
 90
-16777216
102
RTVSPost2010PropOp51
 70
     0
102
RTVSPost2010Prop52
140
1.0
102
RTVSPost2010PropOp52
 70
     0
102
RTVSPost2010Prop53
 90
        2
102
RTVSPost2010PropOp53
 70
     1
102
RTVSPost2010Prop54
  1
strokes_ogs.tif
102
RTVSPost2010PropOp54
 70
     1
102
RTVSPost2010Prop55
280
     0
102
RTVSPost2010PropOp55
 70
     1
102
RTVSPost2010Prop56
140
1.0
102
RTVSPost2010PropOp56
 70
     1
102
RTVSPost2010Prop57
140
1.0
102
RTVSPost2010PropOp57
 70
     1
102
RTVSPropertyOp0
 70
     1
102
RTVSPropertyOp1
 70
     1
102
RTVSPropertyOp2
 70
     1
102
RTVSPropertyOp3
 70
     1
102
RTVSPropertyOp4
 70
     1
102
RTVSPropertyOp5
 70
     1
102
RTVSPropertyOp6
 70
     1
102
RTVSPropertyOp7
 70
     1
102
RTVSPropertyOp8
 70
     1
102
RTVSPropertyOp9
 70
     1
102
RTVSPropertyOp10
 70
     1
102
RTVSPropertyOp11
 70
     1
102
RTVSPropertyOp12
 70
     1
102
RTVSPropertyOp13
 70
     1
102
RTVSPropertyOp14
 70
     1
102
RTVSPropertyOp15
 70
     1
102
RTVSPropertyOp16
 70
     1
102
RTVSPropertyOp17
 70
     1
102
RTVSPropertyOp18
 70
     1
102
RTVSPropertyOp19
 70
     1
102
RTVSPropertyOp20
 70
     1
102
RTVSPropertyOp21
 70
     1
102
RTVSPropertyOp22
 70
     1
102
RTVSPropertyOp23
 70
     1
102
RTVSPropertyOp24
 70
     1
102
RTVSPropertyOp25
 70
     1
102
RTVSPropertyOp26
 70
     1
102
RTVSPropertyOp27
 70
     1
102
RTVSPropertyOp28
 70
     1
102
RTVSPropertyOp29
 70
     1
102
RTVSPropertyOp30
 70
     1
102
RTVSPropertyOp31
 70
     1
102
RTVSPropertyOp32
 70
     1
102
RTVSPropertyOp33
 70
     1
102
RTVSPropertyOp34
 70
     1
102
RTVSPropertyOp35
 70
     1
102
RTVSPropertyOp36
 70
     1
102
RTVSPropertyOp37
 70
     1
102
RTVSPropertyOp38
 70
     1
102
RTVSPropertyOp39
 70
     1
102
RTVSPropertyOp40
 70
     1
102
RTVSPropertyOp41
 70
     1
102
RTVSPropertyOp42
 70
     1
102
RTVSPropertyOp43
 70
     1
102
RTVSPropertyOp44
 70
     1
102
RTVSPropertyOp45
 70
     1
102
RTVSPropertyOp46
 70
     1
102
RTVSPropertyOp47
 70
     1
102
RTVSPropertyOp48
 70
     1
102
RTVSPropertyOp49
 70
     1
102
RTVSPropertyOp50
 70
     1
102
RTVSPropertyOp51
 70
     0
102
RTVSPropertyOp52
 70
     0
102
RTVSPropertyOp53
 70
     1
102
RTVSPropertyOp54
 70
     1
102
RTVSPropertyOp55
 70
     1
102
RTVSPropertyOp56
 70
     1
102
RTVSPropertyOp57
 70
     1
102
RTVSPropertyOp58
 70
     1
102
RTVSPropertyOp59
 70
     1
102
RTVSPropertyOp60
 70
     1
102
RTVSPropertyOp61
 70
     1
102
RTVSPropertyOp62
 70
     1
  0
XRECORD
  5
A56C
102
{ACAD_REACTORS
330
A56B
102
}
330
A56B
100
AcDbXrecord
280
     1
102
RTVSPost2010Prop28
280
     0
102
RTVSPost2010PropOp28
 70
     1
102
RTVSPost2010Prop29
280
     1
102
RTVSPost2010PropOp29
 70
     1
102
RTVSPost2010Prop30
280
     1
102
RTVSPost2010PropOp30
 70
     1
102
RTVSPost2010Prop31
280
     0
102
RTVSPost2010PropOp31
 70
     1
102
RTVSPost2010Prop32
280
     0
102
RTVSPost2010PropOp32
 70
     1
102
RTVSPost2010Prop33
280
     0
102
RTVSPost2010PropOp33
 70
     1
102
RTVSPost2010Prop34
280
     0
102
RTVSPost2010PropOp34
 70
     1
102
RTVSPost2010Prop35
280
     0
102
RTVSPost2010PropOp35
 70
     1
102
RTVSPost2010Prop36
280
     0
102
RTVSPost2010PropOp36
 70
     1
102
RTVSPost2010Prop37
 90
       50
102
RTVSPost2010PropOp37
 70
     1
102
RTVSPost2010Prop38
140
0.0
102
RTVSPost2010PropOp38
 70
     1
102
RTVSPost2010Prop39
140
1.0
102
RTVSPost2010PropOp39
 70
     1
102
RTVSPost2010Prop40
 90
        0
102
RTVSPost2010PropOp40
 70
     1
102
RTVSPost2010Prop41ColorIndex
 90
       18
102
RTVSPost2010Prop41ColorRGB
 90
        0
102
RTVSPost2010PropOp41
 70
     1
102
RTVSPost2010Prop42
 90
       50
102
RTVSPost2010PropOp42
 70
     1
102
RTVSPost2010Prop43
 90
        3
102
RTVSPost2010PropOp43
 70
     1
102
RTVSPost2010Prop44ColorIndex
 90
        5
102
RTVSPost2010Prop44ColorRGB
 90
      255
102
RTVSPost2010PropOp44
 70
     1
102
RTVSPost2010Prop45
280
     0
102
RTVSPost2010PropOp45
 70
     1
102
RTVSPost2010Prop46
 90
       50
102
RTVSPost2010PropOp46
 70
     1
102
RTVSPost2010Prop47
 90
       50
102
RTVSPost2010PropOp47
 70
     1
102
RTVSPost2010Prop48
 90
       50
102
RTVSPost2010PropOp48
 70
     1
102
RTVSPost2010Prop49
280
     0
102
RTVSPost2010PropOp49
 70
     1
102
RTVSPost2010Prop50
 90
       50
102
RTVSPost2010PropOp50
 70
     1
102
RTVSPost2010Prop51ColorIndex
 90
      256
102
RTVSPost2010Prop51ColorRGB
 90
-16777216
102
RTVSPost2010PropOp51
 70
     0
102
RTVSPost2010Prop52
140
1.0
102
RTVSPost2010PropOp52
 70
     0
102
RTVSPost2010Prop53
 90
        2
102
RTVSPost2010PropOp53
 70
     1
102
RTVSPost2010Prop54
  1
strokes_ogs.tif
102
RTVSPost2010PropOp54
 70
     1
102
RTVSPost2010Prop55
280
     0
102
RTVSPost2010PropOp55
 70
     1
102
RTVSPost2010Prop56
140
1.0
102
RTVSPost2010PropOp56
 70
     1
102
RTVSPost2010Prop57
140
1.0
102
RTVSPost2010PropOp57
 70
     1
102
RTVSPropertyOp0
 70
     1
102
RTVSPropertyOp1
 70
     1
102
RTVSPropertyOp2
 70
     1
102
RTVSPropertyOp3
 70
     1
102
RTVSPropertyOp4
 70
     1
102
RTVSPropertyOp5
 70
     1
102
RTVSPropertyOp6
 70
     1
102
RTVSPropertyOp7
 70
     1
102
RTVSPropertyOp8
 70
     1
102
RTVSPropertyOp9
 70
     1
102
RTVSPropertyOp10
 70
     1
102
RTVSPropertyOp11
 70
     1
102
RTVSPropertyOp12
 70
     1
102
RTVSPropertyOp13
 70
     1
102
RTVSPropertyOp14
 70
     1
102
RTVSPropertyOp15
 70
     1
102
RTVSPropertyOp16
 70
     1
102
RTVSPropertyOp17
 70
     1
102
RTVSPropertyOp18
 70
     1
102
RTVSPropertyOp19
 70
     1
102
RTVSPropertyOp20
 70
     1
102
RTVSPropertyOp21
 70
     1
102
RTVSPropertyOp22
 70
     1
102
RTVSPropertyOp23
 70
     1
102
RTVSPropertyOp24
 70
     1
102
RTVSPropertyOp25
 70
     1
102
RTVSPropertyOp26
 70
     1
102
RTVSPropertyOp27
 70
     1
102
RTVSPropertyOp28
 70
     1
102
RTVSPropertyOp29
 70
     1
102
RTVSPropertyOp30
 70
     1
102
RTVSPropertyOp31
 70
     1
102
RTVSPropertyOp32
 70
     1
102
RTVSPropertyOp33
 70
     1
102
RTVSPropertyOp34
 70
     1
102
RTVSPropertyOp35
 70
     1
102
RTVSPropertyOp36
 70
     1
102
RTVSPropertyOp37
 70
     1
102
RTVSPropertyOp38
 70
     1
102
RTVSPropertyOp39
 70
     1
102
RTVSPropertyOp40
 70
     1
102
RTVSPropertyOp41
 70
     1
102
RTVSPropertyOp42
 70
     1
102
RTVSPropertyOp43
 70
     1
102
RTVSPropertyOp44
 70
     1
102
RTVSPropertyOp45
 70
     1
102
RTVSPropertyOp46
 70
     1
102
RTVSPropertyOp47
 70
     1
102
RTVSPropertyOp48
 70
     1
102
RTVSPropertyOp49
 70
     1
102
RTVSPropertyOp50
 70
     1
102
RTVSPropertyOp51
 70
     0
102
RTVSPropertyOp52
 70
     0
102
RTVSPropertyOp53
 70
     1
102
RTVSPropertyOp54
 70
     1
102
RTVSPropertyOp55
 70
     1
102
RTVSPropertyOp56
 70
     1
102
RTVSPropertyOp57
 70
     1
102
RTVSPropertyOp58
 70
     1
102
RTVSPropertyOp59
 70
     1
102
RTVSPropertyOp60
 70
     1
102
RTVSPropertyOp61
 70
     1
102
RTVSPropertyOp62
 70
     1
  0
XRECORD
  5
A562
102
{ACAD_REACTORS
330
A561
102
}
330
A561
100
AcDbXrecord
280
     1
102
RTVSPost2010Prop28
280
     0
102
RTVSPost2010PropOp28
 70
     1
102
RTVSPost2010Prop29
280
     1
102
RTVSPost2010PropOp29
 70
     1
102
RTVSPost2010Prop30
280
     1
102
RTVSPost2010PropOp30
 70
     1
102
RTVSPost2010Prop31
280
     0
102
RTVSPost2010PropOp31
 70
     1
102
RTVSPost2010Prop32
280
     0
102
RTVSPost2010PropOp32
 70
     1
102
RTVSPost2010Prop33
280
     0
102
RTVSPost2010PropOp33
 70
     1
102
RTVSPost2010Prop34
280
     0
102
RTVSPost2010PropOp34
 70
     1
102
RTVSPost2010Prop35
280
     0
102
RTVSPost2010PropOp35
 70
     1
102
RTVSPost2010Prop36
280
     0
102
RTVSPost2010PropOp36
 70
     1
102
RTVSPost2010Prop37
 90
       50
102
RTVSPost2010PropOp37
 70
     1
102
RTVSPost2010Prop38
140
0.0
102
RTVSPost2010PropOp38
 70
     1
102
RTVSPost2010Prop39
140
1.0
102
RTVSPost2010PropOp39
 70
     1
102
RTVSPost2010Prop40
 90
        0
102
RTVSPost2010PropOp40
 70
     1
102
RTVSPost2010Prop41ColorIndex
 90
       18
102
RTVSPost2010Prop41ColorRGB
 90
        0
102
RTVSPost2010PropOp41
 70
     1
102
RTVSPost2010Prop42
 90
       50
102
RTVSPost2010PropOp42
 70
     1
102
RTVSPost2010Prop43
 90
        3
102
RTVSPost2010PropOp43
 70
     1
102
RTVSPost2010Prop44ColorIndex
 90
        5
102
RTVSPost2010Prop44ColorRGB
 90
      255
102
RTVSPost2010PropOp44
 70
     1
102
RTVSPost2010Prop45
280
     0
102
RTVSPost2010PropOp45
 70
     1
102
RTVSPost2010Prop46
 90
       50
102
RTVSPost2010PropOp46
 70
     1
102
RTVSPost2010Prop47
 90
       50
102
RTVSPost2010PropOp47
 70
     1
102
RTVSPost2010Prop48
 90
       50
102
RTVSPost2010PropOp48
 70
     1
102
RTVSPost2010Prop49
280
     0
102
RTVSPost2010PropOp49
 70
     1
102
RTVSPost2010Prop50
 90
       50
102
RTVSPost2010PropOp50
 70
     1
102
RTVSPost2010Prop51ColorIndex
 90
      256
102
RTVSPost2010Prop51ColorRGB
 90
-16777216
102
RTVSPost2010PropOp51
 70
     0
102
RTVSPost2010Prop52
140
1.0
102
RTVSPost2010PropOp52
 70
     0
102
RTVSPost2010Prop53
 90
        2
102
RTVSPost2010PropOp53
 70
     1
102
RTVSPost2010Prop54
  1
strokes_ogs.tif
102
RTVSPost2010PropOp54
 70
     1
102
RTVSPost2010Prop55
280
     0
102
RTVSPost2010PropOp55
 70
     1
102
RTVSPost2010Prop56
140
1.0
102
RTVSPost2010PropOp56
 70
     1
102
RTVSPost2010Prop57
140
1.0
102
RTVSPost2010PropOp57
 70
     1
102
RTVSPropertyOp0
 70
     1
102
RTVSPropertyOp1
 70
     1
102
RTVSPropertyOp2
 70
     1
102
RTVSPropertyOp3
 70
     1
102
RTVSPropertyOp4
 70
     1
102
RTVSPropertyOp5
 70
     1
102
RTVSPropertyOp6
 70
     1
102
RTVSPropertyOp7
 70
     1
102
RTVSPropertyOp8
 70
     1
102
RTVSPropertyOp9
 70
     1
102
RTVSPropertyOp10
 70
     1
102
RTVSPropertyOp11
 70
     1
102
RTVSPropertyOp12
 70
     1
102
RTVSPropertyOp13
 70
     1
102
RTVSPropertyOp14
 70
     1
102
RTVSPropertyOp15
 70
     1
102
RTVSPropertyOp16
 70
     1
102
RTVSPropertyOp17
 70
     1
102
RTVSPropertyOp18
 70
     1
102
RTVSPropertyOp19
 70
     1
102
RTVSPropertyOp20
 70
     1
102
RTVSPropertyOp21
 70
     1
102
RTVSPropertyOp22
 70
     1
102
RTVSPropertyOp23
 70
     1
102
RTVSPropertyOp24
 70
     1
102
RTVSPropertyOp25
 70
     1
102
RTVSPropertyOp26
 70
     1
102
RTVSPropertyOp27
 70
     1
102
RTVSPropertyOp28
 70
     1
102
RTVSPropertyOp29
 70
     1
102
RTVSPropertyOp30
 70
     1
102
RTVSPropertyOp31
 70
     1
102
RTVSPropertyOp32
 70
     1
102
RTVSPropertyOp33
 70
     1
102
RTVSPropertyOp34
 70
     1
102
RTVSPropertyOp35
 70
     1
102
RTVSPropertyOp36
 70
     1
102
RTVSPropertyOp37
 70
     1
102
RTVSPropertyOp38
 70
     1
102
RTVSPropertyOp39
 70
     1
102
RTVSPropertyOp40
 70
     1
102
RTVSPropertyOp41
 70
     1
102
RTVSPropertyOp42
 70
     1
102
RTVSPropertyOp43
 70
     1
102
RTVSPropertyOp44
 70
     1
102
RTVSPropertyOp45
 70
     1
102
RTVSPropertyOp46
 70
     1
102
RTVSPropertyOp47
 70
     1
102
RTVSPropertyOp48
 70
     1
102
RTVSPropertyOp49
 70
     1
102
RTVSPropertyOp50
 70
     1
102
RTVSPropertyOp51
 70
     0
102
RTVSPropertyOp52
 70
     0
102
RTVSPropertyOp53
 70
     1
102
RTVSPropertyOp54
 70
     1
102
RTVSPropertyOp55
 70
     1
102
RTVSPropertyOp56
 70
     1
102
RTVSPropertyOp57
 70
     1
102
RTVSPropertyOp58
 70
     1
102
RTVSPropertyOp59
 70
     1
102
RTVSPropertyOp60
 70
     1
102
RTVSPropertyOp61
 70
     1
102
RTVSPropertyOp62
 70
     1
  0
XRECORD
  5
A556
102
{ACAD_REACTORS
330
A555
102
}
330
A555
100
AcDbXrecord
280
     1
102
RTVSPost2010Prop28
280
     0
102
RTVSPost2010PropOp28
 70
     1
102
RTVSPost2010Prop29
280
     1
102
RTVSPost2010PropOp29
 70
     1
102
RTVSPost2010Prop30
280
     1
102
RTVSPost2010PropOp30
 70
     1
102
RTVSPost2010Prop31
280
     0
102
RTVSPost2010PropOp31
 70
     1
102
RTVSPost2010Prop32
280
     0
102
RTVSPost2010PropOp32
 70
     1
102
RTVSPost2010Prop33
280
     0
102
RTVSPost2010PropOp33
 70
     1
102
RTVSPost2010Prop34
280
     0
102
RTVSPost2010PropOp34
 70
     1
102
RTVSPost2010Prop35
280
     0
102
RTVSPost2010PropOp35
 70
     1
102
RTVSPost2010Prop36
280
     0
102
RTVSPost2010PropOp36
 70
     1
102
RTVSPost2010Prop37
 90
       50
102
RTVSPost2010PropOp37
 70
     1
102
RTVSPost2010Prop38
140
0.0
102
RTVSPost2010PropOp38
 70
     1
102
RTVSPost2010Prop39
140
1.0
102
RTVSPost2010PropOp39
 70
     1
102
RTVSPost2010Prop40
 90
        0
102
RTVSPost2010PropOp40
 70
     1
102
RTVSPost2010Prop41ColorIndex
 90
       18
102
RTVSPost2010Prop41ColorRGB
 90
        0
102
RTVSPost2010PropOp41
 70
     1
102
RTVSPost2010Prop42
 90
       50
102
RTVSPost2010PropOp42
 70
     1
102
RTVSPost2010Prop43
 90
        3
102
RTVSPost2010PropOp43
 70
     1
102
RTVSPost2010Prop44ColorIndex
 90
        5
102
RTVSPost2010Prop44ColorRGB
 90
      255
102
RTVSPost2010PropOp44
 70
     1
102
RTVSPost2010Prop45
280
     0
102
RTVSPost2010PropOp45
 70
     1
102
RTVSPost2010Prop46
 90
       50
102
RTVSPost2010PropOp46
 70
     1
102
RTVSPost2010Prop47
 90
       50
102
RTVSPost2010PropOp47
 70
     1
102
RTVSPost2010Prop48
 90
       50
102
RTVSPost2010PropOp48
 70
     1
102
RTVSPost2010Prop49
280
     0
102
RTVSPost2010PropOp49
 70
     1
102
RTVSPost2010Prop50
 90
       50
102
RTVSPost2010PropOp50
 70
     1
102
RTVSPost2010Prop51ColorIndex
 90
      256
102
RTVSPost2010Prop51ColorRGB
 90
-16777216
102
RTVSPost2010PropOp51
 70
     0
102
RTVSPost2010Prop52
140
1.0
102
RTVSPost2010PropOp52
 70
     0
102
RTVSPost2010Prop53
 90
        2
102
RTVSPost2010PropOp53
 70
     1
102
RTVSPost2010Prop54
  1
strokes_ogs.tif
102
RTVSPost2010PropOp54
 70
     1
102
RTVSPost2010Prop55
280
     0
102
RTVSPost2010PropOp55
 70
     1
102
RTVSPost2010Prop56
140
1.0
102
RTVSPost2010PropOp56
 70
     1
102
RTVSPost2010Prop57
140
1.0
102
RTVSPost2010PropOp57
 70
     1
102
RTVSPropertyOp0
 70
     1
102
RTVSPropertyOp1
 70
     1
102
RTVSPropertyOp2
 70
     1
102
RTVSPropertyOp3
 70
     1
102
RTVSPropertyOp4
 70
     1
102
RTVSPropertyOp5
 70
     1
102
RTVSPropertyOp6
 70
     1
102
RTVSPropertyOp7
 70
     1
102
RTVSPropertyOp8
 70
     1
102
RTVSPropertyOp9
 70
     1
102
RTVSPropertyOp10
 70
     1
102
RTVSPropertyOp11
 70
     1
102
RTVSPropertyOp12
 70
     1
102
RTVSPropertyOp13
 70
     1
102
RTVSPropertyOp14
 70
     1
102
RTVSPropertyOp15
 70
     1
102
RTVSPropertyOp16
 70
     1
102
RTVSPropertyOp17
 70
     1
102
RTVSPropertyOp18
 70
     1
102
RTVSPropertyOp19
 70
     1
102
RTVSPropertyOp20
 70
     1
102
RTVSPropertyOp21
 70
     1
102
RTVSPropertyOp22
 70
     1
102
RTVSPropertyOp23
 70
     1
102
RTVSPropertyOp24
 70
     1
102
RTVSPropertyOp25
 70
     1
102
RTVSPropertyOp26
 70
     1
102
RTVSPropertyOp27
 70
     1
102
RTVSPropertyOp28
 70
     1
102
RTVSPropertyOp29
 70
     1
102
RTVSPropertyOp30
 70
     1
102
RTVSPropertyOp31
 70
     1
102
RTVSPropertyOp32
 70
     1
102
RTVSPropertyOp33
 70
     1
102
RTVSPropertyOp34
 70
     1
102
RTVSPropertyOp35
 70
     1
102
RTVSPropertyOp36
 70
     1
102
RTVSPropertyOp37
 70
     1
102
RTVSPropertyOp38
 70
     1
102
RTVSPropertyOp39
 70
     1
102
RTVSPropertyOp40
 70
     1
102
RTVSPropertyOp41
 70
     1
102
RTVSPropertyOp42
 70
     1
102
RTVSPropertyOp43
 70
     1
102
RTVSPropertyOp44
 70
     1
102
RTVSPropertyOp45
 70
     1
102
RTVSPropertyOp46
 70
     1
102
RTVSPropertyOp47
 70
     1
102
RTVSPropertyOp48
 70
     1
102
RTVSPropertyOp49
 70
     1
102
RTVSPropertyOp50
 70
     1
102
RTVSPropertyOp51
 70
     0
102
RTVSPropertyOp52
 70
     0
102
RTVSPropertyOp53
 70
     1
102
RTVSPropertyOp54
 70
     1
102
RTVSPropertyOp55
 70
     1
102
RTVSPropertyOp56
 70
     1
102
RTVSPropertyOp57
 70
     1
102
RTVSPropertyOp58
 70
     1
102
RTVSPropertyOp59
 70
     1
102
RTVSPropertyOp60
 70
     1
102
RTVSPropertyOp61
 70
     1
102
RTVSPropertyOp62
 70
     1
  0
XRECORD
  5
A56E
102
{ACAD_REACTORS
330
A56D
102
}
330
A56D
100
AcDbXrecord
280
     1
102
RTVSPost2010Prop28
280
     0
102
RTVSPost2010PropOp28
 70
     1
102
RTVSPost2010Prop29
280
     1
102
RTVSPost2010PropOp29
 70
     1
102
RTVSPost2010Prop30
280
     1
102
RTVSPost2010PropOp30
 70
     1
102
RTVSPost2010Prop31
280
     0
102
RTVSPost2010PropOp31
 70
     1
102
RTVSPost2010Prop32
280
     0
102
RTVSPost2010PropOp32
 70
     1
102
RTVSPost2010Prop33
280
     0
102
RTVSPost2010PropOp33
 70
     1
102
RTVSPost2010Prop34
280
     0
102
RTVSPost2010PropOp34
 70
     1
102
RTVSPost2010Prop35
280
     0
102
RTVSPost2010PropOp35
 70
     1
102
RTVSPost2010Prop36
280
     0
102
RTVSPost2010PropOp36
 70
     1
102
RTVSPost2010Prop37
 90
       50
102
RTVSPost2010PropOp37
 70
     1
102
RTVSPost2010Prop38
140
0.0
102
RTVSPost2010PropOp38
 70
     1
102
RTVSPost2010Prop39
140
1.0
102
RTVSPost2010PropOp39
 70
     1
102
RTVSPost2010Prop40
 90
        0
102
RTVSPost2010PropOp40
 70
     1
102
RTVSPost2010Prop41ColorIndex
 90
       18
102
RTVSPost2010Prop41ColorRGB
 90
        0
102
RTVSPost2010PropOp41
 70
     1
102
RTVSPost2010Prop42
 90
       50
102
RTVSPost2010PropOp42
 70
     1
102
RTVSPost2010Prop43
 90
        3
102
RTVSPost2010PropOp43
 70
     1
102
RTVSPost2010Prop44ColorIndex
 90
        5
102
RTVSPost2010Prop44ColorRGB
 90
      255
102
RTVSPost2010PropOp44
 70
     1
102
RTVSPost2010Prop45
280
     0
102
RTVSPost2010PropOp45
 70
     1
102
RTVSPost2010Prop46
 90
       50
102
RTVSPost2010PropOp46
 70
     1
102
RTVSPost2010Prop47
 90
       50
102
RTVSPost2010PropOp47
 70
     1
102
RTVSPost2010Prop48
 90
       50
102
RTVSPost2010PropOp48
 70
     1
102
RTVSPost2010Prop49
280
     0
102
RTVSPost2010PropOp49
 70
     1
102
RTVSPost2010Prop50
 90
       50
102
RTVSPost2010PropOp50
 70
     1
102
RTVSPost2010Prop51ColorIndex
 90
      256
102
RTVSPost2010Prop51ColorRGB
 90
-16777216
102
RTVSPost2010PropOp51
 70
     0
102
RTVSPost2010Prop52
140
1.0
102
RTVSPost2010PropOp52
 70
     0
102
RTVSPost2010Prop53
 90
        2
102
RTVSPost2010PropOp53
 70
     1
102
RTVSPost2010Prop54
  1
strokes_ogs.tif
102
RTVSPost2010PropOp54
 70
     1
102
RTVSPost2010Prop55
280
     0
102
RTVSPost2010PropOp55
 70
     1
102
RTVSPost2010Prop56
140
1.0
102
RTVSPost2010PropOp56
 70
     1
102
RTVSPost2010Prop57
140
1.0
102
RTVSPost2010PropOp57
 70
     1
102
RTVSPropertyOp0
 70
     1
102
RTVSPropertyOp1
 70
     1
102
RTVSPropertyOp2
 70
     1
102
RTVSPropertyOp3
 70
     1
102
RTVSPropertyOp4
 70
     1
102
RTVSPropertyOp5
 70
     1
102
RTVSPropertyOp6
 70
     1
102
RTVSPropertyOp7
 70
     1
102
RTVSPropertyOp8
 70
     1
102
RTVSPropertyOp9
 70
     1
102
RTVSPropertyOp10
 70
     1
102
RTVSPropertyOp11
 70
     1
102
RTVSPropertyOp12
 70
     1
102
RTVSPropertyOp13
 70
     1
102
RTVSPropertyOp14
 70
     1
102
RTVSPropertyOp15
 70
     1
102
RTVSPropertyOp16
 70
     1
102
RTVSPropertyOp17
 70
     1
102
RTVSPropertyOp18
 70
     1
102
RTVSPropertyOp19
 70
     1
102
RTVSPropertyOp20
 70
     1
102
RTVSPropertyOp21
 70
     1
102
RTVSPropertyOp22
 70
     1
102
RTVSPropertyOp23
 70
     1
102
RTVSPropertyOp24
 70
     1
102
RTVSPropertyOp25
 70
     1
102
RTVSPropertyOp26
 70
     1
102
RTVSPropertyOp27
 70
     1
102
RTVSPropertyOp28
 70
     1
102
RTVSPropertyOp29
 70
     1
102
RTVSPropertyOp30
 70
     1
102
RTVSPropertyOp31
 70
     1
102
RTVSPropertyOp32
 70
     1
102
RTVSPropertyOp33
 70
     1
102
RTVSPropertyOp34
 70
     1
102
RTVSPropertyOp35
 70
     1
102
RTVSPropertyOp36
 70
     1
102
RTVSPropertyOp37
 70
     1
102
RTVSPropertyOp38
 70
     1
102
RTVSPropertyOp39
 70
     1
102
RTVSPropertyOp40
 70
     1
102
RTVSPropertyOp41
 70
     1
102
RTVSPropertyOp42
 70
     1
102
RTVSPropertyOp43
 70
     1
102
RTVSPropertyOp44
 70
     1
102
RTVSPropertyOp45
 70
     1
102
RTVSPropertyOp46
 70
     1
102
RTVSPropertyOp47
 70
     1
102
RTVSPropertyOp48
 70
     1
102
RTVSPropertyOp49
 70
     1
102
RTVSPropertyOp50
 70
     1
102
RTVSPropertyOp51
 70
     0
102
RTVSPropertyOp52
 70
     0
102
RTVSPropertyOp53
 70
     1
102
RTVSPropertyOp54
 70
     1
102
RTVSPropertyOp55
 70
     1
102
RTVSPropertyOp56
 70
     1
102
RTVSPropertyOp57
 70
     1
102
RTVSPropertyOp58
 70
     1
102
RTVSPropertyOp59
 70
     1
102
RTVSPropertyOp60
 70
     1
102
RTVSPropertyOp61
 70
     1
102
RTVSPropertyOp62
 70
     1
  0
ENDSEC
  0
EOF
