  0
SECTION
  2
HEADER
  9
$ACADVER
  1
AC1015
  9
$ACADMAINTVER
 70
    20
  9
$DWGCODEPAGE
  3
ANSI_932
  9
$INSBASE
 10
0.0
 20
0.0
 30
0.0
  9
$EXTMIN
 10
9.99995
 20
9.999999999999998
 30
0.0
  9
$EXTMAX
 10
461.700012
 20
636.3499759999997
 30
0.0
  9
$LIMMIN
 10
0.0
 20
0.0
  9
$LIMMAX
 10
950.3999999999999
 20
655.2000000000001
  9
$ORTHOMODE
 70
     1
  9
$REGENMODE
 70
     1
  9
$FILLMODE
 70
     1
  9
$QTEXTMODE
 70
     0
  9
$MIRRTEXT
 70
     1
  9
$LTSCALE
 40
20.0
  9
$ATTMODE
 70
     1
  9
$TEXTSIZE
 40
5.0
  9
$TRACEWID
 40
1.0
  9
$TEXTSTYLE
  7
STANDARD
  9
$CLAYER
  8
0
  9
$CELTYPE
  6
BYLAYER
  9
$CECOLOR
 62
   256
  9
$CELTSCALE
 40
1.0
  9
$DISPSILH
 70
     0
  9
$DIMSCALE
 40
1.0
  9
$DIMASZ
 40
3.0
  9
$DIMEXO
 40
1.0
  9
$DIMDLI
 40
10.0
  9
$DIMRND
 40
0.0
  9
$DIMDLE
 40
0.0
  9
$DIMEXE
 40
1.0
  9
$DIMTP
 40
0.0
  9
$DIMTM
 40
0.0
  9
$DIMTXT
 40
3.2
  9
$DIMCEN
 40
0.0
  9
$DIMTSZ
 40
0.0
  9
$DIMTOL
 70
     0
  9
$DIMLIM
 70
     0
  9
$DIMTIH
 70
     0
  9
$DIMTOH
 70
     0
  9
$DIMSE1
 70
     0
  9
$DIMSE2
 70
     0
  9
$DIMTAD
 70
     3
  9
$DIMZIN
 70
     8
  9
$DIMBLK
  1

  9
$DIMASO
 70
     1
  9
$DIMSHO
 70
     1
  9
$DIMPOST
  1

  9
$DIMAPOST
  1

  9
$DIMALT
 70
     0
  9
$DIMALTD
 70
     2
  9
$DIMALTF
 40
25.4
  9
$DIMLFAC
 40
1.0
  9
$DIMTOFL
 70
     1
  9
$DIMTVP
 40
0.0
  9
$DIMTIX
 70
     0
  9
$DIMSOXD
 70
     0
  9
$DIMSAH
 70
     1
  9
$DIMBLK1
  1

  9
$DIMBLK2
  1

  9
$DIMSTYLE
  2
STANDARD
  9
$DIMCLRD
 70
     0
  9
$DIMCLRE
 70
     0
  9
$DIMCLRT
 70
     0
  9
$DIMTFAC
 40
1.0
  9
$DIMGAP
 40
1.0
  9
$DIMJUST
 70
     0
  9
$DIMSD1
 70
     0
  9
$DIMSD2
 70
     0
  9
$DIMTOLJ
 70
     1
  9
$DIMTZIN
 70
     0
  9
$DIMALTZ
 70
     0
  9
$DIMALTTZ
 70
     0
  9
$DIMUPT
 70
     0
  9
$DIMDEC
 70
     4
  9
$DIMTDEC
 70
     4
  9
$DIMALTU
 70
     2
  9
$DIMALTTD
 70
     2
  9
$DIMTXSTY
  7
STANDARD
  9
$DIMAUNIT
 70
     0
  9
$DIMADEC
 70
     0
  9
$DIMALTRND
 40
0.0
  9
$DIMAZIN
 70
     0
  9
$DIMDSEP
 70
    46
  9
$DIMATFIT
 70
     3
  9
$DIMFRAC
 70
     0
  9
$DIMLDRBLK
  1

  9
$DIMLUNIT
 70
     2
  9
$DIMLWD
 70
    -2
  9
$DIMLWE
 70
    -2
  9
$DIMTMOVE
 70
     0
  9
$LUNITS
 70
     2
  9
$LUPREC
 70
     4
  9
$SKETCHINC
 40
1.0
  9
$FILLETRAD
 40
2.0
  9
$AUNITS
 70
     0
  9
$AUPREC
 70
     2
  9
$MENU
  1
.
  9
$ELEVATION
 40
0.0
  9
$PELEVATION
 40
0.0
  9
$THICKNESS
 40
0.0
  9
$LIMCHECK
 70
     0
  9
$CHAMFERA
 40
10.0
  9
$CHAMFERB
 40
10.0
  9
$CHAMFERC
 40
0.0
  9
$CHAMFERD
 40
0.0
  9
$SKPOLY
 70
     0
  9
$TDCREATE
 40
2451065.509030903
  9
$TDUCREATE
 40
2451065.134030903
  9
$TDUPDATE
 40
2457192.622774109
  9
$TDUUPDATE
 40
2457192.247774109
  9
$TDINDWG
 40
0.0159802894
  9
$TDUSRTIMER
 40
0.0159797917
  9
$USRTIMER
 70
     1
  9
$ANGBASE
 50
0.0
  9
$ANGDIR
 70
     0
  9
$PDMODE
 70
     0
  9
$PDSIZE
 40
0.0
  9
$PLINEWID
 40
0.0
  9
$SPLFRAME
 70
     0
  9
$SPLINETYPE
 70
     6
  9
$SPLINESEGS
 70
     8
  9
$HANDSEED
  5
A755
  9
$SURFTAB1
 70
     6
  9
$SURFTAB2
 70
     6
  9
$SURFTYPE
 70
     6
  9
$SURFU
 70
     6
  9
$SURFV
 70
     6
  9
$UCSBASE
  2

  9
$UCSNAME
  2

  9
$UCSORG
 10
0.0
 20
0.0
 30
0.0
  9
$UCSXDIR
 10
1.0
 20
0.0
 30
0.0
  9
$UCSYDIR
 10
0.0
 20
1.0
 30
0.0
  9
$UCSORTHOREF
  2

  9
$UCSORTHOVIEW
 70
     0
  9
$UCSORGTOP
 10
0.0
 20
0.0
 30
0.0
  9
$UCSORGBOTTOM
 10
0.0
 20
0.0
 30
0.0
  9
$UCSORGLEFT
 10
0.0
 20
0.0
 30
0.0
  9
$UCSORGRIGHT
 10
0.0
 20
0.0
 30
0.0
  9
$UCSORGFRONT
 10
0.0
 20
0.0
 30
0.0
  9
$UCSORGBACK
 10
0.0
 20
0.0
 30
0.0
  9
$PUCSBASE
  2

  9
$PUCSNAME
  2

  9
$PUCSORG
 10
0.0
 20
0.0
 30
0.0
  9
$PUCSXDIR
 10
1.0
 20
0.0
 30
0.0
  9
$PUCSYDIR
 10
0.0
 20
1.0
 30
0.0
  9
$PUCSORTHOREF
  2

  9
$PUCSORTHOVIEW
 70
     0
  9
$PUCSORGTOP
 10
0.0
 20
0.0
 30
0.0
  9
$PUCSORGBOTTOM
 10
0.0
 20
0.0
 30
0.0
  9
$PUCSORGLEFT
 10
0.0
 20
0.0
 30
0.0
  9
$PUCSORGRIGHT
 10
0.0
 20
0.0
 30
0.0
  9
$PUCSORGFRONT
 10
0.0
 20
0.0
 30
0.0
  9
$PUCSORGBACK
 10
0.0
 20
0.0
 30
0.0
  9
$USERI1
 70
     0
  9
$USERI2
 70
     0
  9
$USERI3
 70
     0
  9
$USERI4
 70
     0
  9
$USERI5
 70
     0
  9
$USERR1
 40
0.0
  9
$USERR2
 40
0.0
  9
$USERR3
 40
0.0
  9
$USERR4
 40
0.0
  9
$USERR5
 40
0.0
  9
$WORLDVIEW
 70
     1
  9
$SHADEDGE
 70
     3
  9
$SHADEDIF
 70
    70
  9
$TILEMODE
 70
     1
  9
$MAXACTVP
 70
    16
  9
$PINSBASE
 10
0.0
 20
0.0
 30
0.0
  9
$PLIMCHECK
 70
     0
  9
$PEXTMIN
 10
1.000000000000000E+20
 20
1.000000000000000E+20
 30
1.000000000000000E+20
  9
$PEXTMAX
 10
-1.000000000000000E+20
 20
-1.000000000000000E+20
 30
-1.000000000000000E+20
  9
$PLIMMIN
 10
0.0
 20
0.0
  9
$PLIMMAX
 10
420.0
 20
297.0
  9
$UNITMODE
 70
     0
  9
$VISRETAIN
 70
     0
  9
$PLINEGEN
 70
     0
  9
$PSLTSCALE
 70
     0
  9
$TREEDEPTH
 70
  3020
  9
$CMLSTYLE
  2
STANDARD
  9
$CMLJUST
 70
     0
  9
$CMLSCALE
 40
1.0
  9
$PROXYGRAPHICS
 70
     1
  9
$MEASUREMENT
 70
     0
  9
$CELWEIGHT
370
    -1
  9
$ENDCAPS
280
     0
  9
$JOINSTYLE
280
     0
  9
$LWDISPLAY
290
     0
  9
$INSUNITS
 70
     0
  9
$HYPERLINKBASE
  1

  9
$STYLESHEET
  1

  9
$XEDIT
290
     1
  9
$CEPSNTYPE
380
     0
  9
$PSTYLEMODE
290
     1
  9
$FINGERPRINTGUID
  2
{0485BCDE-190C-40D6-AA21-5C1F3E46169C}
  9
$VERSIONGUID
  2
{8FB10D9D-8F6A-4753-AF27-D2DA1DB3528C}
  9
$EXTNAMES
290
     1
  9
$PSVPSCALE
 40
0.0
  9
$OLESTARTUP
290
     0
  0
ENDSEC
  0
SECTION
  2
CLASSES
  0
CLASS
  1
ACDBDICTIONARYWDFLT
  2
AcDbDictionaryWithDefault
  3
ObjectDBX Classes
 90
        0
280
     0
281
     0
  0
CLASS
  1
ACDBPLACEHOLDER
  2
AcDbPlaceHolder
  3
ObjectDBX Classes
 90
        0
280
     0
281
     0
  0
CLASS
  1
LAYOUT
  2
AcDbLayout
  3
ObjectDBX Classes
 90
        0
280
     0
281
     0
  0
CLASS
  1
DICTIONARYVAR
  2
AcDbDictionaryVar
  3
ObjectDBX Classes
 90
        0
280
     0
281
     0
  0
CLASS
  1
MATERIAL
  2
AcDbMaterial
  3
ObjectDBX Classes
 90
     1153
280
     0
281
     0
  0
CLASS
  1
VISUALSTYLE
  2
AcDbVisualStyle
  3
ObjectDBX Classes
 90
     4095
280
     0
281
     0
  0
CLASS
  1
TABLESTYLE
  2
AcDbTableStyle
  3
ObjectDBX Classes
 90
     4095
280
     0
281
     0
  0
CLASS
  1
SCALE
  2
AcDbScale
  3
ObjectDBX Classes
 90
     1153
280
     0
281
     0
  0
CLASS
  1
MLEADERSTYLE
  2
AcDbMLeaderStyle
  3
ACDB_MLEADERSTYLE_CLASS
 90
     4095
280
     0
281
     0
  0
CLASS
  1
ACDBSECTIONVIEWSTYLE
  2
AcDbSectionViewStyle
  3
ObjectDBX Classes
 90
     1025
280
     0
281
     0
  0
CLASS
  1
ACDBDETAILVIEWSTYLE
  2
AcDbDetailViewStyle
  3
ObjectDBX Classes
 90
     1025
280
     0
281
     0
  0
CLASS
  1
CELLSTYLEMAP
  2
AcDbCellStyleMap
  3
ObjectDBX Classes
 90
     1152
280
     0
281
     0
  0
ENDSEC
  0
SECTION
  2
TABLES
  0
TABLE
  2
VPORT
  5
A178
330
0
100
AcDbSymbolTable
 70
     1
  0
VPORT
  5
A6A0
330
A178
100
AcDbSymbolTableRecord
100
AcDbViewportTableRecord
  2
*ACTIVE
 70
     0
 10
0.0
 20
0.0
 11
1.0
 21
1.0
 12
493.6535685763642
 22
323.176081842622
 13
0.0
 23
0.0
 14
10.0
 24
10.0
 15
10.0
 25
10.0
 16
0.0
 26
0.0
 36
1.0
 17
0.0
 27
0.0
 37
0.0
 40
631.2688692960265
 41
1.899603698811096
 42
50.0
 43
0.0
 44
0.0
 50
0.0
 51
0.0
 71
     0
 72
   100
 73
     1
 74
     0
 75
     0
 76
     0
 77
     0
 78
     0
281
     0
 65
     1
110
0.0
120
0.0
130
0.0
111
1.0
121
0.0
131
0.0
112
0.0
122
1.0
132
0.0
 79
     0
146
0.0
1001
ACAD_NAV_VCDISPLAY
1070
     3
  0
ENDTAB
  0
TABLE
  2
LTYPE
  5
A175
330
0
100
AcDbSymbolTable
 70
     4
  0
LTYPE
  5
A183
330
A175
100
AcDbSymbolTableRecord
100
AcDbLinetypeTableRecord
  2
BYBLOCK
 70
     0
  3

 72
    65
 73
     0
 40
0.0
  0
LTYPE
  5
A184
330
A175
100
AcDbSymbolTableRecord
100
AcDbLinetypeTableRecord
  2
BYLAYER
 70
     0
  3

 72
    65
 73
     0
 40
0.0
  0
LTYPE
  5
A185
330
A175
100
AcDbSymbolTableRecord
100
AcDbLinetypeTableRecord
  2
CONTINUOUS
 70
     0
  3
Solid line
 72
    65
 73
     0
 40
0.0
  0
LTYPE
  5
A193
330
A175
100
AcDbSymbolTableRecord
100
AcDbLinetypeTableRecord
  2
DASHED
 70
     0
  3
__ __ __ __ __ __ __ __ __ __ __ __ __ __ __ __
 72
    65
 73
     2
 40
0.75
 49
0.5
 74
     0
 49
-0.25
 74
     0
  0
LTYPE
  5
A194
330
A175
100
AcDbSymbolTableRecord
100
AcDbLinetypeTableRecord
  2
CENTER
 70
     0
  3
____ _ ____ _ ____ _ ____ _ ____ _ ____ _ ____ 
 72
    65
 73
     4
 40
2.0
 49
1.25
 74
     0
 49
-0.25
 74
     0
 49
0.25
 74
     0
 49
-0.25
 74
     0
  0
LTYPE
  5
A195
330
A175
100
AcDbSymbolTableRecord
100
AcDbLinetypeTableRecord
  2
PHANTOM
 70
     0
  3
______  __  __  ______  __  __  ______  __  __ 
 72
    65
 73
     6
 40
2.5
 49
1.25
 74
     0
 49
-0.25
 74
     0
 49
0.25
 74
     0
 49
-0.25
 74
     0
 49
0.25
 74
     0
 49
-0.25
 74
     0
  0
ENDTAB
  0
TABLE
  2
LAYER
  5
A172
330
0
100
AcDbSymbolTable
 70
     8
  0
LAYER
  5
A180
102
{ACAD_XDICTIONARY
360
A6F9
102
}
330
A172
100
AcDbSymbolTableRecord
100
AcDbLayerTableRecord
  2
0
 70
     0
 62
     7
  6
CONTINUOUS
370
    -3
390
A6A7
  0
LAYER
  5
A196
102
{ACAD_XDICTIONARY
360
A6FB
102
}
330
A172
100
AcDbSymbolTableRecord
100
AcDbLayerTableRecord
  2
4
 70
     0
 62
     1
  6
CENTER
370
    -3
390
A6A7
  0
LAYER
  5
A197
102
{ACAD_XDICTIONARY
360
A6FD
102
}
330
A172
100
AcDbSymbolTableRecord
100
AcDbLayerTableRecord
  2
5
 70
     0
 62
     6
  6
PHANTOM
370
    -3
390
A6A7
  0
LAYER
  5
A198
102
{ACAD_XDICTIONARY
360
A6FF
102
}
330
A172
100
AcDbSymbolTableRecord
100
AcDbLayerTableRecord
  2
1
 70
     0
 62
     7
  6
CONTINUOUS
370
    -3
390
A6A7
  0
LAYER
  5
A199
102
{ACAD_XDICTIONARY
360
A701
102
}
330
A172
100
AcDbSymbolTableRecord
100
AcDbLayerTableRecord
  2
2
 70
     0
 62
     4
  6
CONTINUOUS
370
    -3
390
A6A7
  0
LAYER
  5
A19A
102
{ACAD_XDICTIONARY
360
A703
102
}
330
A172
100
AcDbSymbolTableRecord
100
AcDbLayerTableRecord
  2
3
 70
     0
 62
     2
  6
DASHED
370
    -3
390
A6A7
  0
LAYER
  5
A19B
102
{ACAD_XDICTIONARY
360
A705
102
}
330
A172
100
AcDbSymbolTableRecord
100
AcDbLayerTableRecord
  2
6
 70
     0
 62
     5
  6
CONTINUOUS
370
    -3
390
A6A7
  0
LAYER
  5
A19C
102
{ACAD_XDICTIONARY
360
A707
102
}
330
A172
100
AcDbSymbolTableRecord
100
AcDbLayerTableRecord
  2
7
 70
     0
 62
     3
  6
CONTINUOUS
370
    -3
390
A6A7
  0
ENDTAB
  0
TABLE
  2
STYLE
  5
A173
330
0
100
AcDbSymbolTable
 70
     1
  0
STYLE
  5
A181
330
A173
100
AcDbSymbolTableRecord
100
AcDbTextStyleTableRecord
  2
STANDARD
 70
     0
 40
0.0
 41
1.0
 50
0.0
 71
     0
 42
5.0
  3
txt
  4

  0
ENDTAB
  0
TABLE
  2
VIEW
  5
A176
330
0
100
AcDbSymbolTable
 70
     0
  0
ENDTAB
  0
TABLE
  2
UCS
  5
A177
330
0
100
AcDbSymbolTable
 70
     0
  0
ENDTAB
  0
TABLE
  2
APPID
  5
A179
330
0
100
AcDbSymbolTable
 70
     3
  0
APPID
  5
A182
330
A179
100
AcDbSymbolTableRecord
100
AcDbRegAppTableRecord
  2
ACAD
 70
     0
  0
APPID
  5
A713
330
A179
100
AcDbSymbolTableRecord
100
AcDbRegAppTableRecord
  2
ACAD_NAV_VCDISPLAY
 70
     0
  0
APPID
  5
A74C
330
A179
100
AcDbSymbolTableRecord
100
AcDbRegAppTableRecord
  2
ACAD_MLEADERVER
 70
     0
  0
ENDTAB
  0
TABLE
  2
DIMSTYLE
  5
A17A
330
0
100
AcDbSymbolTable
 70
     1
100
AcDbDimStyleTable
 71
     0
  0
DIMSTYLE
105
A19E
330
A17A
100
AcDbSymbolTableRecord
100
AcDbDimStyleTableRecord
  2
STANDARD
 70
     0
 41
3.0
 42
1.0
 43
10.0
 44
1.0
 73
     0
 74
     0
 77
     3
 78
     8
140
3.2
141
0.0
147
1.0
172
     1
173
     1
284
     8
285
     8
286
     8
340
A181
  0
ENDTAB
  0
TABLE
  2
BLOCK_RECORD
  5
A171
330
0
100
AcDbSymbolTable
 70
     0
  0
BLOCK_RECORD
  5
A18E
102
{ACAD_XDICTIONARY
360
A438
102
}
330
A171
100
AcDbSymbolTableRecord
100
AcDbBlockTableRecord
  2
*MODEL_SPACE
340
A6F5
  0
BLOCK_RECORD
  5
A18A
102
{ACAD_XDICTIONARY
360
A436
102
}
330
A171
100
AcDbSymbolTableRecord
100
AcDbBlockTableRecord
  2
*PAPER_SPACE
340
A6F6
  0
ENDTAB
  0
ENDSEC
  0
SECTION
  2
BLOCKS
  0
BLOCK
  5
A18F
330
A18E
100
AcDbEntity
  8
0
100
AcDbBlockBegin
  2
*MODEL_SPACE
 70
     0
 10
0.0
 20
0.0
 30
0.0
  3
*MODEL_SPACE
  1

  0
ENDBLK
  5
A190
330
A18E
100
AcDbEntity
  8
0
100
AcDbBlockEnd
  0
BLOCK
  5
A18B
330
A18A
100
AcDbEntity
 67
     1
  8
0
100
AcDbBlockBegin
  2
*PAPER_SPACE
 70
     0
 10
0.0
 20
0.0
 30
0.0
  3
*PAPER_SPACE
  1

  0
ENDBLK
  5
A18C
330
A18A
100
AcDbEntity
 67
     1
  8
0
100
AcDbBlockEnd
  0
ENDSEC
  0
SECTION
  2
ENTITIES
  0
LINE
  5
A1A6
330
A18E
100
AcDbEntity
  8
1
  6
Continuous
100
AcDbLine
 10
189.0
 20
174.5
 30
0.0
 11
189.0
 21
374.5
 31
0.0
  0
LINE
  5
A1A7
330
A18E
100
AcDbEntity
  8
1
  6
Continuous
100
AcDbLine
 10
177.0
 20
174.5
 30
0.0
 11
177.0
 21
374.5
 31
0.0
  0
LINE
  5
A1A8
330
A18E
100
AcDbEntity
  8
1
  6
Continuous
100
AcDbLine
 10
189.0
 20
174.5
 30
0.0
 11
177.0
 21
174.5
 31
0.0
  0
LINE
  5
A1A9
330
A18E
100
AcDbEntity
  8
1
  6
Continuous
100
AcDbLine
 10
189.0
 20
374.5
 30
0.0
 11
177.0
 21
374.5
 31
0.0
  0
LINE
  5
A1AA
330
A18E
100
AcDbEntity
  8
1
  6
Continuous
100
AcDbLine
 10
184.4999999999997
 20
356.0
 30
0.0
 11
181.0
 21
356.0
 31
0.0
  0
LINE
  5
A1AB
330
A18E
100
AcDbEntity
  8
1
  6
Continuous
100
AcDbLine
 10
184.4999999999997
 20
328.0
 30
0.0
 11
181.0
 21
328.0
 31
0.0
  0
LINE
  5
A1AC
330
A18E
100
AcDbEntity
  8
1
  6
Continuous
100
AcDbLine
 10
180.0
 20
329.0
 30
0.0
 11
180.0
 21
355.0
 31
0.0
  0
LINE
  5
A1AD
330
A18E
100
AcDbEntity
  8
1
  6
Continuous
100
AcDbLine
 10
185.5
 20
329.0
 30
0.0
 11
185.5
 21
355.0
 31
0.0
  0
LINE
  5
A1AE
330
A18E
100
AcDbEntity
  8
4
  6
CENTER
 48
0.2
100
AcDbLine
 10
204.3000029999999
 20
184.0
 30
0.0
 11
164.300003
 21
184.0
 31
0.0
  0
LINE
  5
A1AF
330
A18E
100
AcDbEntity
  8
4
  6
CENTER
 48
0.2
100
AcDbLine
 10
197.5038909999999
 20
494.0
 30
0.0
 11
164.371384
 21
494.0
 31
0.0
  0
LINE
  5
A1B0
330
A18E
100
AcDbEntity
  8
1
  6
Continuous
100
AcDbLine
 10
186.8999939999999
 20
504.0
 30
0.0
 11
178.600006
 21
504.0
 31
0.0
  0
LINE
  5
A1B1
330
A18E
100
AcDbEntity
  8
1
  6
Continuous
100
AcDbLine
 10
178.600006
 20
374.5
 30
0.0
 11
178.600006
 21
504.0
 31
0.0
  0
LINE
  5
A1B2
330
A18E
100
AcDbEntity
  8
1
  6
Continuous
100
AcDbLine
 10
186.8999939999999
 20
374.5
 30
0.0
 11
186.8999939999999
 21
504.0
 31
0.0
  0
LINE
  5
A1B3
330
A18E
100
AcDbEntity
  8
1
  6
Continuous
100
AcDbLine
 10
169.300003
 20
169.0
 30
0.0
 11
169.300003
 21
199.0
 31
0.0
  0
LINE
  5
A1B4
330
A18E
100
AcDbEntity
  8
1
  6
Continuous
100
AcDbLine
 10
199.300003
 20
171.0
 30
0.0
 11
199.300003
 21
197.0
 31
0.0
  0
LINE
  5
A1B5
330
A18E
100
AcDbEntity
  8
1
  6
Continuous
100
AcDbLine
 10
197.300003
 20
169.0
 30
0.0
 11
169.300003
 21
169.0
 31
0.0
  0
LINE
  5
A1B6
330
A18E
100
AcDbEntity
  8
1
  6
Continuous
100
AcDbLine
 10
197.300003
 20
199.0
 30
0.0
 11
189.0
 21
199.0
 31
0.0
  0
LINE
  5
A1B7
330
A18E
100
AcDbEntity
  8
4
  6
CENTER
 48
0.2
100
AcDbLine
 10
191.300003
 20
169.699997
 30
0.0
 11
191.300003
 21
180.3000029999997
 31
0.0
  0
LINE
  5
A1B8
330
A18E
100
AcDbEntity
  8
4
  6
CENTER
 48
0.2
100
AcDbLine
 10
196.600006
 20
175.0
 30
0.0
 11
186.0
 21
175.0
 31
0.0
  0
LINE
  5
A1B9
330
A18E
100
AcDbEntity
  8
4
  6
CENTER
 48
0.2
100
AcDbLine
 10
191.300003
 20
187.6999969999999
 30
0.0
 11
191.300003
 21
198.300003
 31
0.0
  0
LINE
  5
A1BA
330
A18E
100
AcDbEntity
  8
4
  6
CENTER
 48
0.2
100
AcDbLine
 10
196.600006
 20
193.0
 30
0.0
 11
186.0
 21
193.0
 31
0.0
  0
LINE
  5
A1BB
330
A18E
100
AcDbEntity
  8
1
  6
Continuous
100
AcDbLine
 10
177.0
 20
199.0
 30
0.0
 11
169.300003
 21
199.0
 31
0.0
  0
LINE
  5
A1BC
330
A18E
100
AcDbEntity
  8
1
  6
Continuous
100
AcDbLine
 10
192.0
 20
177.5
 30
0.0
 11
192.0
 21
190.5
 31
0.0
  0
LINE
  5
A1BD
330
A18E
100
AcDbEntity
  8
1
  6
Continuous
100
AcDbLine
 10
191.0
 20
191.5
 30
0.0
 11
189.0
 21
191.5
 31
0.0
  0
LINE
  5
A1BE
330
A18E
100
AcDbEntity
  8
1
  6
Continuous
100
AcDbLine
 10
191.0
 20
176.5
 30
0.0
 11
189.0
 21
176.5
 31
0.0
  0
LINE
  5
A1BF
330
A18E
100
AcDbEntity
  8
1
  6
Continuous
100
AcDbLine
 10
192.0000149999999
 20
177.5000149999999
 30
0.0
 11
191.0000149999999
 21
176.5000149999999
 31
0.0
  0
LINE
  5
A1C0
330
A18E
100
AcDbEntity
  8
1
  6
Continuous
100
AcDbLine
 10
192.0
 20
190.500015
 30
0.0
 11
191.0
 21
191.500015
 31
0.0
  0
LINE
  5
A1C1
330
A18E
100
AcDbEntity
  8
1
  6
Continuous
100
AcDbLine
 10
191.0
 20
176.5
 30
0.0
 11
191.0
 21
191.5
 31
0.0
  0
LINE
  5
A1C2
330
A18E
100
AcDbEntity
  8
1
  6
Continuous
100
AcDbLine
 10
170.9
 20
181.0
 30
0.0
 11
170.9
 21
183.4999999999998
 31
0.0
  0
LINE
  5
A1C3
330
A18E
100
AcDbEntity
  8
1
  6
Continuous
100
AcDbLine
 10
177.0
 20
192.850006
 30
0.0
 11
175.3999939999999
 21
192.850006
 31
0.0
  0
LINE
  5
A1C4
330
A18E
100
AcDbEntity
  8
1
  6
Continuous
100
AcDbLine
 10
177.0
 20
175.1499939999999
 30
0.0
 11
175.3999939999999
 21
175.1499939999999
 31
0.0
  0
LINE
  5
A1C5
330
A18E
100
AcDbEntity
  8
1
  6
Continuous
100
AcDbLine
 10
172.4
 20
169.0
 30
0.0
 11
172.4
 21
199.0
 31
0.0
  0
LINE
  5
A1C6
330
A18E
100
AcDbEntity
  8
1
  6
Continuous
100
AcDbLine
 10
188.8999939999999
 20
501.4999999999998
 30
0.0
 11
186.8999939999999
 21
501.4999999999998
 31
0.0
  0
LINE
  5
A1C7
330
A18E
100
AcDbEntity
  8
1
  6
Continuous
100
AcDbLine
 10
188.8999939999999
 20
486.5
 30
0.0
 11
186.8999939999999
 21
486.5
 31
0.0
  0
LINE
  5
A1C8
330
A18E
100
AcDbEntity
  8
1
  6
Continuous
100
AcDbLine
 10
189.8999939999999
 20
487.5
 30
0.0
 11
189.8999939999999
 21
500.4999999999998
 31
0.0
  0
LINE
  5
A1C9
330
A18E
100
AcDbEntity
  8
1
  6
Continuous
100
AcDbLine
 10
189.900009
 20
487.5
 30
0.0
 11
188.900009
 21
486.5
 31
0.0
  0
LINE
  5
A1CA
330
A18E
100
AcDbEntity
  8
1
  6
Continuous
100
AcDbLine
 10
189.8999939999999
 20
500.4999999999998
 30
0.0
 11
188.8999939999999
 21
501.4999999999998
 31
0.0
  0
LINE
  5
A1CB
330
A18E
100
AcDbEntity
  8
1
  6
Continuous
100
AcDbLine
 10
188.8999939999999
 20
486.5
 30
0.0
 11
188.8999939999999
 21
501.4999999999998
 31
0.0
  0
LINE
  5
A1CC
330
A18E
100
AcDbEntity
  8
1
  6
Continuous
100
AcDbLine
 10
177.0
 20
485.149994
 30
0.0
 11
177.0
 21
504.100006
 31
0.0
  0
LINE
  5
A1CD
330
A18E
100
AcDbEntity
  8
1
  6
Continuous
100
AcDbLine
 10
178.600006
 20
502.8500059999998
 30
0.0
 11
177.0
 21
502.8500059999998
 31
0.0
  0
LINE
  5
A1CE
330
A18E
100
AcDbEntity
  8
1
  6
Continuous
100
AcDbLine
 10
178.600006
 20
485.149994
 30
0.0
 11
177.0
 21
485.149994
 31
0.0
  0
LINE
  5
A1CF
330
A18E
100
AcDbEntity
  8
1
  6
Continuous
100
AcDbLine
 10
174.100006
 20
486.0
 30
0.0
 11
174.100006
 21
504.100006
 31
0.0
  0
LINE
  5
A1D0
330
A18E
100
AcDbEntity
  8
1
  6
Continuous
100
AcDbLine
 10
201.0
 20
522.0
 30
0.0
 11
173.899994
 21
522.0
 31
0.0
  0
LINE
  5
A1D1
330
A18E
100
AcDbEntity
  8
1
  6
Continuous
100
AcDbLine
 10
174.100006
 20
507.0
 30
0.0
 11
173.899994
 21
507.0
 31
0.0
  0
LINE
  5
A1D2
330
A18E
100
AcDbEntity
  8
1
  6
Continuous
100
AcDbLine
 10
171.0
 20
507.0
 30
0.0
 11
171.0
 21
519.0999759999998
 31
0.0
  0
LINE
  5
A1D3
330
A18E
100
AcDbEntity
  8
1
  6
Continuous
100
AcDbLine
 10
174.100006
 20
504.100006
 30
0.0
 11
173.899994
 21
504.100006
 31
0.0
  0
LINE
  5
A1D4
330
A18E
100
AcDbEntity
  8
1
  6
Continuous
100
AcDbLine
 10
201.0
 20
519.0999759999998
 30
0.0
 11
173.899994
 21
519.0999759999998
 31
0.0
  0
LINE
  5
A1D5
330
A18E
100
AcDbEntity
  8
4
  6
CENTER
 48
0.2
100
AcDbLine
 10
178.2499999999997
 20
513.0
 30
0.0
 11
166.649994
 21
513.0
 31
0.0
  0
LINE
  5
A1D6
330
A18E
100
AcDbEntity
  8
4
  6
CENTER
 48
0.2
100
AcDbLine
 10
193.0
 20
514.7499999999999
 30
0.0
 11
193.0
 21
526.349976
 31
0.0
  0
LINE
  5
A1D7
330
A18E
100
AcDbEntity
  8
1
  6
Continuous
100
AcDbLine
 10
341.0
 20
169.0
 30
0.0
 11
320.0
 21
169.0
 31
0.0
  0
LINE
  5
A1D8
330
A18E
100
AcDbEntity
  8
1
  6
Continuous
100
AcDbLine
 10
341.0
 20
199.0
 30
0.0
 11
325.4999999999999
 21
199.0
 31
0.0
  0
LINE
  5
A1D9
330
A18E
100
AcDbEntity
  8
4
  6
CENTER
100
AcDbLine
 10
53.0
 20
164.0
 30
0.0
 11
53.0
 21
527.0
 31
0.0
  0
LINE
  5
A1DA
330
A18E
100
AcDbEntity
  8
1
  6
Continuous
100
AcDbLine
 10
300.4999999999999
 20
174.5
 30
0.0
 11
300.4999999999999
 21
374.5
 31
0.0
  0
LINE
  5
A1DB
330
A18E
100
AcDbEntity
  8
1
  6
Continuous
100
AcDbLine
 10
325.4999999999999
 20
174.5
 30
0.0
 11
325.4999999999999
 21
374.5
 31
0.0
  0
LINE
  5
A1DC
330
A18E
100
AcDbEntity
  8
1
  6
Continuous
100
AcDbLine
 10
57.608189
 20
174.5
 30
0.0
 11
65.5
 21
174.5
 31
0.0
  0
LINE
  5
A1DD
330
A18E
100
AcDbEntity
  8
1
  6
Continuous
100
AcDbLine
 10
341.0
 20
169.0
 30
0.0
 11
341.0
 21
199.0
 31
0.0
  0
LINE
  5
A1DE
330
A18E
100
AcDbEntity
  8
4
  6
CENTER
 48
0.2
100
AcDbLine
 10
346.0
 20
184.0
 30
0.0
 11
300.4999999999999
 21
184.0
 31
0.0
  0
LINE
  5
A1DF
330
A18E
100
AcDbEntity
  8
1
  6
Continuous
100
AcDbLine
 10
177.0
 20
486.0
 30
0.0
 11
174.100006
 21
486.0
 31
0.0
  0
LINE
  5
A1E0
330
A18E
100
AcDbEntity
  8
1
  6
Continuous
100
AcDbLine
 10
338.100006
 20
169.0
 30
0.0
 11
338.100006
 21
199.0
 31
0.0
  0
LINE
  5
A1E1
330
A18E
100
AcDbEntity
  8
4
  6
CENTER
 48
0.2
100
AcDbLine
 10
332.0
 20
169.699997
 30
0.0
 11
332.0
 21
180.3000029999997
 31
0.0
  0
LINE
  5
A1E2
330
A18E
100
AcDbEntity
  8
4
  6
CENTER
 48
0.2
100
AcDbLine
 10
332.0
 20
187.6999969999999
 30
0.0
 11
332.0
 21
198.300003
 31
0.0
  0
LINE
  5
A1E3
330
A18E
100
AcDbEntity
  8
1
  6
Continuous
100
AcDbLine
 10
328.0
 20
522.0
 30
0.0
 11
298.0
 21
522.0
 31
0.0
  0
LINE
  5
A1E4
330
A18E
100
AcDbEntity
  8
1
  6
Continuous
100
AcDbLine
 10
328.0
 20
519.0999759999998
 30
0.0
 11
298.0
 21
519.0999759999998
 31
0.0
  0
LINE
  5
A1E5
330
A18E
100
AcDbEntity
  8
1
  6
Continuous
100
AcDbLine
 10
328.0
 20
507.0
 30
0.0
 11
298.0
 21
507.0
 31
0.0
  0
LINE
  5
A1E6
330
A18E
100
AcDbEntity
  8
1
  6
Continuous
100
AcDbLine
 10
328.0
 20
501.0
 30
0.0
 11
328.0
 21
522.0
 31
0.0
  0
LINE
  5
A1E7
330
A18E
100
AcDbEntity
  8
1
  6
Continuous
100
AcDbLine
 10
298.0
 20
501.0
 30
0.0
 11
298.0
 21
522.0
 31
0.0
  0
LINE
  5
A1E8
330
A18E
100
AcDbEntity
  8
1
  6
Continuous
100
AcDbLine
 10
323.4999999999998
 20
504.0
 30
0.0
 11
302.4999999999999
 21
504.0
 31
0.0
  0
LINE
  5
A1E9
330
A18E
100
AcDbEntity
  8
4
  6
CENTER
 48
0.2
100
AcDbLine
 10
304.0
 20
508.3500059999998
 30
0.0
 11
304.0
 21
527.0
 31
0.0
  0
LINE
  5
A1EA
330
A18E
100
AcDbEntity
  8
4
  6
CENTER
 48
0.2
100
AcDbLine
 10
308.6499939999999
 20
513.0
 30
0.0
 11
299.350006
 21
513.0
 31
0.0
  0
LINE
  5
A1EB
330
A18E
100
AcDbEntity
  8
4
  6
CENTER
 48
0.2
100
AcDbLine
 10
322.0
 20
508.3500059999998
 30
0.0
 11
322.0
 21
527.0
 31
0.0
  0
LINE
  5
A1EC
330
A18E
100
AcDbEntity
  8
4
  6
CENTER
 48
0.2
100
AcDbLine
 10
326.649994
 20
513.0
 30
0.0
 11
317.350006
 21
513.0
 31
0.0
  0
LINE
  5
A1ED
330
A18E
100
AcDbEntity
  8
4
  6
CENTER
 48
0.2
100
AcDbLine
 10
325.4999999999999
 20
494.0
 30
0.0
 11
300.4999999999999
 21
494.0
 31
0.0
  0
LINE
  5
A1EE
330
A18E
100
AcDbEntity
  8
1
  6
Continuous
100
AcDbLine
 10
326.0
 20
169.0
 30
0.0
 11
326.0
 21
199.0
 31
0.0
  0
LINE
  5
A1EF
330
A18E
100
AcDbEntity
  8
1
  6
Continuous
100
AcDbLine
 10
25.0
 20
199.0
 30
0.0
 11
46.0
 21
199.0
 31
0.0
  0
LINE
  5
A1F0
330
A18E
100
AcDbEntity
  8
1
  6
Continuous
100
AcDbLine
 10
25.0
 20
169.0
 30
0.0
 11
46.0
 21
169.0
 31
0.0
  0
LINE
  5
A1F1
330
A18E
100
AcDbEntity
  8
4
  6
CENTER
100
AcDbLine
 10
313.0
 20
164.0
 30
0.0
 11
313.0
 21
527.0
 31
0.0
  0
LINE
  5
A1F2
330
A18E
100
AcDbEntity
  8
1
  6
Continuous
100
AcDbLine
 10
325.4999999999999
 20
174.5
 30
0.0
 11
300.4999999999999
 21
174.5
 31
0.0
  0
LINE
  5
A1F3
330
A18E
100
AcDbEntity
  8
4
  6
CENTER
 48
0.2
100
AcDbLine
 10
34.0
 20
169.699997
 30
0.0
 11
34.0
 21
180.3000029999997
 31
0.0
  0
LINE
  5
A1F4
330
A18E
100
AcDbEntity
  8
1
  6
Continuous
100
AcDbLine
 10
25.0
 20
169.0
 30
0.0
 11
25.0
 21
199.0
 31
0.0
  0
LINE
  5
A1F5
330
A18E
100
AcDbEntity
  8
4
  6
CENTER
 48
0.2
100
AcDbLine
 10
20.0
 20
184.0
 30
0.0
 11
66.0
 21
184.0
 31
0.0
  0
LINE
  5
A1F6
330
A18E
100
AcDbEntity
  8
4
  6
CENTER
 48
0.2
100
AcDbLine
 10
20.0
 20
175.0
 30
0.0
 11
39.299999
 21
175.0
 31
0.0
  0
LINE
  5
A1F7
330
A18E
100
AcDbEntity
  8
4
  6
CENTER
 48
0.2
100
AcDbLine
 10
34.0
 20
187.6999969999999
 30
0.0
 11
34.0
 21
198.300003
 31
0.0
  0
LINE
  5
A1F8
330
A18E
100
AcDbEntity
  8
4
  6
CENTER
 48
0.2
100
AcDbLine
 10
20.0
 20
193.0
 30
0.0
 11
39.299999
 21
193.0
 31
0.0
  0
LINE
  5
A1F9
330
A18E
100
AcDbEntity
  8
1
  6
Continuous
100
AcDbLine
 10
199.0
 20
589.0
 30
0.0
 11
171.0
 21
589.0
 31
0.0
  0
LINE
  5
A1FA
330
A18E
100
AcDbEntity
  8
1
  6
Continuous
100
AcDbLine
 10
199.0
 20
619.0
 30
0.0
 11
171.0
 21
619.0
 31
0.0
  0
LINE
  5
A1FB
330
A18E
100
AcDbEntity
  8
1
  6
Continuous
100
AcDbLine
 10
184.3000029999998
 20
337.0
 30
0.0
 11
180.3000029999997
 21
337.0
 31
0.0
  0
LINE
  5
A1FC
330
A18E
100
AcDbEntity
  8
1
  6
Continuous
100
AcDbLine
 10
184.3000029999998
 20
336.0
 30
0.0
 11
180.3000029999997
 21
336.0
 31
0.0
  0
LINE
  5
A1FD
330
A18E
100
AcDbEntity
  8
1
  6
Continuous
100
AcDbLine
 10
184.074997
 20
338.0
 30
0.0
 11
181.0749969999999
 21
338.0
 31
0.0
  0
LINE
  5
A1FE
330
A18E
100
AcDbEntity
  8
1
  6
Continuous
100
AcDbLine
 10
300.4999999999999
 20
344.0
 30
0.0
 11
299.0568539999998
 21
338.9090879999999
 31
0.0
  0
LINE
  5
A1FF
330
A18E
100
AcDbEntity
  8
1
  6
Continuous
100
AcDbLine
 10
325.4999999999999
 20
374.5
 30
0.0
 11
300.4999999999999
 21
374.5
 31
0.0
  0
LINE
  5
A200
330
A18E
100
AcDbEntity
  8
1
  6
Continuous
100
AcDbLine
 10
63.5
 20
374.5
 30
0.0
 11
63.5
 21
490.287872
 31
0.0
  0
LINE
  5
A201
330
A18E
100
AcDbEntity
  8
1
  6
Continuous
100
AcDbLine
 10
42.5
 20
374.5
 30
0.0
 11
42.5
 21
490.287872
 31
0.0
  0
LINE
  5
A202
330
A18E
100
AcDbEntity
  8
1
  6
Continuous
100
AcDbLine
 10
323.4999999999998
 20
374.5
 30
0.0
 11
323.4999999999998
 21
504.0
 31
0.0
  0
LINE
  5
A203
330
A18E
100
AcDbEntity
  8
1
  6
Continuous
100
AcDbLine
 10
302.4999999999999
 20
374.5
 30
0.0
 11
302.4999999999999
 21
504.0
 31
0.0
  0
LINE
  5
A204
330
A18E
100
AcDbEntity
  8
1
  6
Continuous
100
AcDbLine
 10
325.4999999999999
 20
360.4999999999998
 30
0.0
 11
325.4999999999999
 21
360.4999999999998
 31
0.0
  0
LINE
  5
A205
330
A18E
100
AcDbEntity
  8
1
  6
Continuous
100
AcDbLine
 10
325.4999999999999
 20
356.4999999999998
 30
0.0
 11
325.4999999999999
 21
356.4999999999998
 31
0.0
  0
LINE
  5
A206
330
A18E
100
AcDbEntity
  8
1
  6
Continuous
100
AcDbLine
 10
325.4999999999999
 20
370.5
 30
0.0
 11
325.4999999999999
 21
370.5
 31
0.0
  0
LINE
  5
A207
330
A18E
100
AcDbEntity
  8
1
  6
Continuous
100
AcDbLine
 10
325.4999999999999
 20
366.5
 30
0.0
 11
325.4999999999999
 21
366.5
 31
0.0
  0
LINE
  5
A208
330
A18E
100
AcDbEntity
  8
1
  6
Continuous
100
AcDbLine
 10
170.9
 20
184.5000149999999
 30
0.0
 11
171.65
 21
184.0000149999999
 31
0.0
  0
LINE
  5
A209
330
A18E
100
AcDbEntity
  8
1
  6
Continuous
100
AcDbLine
 10
171.65
 20
184.0
 30
0.0
 11
170.9
 21
183.4999999999998
 31
0.0
  0
LINE
  5
A20A
330
A18E
100
AcDbEntity
  8
1
  6
Continuous
100
AcDbLine
 10
170.9
 20
184.4999999999997
 30
0.0
 11
170.9
 21
187.0
 31
0.0
  0
LINE
  5
A20B
330
A18E
100
AcDbEntity
  8
1
  6
Continuous
100
AcDbLine
 10
201.0
 20
519.0999759999998
 30
0.0
 11
201.0
 21
522.0
 31
0.0
  0
LINE
  5
A20C
330
A18E
100
AcDbEntity
  8
1
  6
Continuous
100
AcDbLine
 10
172.600006
 20
494.5
 30
0.0
 11
172.600006
 21
497.0
 31
0.0
  0
LINE
  5
A20D
330
A18E
100
AcDbEntity
  8
1
  6
Continuous
100
AcDbLine
 10
172.600006
 20
491.0
 30
0.0
 11
172.600006
 21
493.5
 31
0.0
  0
LINE
  5
A20E
330
A18E
100
AcDbEntity
  8
1
  6
Continuous
100
AcDbLine
 10
172.5999909999999
 20
494.5
 30
0.0
 11
173.3499909999999
 21
494.0
 31
0.0
  0
LINE
  5
A20F
330
A18E
100
AcDbEntity
  8
1
  6
Continuous
100
AcDbLine
 10
173.3499909999999
 20
494.0
 30
0.0
 11
172.5999909999999
 21
493.5
 31
0.0
  0
LINE
  5
A210
330
A18E
100
AcDbEntity
  8
1
  6
Continuous
100
AcDbLine
 10
55.958038
 20
183.4999999999998
 30
0.0
 11
53.5
 21
183.4999999999998
 31
0.0
  0
LINE
  5
A211
330
A18E
100
AcDbEntity
  8
1
  6
Continuous
100
AcDbLine
 10
55.958038
 20
184.4999999999997
 30
0.0
 11
53.5
 21
184.4999999999997
 31
0.0
  0
LINE
  5
A212
330
A18E
100
AcDbEntity
  8
1
  6
Continuous
100
AcDbLine
 10
53.5
 20
181.041962
 30
0.0
 11
53.5
 21
183.4999999999998
 31
0.0
  0
LINE
  5
A213
330
A18E
100
AcDbEntity
  8
1
  6
Continuous
100
AcDbLine
 10
52.5
 20
181.041962
 30
0.0
 11
52.5
 21
183.4999999999998
 31
0.0
  0
LINE
  5
A214
330
A18E
100
AcDbEntity
  8
1
  6
Continuous
100
AcDbLine
 10
53.5
 20
184.4999999999997
 30
0.0
 11
53.5
 21
186.958038
 31
0.0
  0
LINE
  5
A215
330
A18E
100
AcDbEntity
  8
1
  6
Continuous
100
AcDbLine
 10
52.5
 20
184.4999999999997
 30
0.0
 11
52.5
 21
186.958038
 31
0.0
  0
LINE
  5
A216
330
A18E
100
AcDbEntity
  8
1
  6
Continuous
100
AcDbLine
 10
52.5
 20
183.4999999999998
 30
0.0
 11
50.04196199999999
 21
183.4999999999998
 31
0.0
  0
LINE
  5
A217
330
A18E
100
AcDbEntity
  8
1
  6
Continuous
100
AcDbLine
 10
52.5
 20
184.4999999999997
 30
0.0
 11
50.04196199999999
 21
184.4999999999997
 31
0.0
  0
LINE
  5
A218
330
A18E
100
AcDbEntity
  8
1
  6
Continuous
100
AcDbLine
 10
42.900002
 20
169.0
 30
0.0
 11
42.900002
 21
199.0
 31
0.0
  0
LINE
  5
A219
330
A18E
100
AcDbEntity
  8
4
  6
CENTER
 48
0.2
100
AcDbLine
 10
346.0
 20
175.0
 30
0.0
 11
326.700012
 21
175.0
 31
0.0
  0
LINE
  5
A21A
330
A18E
100
AcDbEntity
  8
4
  6
CENTER
 48
0.2
100
AcDbLine
 10
346.0
 20
193.0
 30
0.0
 11
326.700012
 21
193.0
 31
0.0
  0
LINE
  5
A21B
330
A18E
100
AcDbEntity
  8
1
  6
Continuous
100
AcDbLine
 10
174.100006
 20
491.0
 30
0.0
 11
172.600006
 21
491.0
 31
0.0
  0
LINE
  5
A21C
330
A18E
100
AcDbEntity
  8
1
  6
Continuous
100
AcDbLine
 10
174.100006
 20
497.0
 30
0.0
 11
172.600006
 21
497.0
 31
0.0
  0
LINE
  5
A21D
330
A18E
100
AcDbEntity
  8
1
  6
Continuous
100
AcDbLine
 10
172.4
 20
181.0
 30
0.0
 11
170.9
 21
181.0
 31
0.0
  0
LINE
  5
A21E
330
A18E
100
AcDbEntity
  8
1
  6
Continuous
100
AcDbLine
 10
172.4
 20
187.0
 30
0.0
 11
170.9
 21
187.0
 31
0.0
  0
LINE
  5
A21F
330
A18E
100
AcDbEntity
  8
1
  6
Continuous
100
AcDbLine
 10
68.0
 20
522.0
 30
0.0
 11
68.0
 21
501.0
 31
0.0
  0
LINE
  5
A220
330
A18E
100
AcDbEntity
  8
1
  6
Continuous
100
AcDbLine
 10
38.0
 20
522.0
 30
0.0
 11
38.0
 21
501.0
 31
0.0
  0
LINE
  5
A221
330
A18E
100
AcDbEntity
  8
4
  6
CENTER
 48
0.2
100
AcDbLine
 10
39.34999799999999
 20
513.0
 30
0.0
 11
48.650002
 21
513.0
 31
0.0
  0
LINE
  5
A222
330
A18E
100
AcDbEntity
  8
1
  6
Continuous
100
AcDbLine
 10
38.0
 20
522.0
 30
0.0
 11
68.0
 21
522.0
 31
0.0
  0
LINE
  5
A223
330
A18E
100
AcDbEntity
  8
4
  6
CENTER
 48
0.2
100
AcDbLine
 10
44.0
 20
527.0
 30
0.0
 11
44.0
 21
508.3500059999998
 31
0.0
  0
LINE
  5
A224
330
A18E
100
AcDbEntity
  8
4
  6
CENTER
 48
0.2
100
AcDbLine
 10
57.349998
 20
513.0
 30
0.0
 11
66.650002
 21
513.0
 31
0.0
  0
LINE
  5
A225
330
A18E
100
AcDbEntity
  8
4
  6
CENTER
 48
0.2
100
AcDbLine
 10
62.0
 20
527.0
 30
0.0
 11
62.0
 21
508.3500059999998
 31
0.0
  0
LINE
  5
A226
330
A18E
100
AcDbEntity
  8
1
  6
Continuous
100
AcDbLine
 10
52.5
 20
491.0419619999998
 30
0.0
 11
52.5
 21
493.5
 31
0.0
  0
LINE
  5
A227
330
A18E
100
AcDbEntity
  8
1
  6
Continuous
100
AcDbLine
 10
53.5
 20
491.0419619999998
 30
0.0
 11
53.5
 21
493.5
 31
0.0
  0
LINE
  5
A228
330
A18E
100
AcDbEntity
  8
1
  6
Continuous
100
AcDbLine
 10
50.04196199999999
 20
493.5
 30
0.0
 11
52.5
 21
493.5
 31
0.0
  0
LINE
  5
A229
330
A18E
100
AcDbEntity
  8
1
  6
Continuous
100
AcDbLine
 10
50.04196199999999
 20
494.5
 30
0.0
 11
52.5
 21
494.5
 31
0.0
  0
LINE
  5
A22A
330
A18E
100
AcDbEntity
  8
1
  6
Continuous
100
AcDbLine
 10
53.5
 20
493.5
 30
0.0
 11
55.958038
 21
493.5
 31
0.0
  0
LINE
  5
A22B
330
A18E
100
AcDbEntity
  8
1
  6
Continuous
100
AcDbLine
 10
53.5
 20
494.5
 30
0.0
 11
55.958038
 21
494.5
 31
0.0
  0
LINE
  5
A22C
330
A18E
100
AcDbEntity
  8
1
  6
Continuous
100
AcDbLine
 10
52.5
 20
494.5
 30
0.0
 11
52.5
 21
496.958038
 31
0.0
  0
LINE
  5
A22D
330
A18E
100
AcDbEntity
  8
1
  6
Continuous
100
AcDbLine
 10
53.5
 20
494.5
 30
0.0
 11
53.5
 21
496.958038
 31
0.0
  0
LINE
  5
A22E
330
A18E
100
AcDbEntity
  8
1
  6
Continuous
100
AcDbLine
 10
38.0
 20
504.100006
 30
0.0
 11
68.0
 21
504.100006
 31
0.0
  0
LINE
  5
A22F
330
A18E
100
AcDbEntity
  8
4
  6
CENTER
 48
0.2
100
AcDbLine
 10
59.5
 20
494.0
 30
0.0
 11
46.5
 21
494.0
 31
0.0
  0
LINE
  5
A230
330
A18E
100
AcDbEntity
  8
1
  6
Continuous
100
AcDbLine
 10
201.0
 20
591.0
 30
0.0
 11
201.0
 21
617.0
 31
0.0
  0
LINE
  5
A231
330
A18E
100
AcDbEntity
  8
1
  6
Continuous
100
AcDbLine
 10
171.0
 20
589.0
 30
0.0
 11
171.0
 21
619.0
 31
0.0
  0
LINE
  5
A232
330
A18E
100
AcDbEntity
  8
4
  6
CENTER
 48
0.2
100
AcDbLine
 10
205.850006
 20
604.0
 30
0.0
 11
166.0
 21
604.0
 31
0.0
  0
LINE
  5
A233
330
A18E
100
AcDbEntity
  8
4
  6
CENTER
 48
0.2
100
AcDbLine
 10
187.6999969999999
 20
595.0
 30
0.0
 11
198.300003
 21
595.0
 31
0.0
  0
LINE
  5
A234
330
A18E
100
AcDbEntity
  8
4
  6
CENTER
 48
0.2
100
AcDbLine
 10
193.0
 20
589.700012
 30
0.0
 11
193.0
 21
600.2999879999999
 31
0.0
  0
LINE
  5
A235
330
A18E
100
AcDbEntity
  8
4
  6
CENTER
 48
0.2
100
AcDbLine
 10
187.6999969999999
 20
613.0
 30
0.0
 11
198.300003
 21
613.0
 31
0.0
  0
LINE
  5
A236
330
A18E
100
AcDbEntity
  8
4
  6
CENTER
 48
0.2
100
AcDbLine
 10
193.0
 20
607.700012
 30
0.0
 11
193.0
 21
618.2999879999997
 31
0.0
  0
LINE
  5
A237
330
A18E
100
AcDbEntity
  8
1
  6
Continuous
100
AcDbLine
 10
199.300003
 20
629.099976
 30
0.0
 11
199.300003
 21
632.0
 31
0.0
  0
LINE
  5
A238
330
A18E
100
AcDbEntity
  8
1
  6
Continuous
100
AcDbLine
 10
169.300003
 20
617.0
 30
0.0
 11
169.300003
 21
629.099976
 31
0.0
  0
LINE
  5
A239
330
A18E
100
AcDbEntity
  8
1
  6
Continuous
100
AcDbLine
 10
199.300003
 20
632.0
 30
0.0
 11
172.1999969999999
 21
632.0
 31
0.0
  0
LINE
  5
A23A
330
A18E
100
AcDbEntity
  8
1
  6
Continuous
100
AcDbLine
 10
199.300003
 20
629.099976
 30
0.0
 11
172.1999969999999
 21
629.099976
 31
0.0
  0
LINE
  5
A23B
330
A18E
100
AcDbEntity
  8
4
  6
CENTER
 48
0.2
100
AcDbLine
 10
176.550003
 20
623.0
 30
0.0
 11
164.9499969999999
 21
623.0
 31
0.0
  0
LINE
  5
A23C
330
A18E
100
AcDbEntity
  8
1
  6
Continuous
100
AcDbLine
 10
171.0
 20
84.0
 30
0.0
 11
171.0
 21
72.0
 31
0.0
  0
LINE
  5
A23D
330
A18E
100
AcDbEntity
  8
4
  6
CENTER
 48
0.2
100
AcDbLine
 10
191.300003
 20
48.25
 30
0.0
 11
191.300003
 21
36.650002
 31
0.0
  0
LINE
  5
A23E
330
A18E
100
AcDbEntity
  8
1
  6
Continuous
100
AcDbLine
 10
172.4
 20
56.0
 30
0.0
 11
172.1999969999999
 21
56.0
 31
0.0
  0
LINE
  5
A23F
330
A18E
100
AcDbEntity
  8
1
  6
Continuous
100
AcDbLine
 10
175.2999939999999
 20
76.99999999999999
 30
0.0
 11
175.2999939999999
 21
58.900002
 31
0.0
  0
LINE
  5
A240
330
A18E
100
AcDbEntity
  8
1
  6
Continuous
100
AcDbLine
 10
177.0
 20
79.900002
 30
0.0
 11
177.0
 21
58.09999799999999
 31
0.0
  0
LINE
  5
A241
330
A18E
100
AcDbEntity
  8
1
  6
Continuous
100
AcDbLine
 10
172.4
 20
58.900002
 30
0.0
 11
172.1999969999999
 21
58.900002
 31
0.0
  0
LINE
  5
A242
330
A18E
100
AcDbEntity
  8
1
  6
Continuous
100
AcDbLine
 10
192.0
 20
75.5
 30
0.0
 11
192.0
 21
62.5
 31
0.0
  0
LINE
  5
A243
330
A18E
100
AcDbEntity
  8
1
  6
Continuous
100
AcDbLine
 10
169.300003
 20
56.0
 30
0.0
 11
169.300003
 21
43.900002
 31
0.0
  0
LINE
  5
A244
330
A18E
100
AcDbEntity
  8
4
  6
CENTER
 48
0.2
100
AcDbLine
 10
176.550003
 20
50.0
 30
0.0
 11
164.9499969999999
 21
50.0
 31
0.0
  0
LINE
  5
A245
330
A18E
100
AcDbEntity
  8
1
  6
Continuous
100
AcDbLine
 10
199.300003
 20
43.900002
 30
0.0
 11
172.1999969999999
 21
43.900002
 31
0.0
  0
LINE
  5
A246
330
A18E
100
AcDbEntity
  8
1
  6
Continuous
100
AcDbLine
 10
199.300003
 20
41.0
 30
0.0
 11
172.1999969999999
 21
41.0
 31
0.0
  0
LINE
  5
A247
330
A18E
100
AcDbEntity
  8
1
  6
Continuous
100
AcDbLine
 10
199.300003
 20
43.900002
 30
0.0
 11
199.300003
 21
41.0
 31
0.0
  0
LINE
  5
A248
330
A18E
100
AcDbEntity
  8
1
  6
Continuous
100
AcDbLine
 10
177.0
 20
60.150002
 30
0.0
 11
175.3999939999999
 21
60.150002
 31
0.0
  0
LINE
  5
A249
330
A18E
100
AcDbEntity
  8
1
  6
Continuous
100
AcDbLine
 10
170.9
 20
68.499992
 30
0.0
 11
171.65
 21
69.0
 31
0.0
  0
LINE
  5
A24A
330
A18E
100
AcDbEntity
  8
1
  6
Continuous
100
AcDbLine
 10
175.2999939999999
 20
77.0
 30
0.0
 11
172.4
 21
77.0
 31
0.0
  0
LINE
  5
A24B
330
A18E
100
AcDbEntity
  8
1
  6
Continuous
100
AcDbLine
 10
172.4
 20
77.0
 30
0.0
 11
172.4
 21
58.900002
 31
0.0
  0
LINE
  5
A24C
330
A18E
100
AcDbEntity
  8
1
  6
Continuous
100
AcDbLine
 10
191.0
 20
76.5
 30
0.0
 11
191.0
 21
61.5
 31
0.0
  0
LINE
  5
A24D
330
A18E
100
AcDbEntity
  8
1
  6
Continuous
100
AcDbLine
 10
177.0
 20
77.849998
 30
0.0
 11
175.3999939999999
 21
77.849998
 31
0.0
  0
LINE
  5
A24E
330
A18E
100
AcDbEntity
  8
1
  6
Continuous
100
AcDbLine
 10
191.0
 20
61.5
 30
0.0
 11
189.0
 21
61.5
 31
0.0
  0
LINE
  5
A24F
330
A18E
100
AcDbEntity
  8
1
  6
Continuous
100
AcDbLine
 10
191.0
 20
76.5
 30
0.0
 11
189.0
 21
76.5
 31
0.0
  0
LINE
  5
A250
330
A18E
100
AcDbEntity
  8
1
  6
Continuous
100
AcDbLine
 10
192.0
 20
62.5
 30
0.0
 11
191.0
 21
61.5
 31
0.0
  0
LINE
  5
A251
330
A18E
100
AcDbEntity
  8
1
  6
Continuous
100
AcDbLine
 10
192.0
 20
75.5
 30
0.0
 11
191.0
 21
76.50000799999998
 31
0.0
  0
LINE
  5
A252
330
A18E
100
AcDbEntity
  8
1
  6
Continuous
100
AcDbLine
 10
172.4
 20
66.0
 30
0.0
 11
170.9
 21
66.0
 31
0.0
  0
LINE
  5
A253
330
A18E
100
AcDbEntity
  8
1
  6
Continuous
100
AcDbLine
 10
172.4
 20
72.0
 30
0.0
 11
170.9
 21
72.0
 31
0.0
  0
LINE
  5
A254
330
A18E
100
AcDbEntity
  8
1
  6
Continuous
100
AcDbLine
 10
171.65
 20
69.0
 30
0.0
 11
170.9
 21
69.5
 31
0.0
  0
LINE
  5
A255
330
A18E
100
AcDbEntity
  8
1
  6
Continuous
100
AcDbLine
 10
199.0
 20
84.0
 30
0.0
 11
171.0
 21
84.0
 31
0.0
  0
LINE
  5
A256
330
A18E
100
AcDbEntity
  8
1
  6
Continuous
100
AcDbLine
 10
199.0
 20
54.0
 30
0.0
 11
172.1999969999999
 21
54.0
 31
0.0
  0
LINE
  5
A257
330
A18E
100
AcDbEntity
  8
4
  6
CENTER
 48
0.2
100
AcDbLine
 10
205.850006
 20
69.0
 30
0.0
 11
166.0
 21
69.0
 31
0.0
  0
LINE
  5
A258
330
A18E
100
AcDbEntity
  8
1
  6
Continuous
100
AcDbLine
 10
201.0
 20
82.0
 30
0.0
 11
201.0
 21
56.0
 31
0.0
  0
LINE
  5
A259
330
A18E
100
AcDbEntity
  8
1
  6
Continuous
100
AcDbLine
 10
189.0
 20
58.09999799999999
 30
0.0
 11
189.0
 21
79.900002
 31
0.0
  0
LINE
  5
A25A
330
A18E
100
AcDbEntity
  8
1
  6
Continuous
100
AcDbLine
 10
187.399994
 20
81.5
 30
0.0
 11
178.600006
 21
81.5
 31
0.0
  0
LINE
  5
A25B
330
A18E
100
AcDbEntity
  8
1
  6
Continuous
100
AcDbLine
 10
187.399994
 20
56.5
 30
0.0
 11
178.600006
 21
56.5
 31
0.0
  0
LINE
  5
A25C
330
A18E
100
AcDbEntity
  8
1
  6
Continuous
100
AcDbLine
 10
174.1999969999999
 20
84.0
 30
0.0
 11
174.1999969999999
 21
77.0
 31
0.0
  0
LINE
  5
A25D
330
A18E
100
AcDbEntity
  8
1
  6
Continuous
100
AcDbLine
 10
174.1999969999999
 20
56.55053299999998
 30
0.0
 11
174.1999969999999
 21
54.0
 31
0.0
  0
LINE
  5
A25E
330
A18E
100
AcDbEntity
  8
1
  6
Continuous
100
AcDbLine
 10
177.100006
 20
57.543224
 30
0.0
 11
177.100006
 21
54.0
 31
0.0
  0
LINE
  5
A25F
330
A18E
100
AcDbEntity
  8
1
  6
Continuous
100
AcDbLine
 10
187.399994
 20
58.09999799999999
 30
0.0
 11
187.399994
 21
79.900002
 31
0.0
  0
LINE
  5
A260
330
A18E
100
AcDbEntity
  8
1
  6
Continuous
100
AcDbLine
 10
187.399994
 20
58.09999799999999
 30
0.0
 11
178.600006
 21
58.09999799999999
 31
0.0
  0
LINE
  5
A261
330
A18E
100
AcDbEntity
  8
1
  6
Continuous
100
AcDbLine
 10
178.600006
 20
79.900002
 30
0.0
 11
178.600006
 21
58.09999799999999
 31
0.0
  0
LINE
  5
A262
330
A18E
100
AcDbEntity
  8
1
  6
Continuous
100
AcDbLine
 10
187.399994
 20
79.900002
 30
0.0
 11
178.600006
 21
79.900002
 31
0.0
  0
LINE
  5
A263
330
A18E
100
AcDbEntity
  8
1
  6
Continuous
100
AcDbLine
 10
187.399994
 20
65.0
 30
0.0
 11
178.600006
 21
65.0
 31
0.0
  0
LINE
  5
A264
330
A18E
100
AcDbEntity
  8
1
  6
Continuous
100
AcDbLine
 10
187.399994
 20
73.0
 30
0.0
 11
178.600006
 21
73.0
 31
0.0
  0
LINE
  5
A265
330
A18E
100
AcDbEntity
  8
1
  6
Continuous
100
AcDbLine
 10
186.8999939999999
 20
58.5
 30
0.0
 11
186.8999939999999
 21
65.0
 31
0.0
  0
LINE
  5
A266
330
A18E
100
AcDbEntity
  8
1
  6
Continuous
100
AcDbLine
 10
185.300003
 20
79.5
 30
0.0
 11
180.1999969999999
 21
79.5
 31
0.0
  0
LINE
  5
A267
330
A18E
100
AcDbEntity
  8
1
  6
Continuous
100
AcDbLine
 10
186.8999939999999
 20
58.5
 30
0.0
 11
185.300003
 21
58.5
 31
0.0
  0
LINE
  5
A268
330
A18E
100
AcDbEntity
  8
1
  6
Continuous
100
AcDbLine
 10
185.300003
 20
58.5
 30
0.0
 11
185.300003
 21
65.0
 31
0.0
  0
LINE
  5
A269
330
A18E
100
AcDbEntity
  8
1
  6
Continuous
100
AcDbLine
 10
180.1999969999999
 20
58.5
 30
0.0
 11
180.1999969999999
 21
65.0
 31
0.0
  0
LINE
  5
A26A
330
A18E
100
AcDbEntity
  8
1
  6
Continuous
100
AcDbLine
 10
185.300003
 20
77.900002
 30
0.0
 11
180.1999969999999
 21
77.900002
 31
0.0
  0
LINE
  5
A26B
330
A18E
100
AcDbEntity
  8
1
  6
Continuous
100
AcDbLine
 10
180.1999969999999
 20
58.5
 30
0.0
 11
178.600006
 21
58.5
 31
0.0
  0
LINE
  5
A26C
330
A18E
100
AcDbEntity
  8
1
  6
Continuous
100
AcDbLine
 10
185.300003
 20
73.0
 30
0.0
 11
185.300003
 21
77.900002
 31
0.0
  0
LINE
  5
A26D
330
A18E
100
AcDbEntity
  8
1
  6
Continuous
100
AcDbLine
 10
186.8999939999999
 20
73.0
 30
0.0
 11
186.8999939999999
 21
77.900002
 31
0.0
  0
LINE
  5
A26E
330
A18E
100
AcDbEntity
  8
1
  6
Continuous
100
AcDbLine
 10
180.1999969999999
 20
73.0
 30
0.0
 11
180.1999969999999
 21
77.900002
 31
0.0
  0
LINE
  5
A26F
330
A18E
100
AcDbEntity
  8
1
  6
Continuous
100
AcDbLine
 10
184.3000029999998
 20
61.599998
 30
0.0
 11
180.3000029999997
 21
61.599998
 31
0.0
  0
LINE
  5
A270
330
A18E
100
AcDbEntity
  8
1
  6
Continuous
100
AcDbLine
 10
184.3000029999998
 20
76.400002
 30
0.0
 11
180.3000029999997
 21
76.400002
 31
0.0
  0
LINE
  5
A271
330
A18E
100
AcDbEntity
  8
1
  6
Continuous
100
AcDbLine
 10
184.3000029999998
 20
58.09999799999999
 30
0.0
 11
184.3000029999998
 21
65.0
 31
0.0
  0
LINE
  5
A272
330
A18E
100
AcDbEntity
  8
1
  6
Continuous
100
AcDbLine
 10
181.6999969999999
 20
58.09999799999999
 30
0.0
 11
181.6999969999999
 21
61.599998
 31
0.0
  0
LINE
  5
A273
330
A18E
100
AcDbEntity
  8
4
  6
CENTER
 48
0.1
100
AcDbLine
 10
328.8975449999998
 20
358.4999999999998
 30
0.0
 11
323.032559
 21
358.4999999999998
 31
0.0
  0
LINE
  5
A274
330
A18E
100
AcDbEntity
  8
4
  6
CENTER
 48
0.1
100
AcDbLine
 10
328.8975449999998
 20
368.5
 30
0.0
 11
323.032559
 21
368.5
 31
0.0
  0
LINE
  5
A275
330
A18E
100
AcDbEntity
  8
4
  6
CENTER
 48
0.2
100
AcDbLine
 10
191.300003
 20
624.75
 30
0.0
 11
191.300003
 21
636.3499759999997
 31
0.0
  0
LINE
  5
A276
330
A18E
100
AcDbEntity
  8
4
  6
CENTER
 48
0.2
100
AcDbLine
 10
447.0
 20
358.4999999999998
 30
0.0
 11
439.0
 21
358.4999999999998
 31
0.0
  0
LINE
  5
A277
330
A18E
100
AcDbEntity
  8
4
  6
CENTER
 48
0.2
100
AcDbLine
 10
447.0
 20
368.5
 30
0.0
 11
439.0
 21
368.5
 31
0.0
  0
LINE
  5
A278
330
A18E
100
AcDbEntity
  8
4
  6
CENTER
100
AcDbLine
 10
183.0
 20
164.0
 30
0.0
 11
183.0
 21
526.349976
 31
0.0
  0
LINE
  5
A279
330
A18E
100
AcDbEntity
  8
4
  6
CENTER
 48
0.2
100
AcDbLine
 10
183.0
 20
584.0
 30
0.0
 11
183.0
 21
624.0
 31
0.0
  0
LINE
  5
A27A
330
A18E
100
AcDbEntity
  8
4
  6
CENTER
 48
0.2
100
AcDbLine
 10
183.0
 20
49.0
 30
0.0
 11
183.0
 21
89.0
 31
0.0
  0
LINE
  5
A27B
330
A18E
100
AcDbEntity
  8
1
  6
Continuous
100
AcDbLine
 10
172.1999969999999
 20
619.0
 30
0.0
 11
172.1999969999999
 21
629.099976
 31
0.0
  0
LINE
  5
A27C
330
A18E
100
AcDbEntity
  8
1
  6
Continuous
100
AcDbLine
 10
175.2999939999999
 20
169.0
 30
0.0
 11
175.2999939999999
 21
199.0
 31
0.0
  0
LINE
  5
A27D
330
A18E
100
AcDbEntity
  8
1
  6
Continuous
100
AcDbLine
 10
173.899994
 20
507.0
 30
0.0
 11
173.899994
 21
519.0999759999998
 31
0.0
  0
LINE
  5
A27E
330
A18E
100
AcDbEntity
  8
1
  6
Continuous
100
AcDbLine
 10
180.3000029999997
 20
61.599998
 30
0.0
 11
180.3000029999997
 21
65.0
 31
0.0
  0
LINE
  5
A27F
330
A18E
100
AcDbEntity
  8
1
  6
Continuous
100
AcDbLine
 10
184.3000029999998
 20
73.0
 30
0.0
 11
184.3000029999998
 21
77.900002
 31
0.0
  0
LINE
  5
A280
330
A18E
100
AcDbEntity
  8
1
  6
Continuous
100
AcDbLine
 10
180.3000029999997
 20
73.0
 30
0.0
 11
180.3000029999997
 21
77.900002
 31
0.0
  0
LINE
  5
A281
330
A18E
100
AcDbEntity
  8
1
  6
Continuous
100
AcDbLine
 10
180.1999969999999
 20
333.0
 30
0.0
 11
180.1999969999999
 21
355.600006
 31
0.0
  0
LINE
  5
A282
330
A18E
100
AcDbEntity
  8
1
  6
Continuous
100
AcDbLine
 10
185.300003
 20
333.0
 30
0.0
 11
185.300003
 21
355.600006
 31
0.0
  0
LINE
  5
A283
330
A18E
100
AcDbEntity
  8
1
  6
Continuous
100
AcDbLine
 10
185.300003
 20
349.0
 30
0.0
 11
185.1335599999999
 21
349.0
 31
0.0
  0
LINE
  5
A284
330
A18E
100
AcDbEntity
  8
1
  6
Continuous
100
AcDbLine
 10
185.300003
 20
345.0
 30
0.0
 11
185.1335599999999
 21
345.0
 31
0.0
  0
LINE
  5
A285
330
A18E
100
AcDbEntity
  8
1
  6
Continuous
100
AcDbLine
 10
185.0321659999999
 20
345.0
 30
0.0
 11
184.3000029999998
 21
345.0
 31
0.0
  0
LINE
  5
A286
330
A18E
100
AcDbEntity
  8
1
  6
Continuous
100
AcDbLine
 10
185.0321659999999
 20
349.0
 30
0.0
 11
184.3000029999998
 21
349.0
 31
0.0
  0
LINE
  5
A287
330
A18E
100
AcDbEntity
  8
1
  6
Continuous
100
AcDbLine
 10
184.3000029999998
 20
333.0
 30
0.0
 11
184.3000029999998
 21
356.0
 31
0.0
  0
LINE
  5
A288
330
A18E
100
AcDbEntity
  8
1
  6
Continuous
100
AcDbLine
 10
180.3000029999997
 20
333.0
 30
0.0
 11
180.3000029999997
 21
355.7141419999999
 31
0.0
  0
LINE
  5
A289
330
A18E
100
AcDbEntity
  8
4
  6
CENTER
 48
0.2
100
AcDbLine
 10
194.0
 20
347.0
 30
0.0
 11
172.0
 21
347.0
 31
0.0
  0
LINE
  5
A28A
330
A18E
100
AcDbEntity
  8
1
  6
Continuous
100
AcDbLine
 10
428.700012
 20
169.0
 30
0.0
 11
456.700012
 21
169.0
 31
0.0
  0
LINE
  5
A28B
330
A18E
100
AcDbEntity
  8
1
  6
Continuous
100
AcDbLine
 10
456.700012
 20
169.0
 30
0.0
 11
456.700012
 21
199.0
 31
0.0
  0
LINE
  5
A28C
330
A18E
100
AcDbEntity
  8
1
  6
Continuous
100
AcDbLine
 10
428.700012
 20
199.0
 30
0.0
 11
456.700012
 21
199.0
 31
0.0
  0
LINE
  5
A28D
330
A18E
100
AcDbEntity
  8
4
  6
CENTER
 48
0.2
100
AcDbLine
 10
434.700012
 20
170.350006
 30
0.0
 11
434.700012
 21
179.6499939999999
 31
0.0
  0
LINE
  5
A28E
330
A18E
100
AcDbEntity
  8
4
  6
CENTER
 48
0.2
100
AcDbLine
 10
434.700012
 20
188.350006
 30
0.0
 11
434.700012
 21
197.649994
 31
0.0
  0
LINE
  5
A28F
330
A18E
100
AcDbEntity
  8
1
  6
Continuous
100
AcDbLine
 10
426.700012
 20
171.0
 30
0.0
 11
426.700012
 21
197.0
 31
0.0
  0
LINE
  5
A290
330
A18E
100
AcDbEntity
  8
4
  6
CENTER
 48
0.2
100
AcDbLine
 10
430.049988
 20
193.0
 30
0.0
 11
439.350006
 21
193.0
 31
0.0
  0
LINE
  5
A291
330
A18E
100
AcDbEntity
  8
4
  6
CENTER
 48
0.2
100
AcDbLine
 10
430.049988
 20
175.0
 30
0.0
 11
439.350006
 21
175.0
 31
0.0
  0
LINE
  5
A292
330
A18E
100
AcDbEntity
  8
1
  6
Continuous
100
AcDbLine
 10
437.0
 20
374.5
 30
0.0
 11
449.0
 21
374.5
 31
0.0
  0
LINE
  5
A293
330
A18E
100
AcDbEntity
  8
1
  6
Continuous
100
AcDbLine
 10
449.0
 20
199.0
 30
0.0
 11
449.0
 21
374.5
 31
0.0
  0
LINE
  5
A294
330
A18E
100
AcDbEntity
  8
1
  6
Continuous
100
AcDbLine
 10
437.0
 20
199.0
 30
0.0
 11
437.0
 21
374.5
 31
0.0
  0
LINE
  5
A295
330
A18E
100
AcDbEntity
  8
4
  6
CENTER
 48
0.2
100
AcDbLine
 10
421.7000119999998
 20
184.0
 30
0.0
 11
461.700012
 21
184.0
 31
0.0
  0
LINE
  5
A296
330
A18E
100
AcDbEntity
  8
4
  6
CENTER
 48
0.2
100
AcDbLine
 10
432.0
 20
347.0
 30
0.0
 11
454.0
 21
347.0
 31
0.0
  0
LINE
  5
A297
330
A18E
100
AcDbEntity
  8
4
  6
CENTER
 48
0.2
100
AcDbLine
 10
330.5
 20
347.0
 30
0.0
 11
295.5
 21
347.0
 31
0.0
  0
LINE
  5
A298
330
A18E
100
AcDbEntity
  8
4
  6
CENTER
 48
0.2
100
AcDbLine
 10
70.0
 20
347.0
 30
0.0
 11
35.0
 21
347.0
 31
0.0
  0
LINE
  5
A299
330
A18E
100
AcDbEntity
  8
4
  6
CENTER
 48
0.2
100
AcDbLine
 10
461.700012
 20
175.0
 30
0.0
 11
448.799988
 21
175.0
 31
0.0
  0
LINE
  5
A29A
330
A18E
100
AcDbEntity
  8
4
  6
CENTER
 48
0.2
100
AcDbLine
 10
461.700012
 20
193.0
 30
0.0
 11
448.799988
 21
193.0
 31
0.0
  0
LINE
  5
A29B
330
A18E
100
AcDbEntity
  8
4
  6
CENTER
 48
0.2
100
AcDbLine
 10
179.75
 20
175.0
 30
0.0
 11
168.1499939999999
 21
175.0
 31
0.0
  0
LINE
  5
A29C
330
A18E
100
AcDbEntity
  8
4
  6
CENTER
 48
0.2
100
AcDbLine
 10
179.75
 20
193.0
 30
0.0
 11
168.1499939999999
 21
193.0
 31
0.0
  0
LINE
  5
A29D
330
A18E
100
AcDbEntity
  8
5
  6
PHANTOM
 48
0.1
100
AcDbLine
 10
183.800003
 20
341.200012
 30
0.0
 11
180.800003
 21
341.200012
 31
0.0
  0
LINE
  5
A29E
330
A18E
100
AcDbEntity
  8
4
  6
CENTER
 48
0.2
100
AcDbLine
 10
194.0
 20
348.600006
 30
0.0
 11
172.0
 21
348.600006
 31
0.0
  0
LINE
  5
A29F
330
A18E
100
AcDbEntity
  8
5
  6
PHANTOM
 48
0.1
100
AcDbLine
 10
184.3000029999998
 20
349.600006
 30
0.0
 11
180.3000029999997
 21
349.600006
 31
0.0
  0
LINE
  5
A2A0
330
A18E
100
AcDbEntity
  8
5
  6
PHANTOM
 48
0.1
100
AcDbLine
 10
184.3000029999998
 20
347.600006
 30
0.0
 11
180.3000029999997
 21
347.600006
 31
0.0
  0
LINE
  5
A2A1
330
A18E
100
AcDbEntity
  8
5
  6
PHANTOM
 48
0.1
100
AcDbLine
 10
183.800003
 20
342.700012
 30
0.0
 11
181.1000059999997
 21
342.700012
 31
0.0
  0
LINE
  5
A2A2
330
A18E
100
AcDbEntity
  8
5
  6
PHANTOM
 48
0.1
100
AcDbLine
 10
183.800003
 20
354.4999999999998
 30
0.0
 11
181.1000059999997
 21
354.4999999999998
 31
0.0
  0
LINE
  5
A2A3
330
A18E
100
AcDbEntity
  8
5
  6
PHANTOM
 48
0.1
100
AcDbLine
 10
185.5
 20
334.600006
 30
0.0
 11
180.0
 21
334.600006
 31
0.0
  0
LINE
  5
A2A4
330
A18E
100
AcDbEntity
  8
5
  6
PHANTOM
 48
0.1
100
AcDbLine
 10
300.0
 20
341.200012
 30
0.0
 11
298.4999999999999
 21
341.200012
 31
0.0
  0
LINE
  5
A2A5
330
A18E
100
AcDbEntity
  8
5
  6
PHANTOM
 48
0.1
100
AcDbLine
 10
300.0
 20
356.0
 30
0.0
 11
298.4999999999999
 21
356.0
 31
0.0
  0
LINE
  5
A2A6
330
A18E
100
AcDbEntity
  8
1
  6
Continuous
100
AcDbLine
 10
185.5
 20
333.0
 30
0.0
 11
180.0
 21
333.0
 31
0.0
  0
LINE
  5
A2A7
330
A18E
100
AcDbEntity
  8
1
  6
Continuous
100
AcDbLine
 10
172.1999969999999
 20
56.0
 30
0.0
 11
172.1999969999999
 21
43.900002
 31
0.0
  0
LINE
  5
A2A8
330
A18E
100
AcDbEntity
  8
4
  6
CENTER
 48
0.2
100
AcDbLine
 10
187.6999969999999
 20
60.0
 30
0.0
 11
198.300003
 21
60.0
 31
0.0
  0
LINE
  5
A2A9
330
A18E
100
AcDbEntity
  8
4
  6
CENTER
 48
0.2
100
AcDbLine
 10
193.0
 20
54.700001
 30
0.0
 11
193.0
 21
65.30000300000001
 31
0.0
  0
LINE
  5
A2AA
330
A18E
100
AcDbEntity
  8
4
  6
CENTER
 48
0.2
100
AcDbLine
 10
187.6999969999999
 20
78.0
 30
0.0
 11
198.300003
 21
78.0
 31
0.0
  0
LINE
  5
A2AB
330
A18E
100
AcDbEntity
  8
4
  6
CENTER
 48
0.2
100
AcDbLine
 10
193.0
 20
72.69999699999998
 30
0.0
 11
193.0
 21
83.300003
 31
0.0
  0
LINE
  5
A2AC
330
A18E
100
AcDbEntity
  8
1
  6
Continuous
100
AcDbLine
 10
65.5
 20
174.5
 30
0.0
 11
65.5
 21
374.5
 31
0.0
  0
LINE
  5
A2AD
330
A18E
100
AcDbEntity
  8
1
  6
Continuous
100
AcDbLine
 10
40.49999999999999
 20
199.0
 30
0.0
 11
40.49999999999999
 21
374.5
 31
0.0
  0
LINE
  5
A2AE
330
A18E
100
AcDbEntity
  8
1
  6
Continuous
100
AcDbLine
 10
40.49999999999999
 20
374.5
 30
0.0
 11
65.5
 21
374.5
 31
0.0
  0
LINE
  5
A2AF
330
A18E
100
AcDbEntity
  8
1
  6
Continuous
100
AcDbLine
 10
65.50000799999999
 20
344.0
 30
0.0
 11
66.943146
 21
338.9090879999999
 31
0.0
  0
LINE
  5
A2B0
330
A18E
100
AcDbEntity
  8
1
  6
Continuous
100
AcDbLine
 10
40.49999999999999
 20
360.4999999999998
 30
0.0
 11
40.49999999999999
 21
360.4999999999998
 31
0.0
  0
LINE
  5
A2B1
330
A18E
100
AcDbEntity
  8
1
  6
Continuous
100
AcDbLine
 10
40.49999999999999
 20
356.4999999999998
 30
0.0
 11
40.49999999999999
 21
356.4999999999998
 31
0.0
  0
LINE
  5
A2B2
330
A18E
100
AcDbEntity
  8
1
  6
Continuous
100
AcDbLine
 10
40.49999999999999
 20
370.5
 30
0.0
 11
40.49999999999999
 21
370.5
 31
0.0
  0
LINE
  5
A2B3
330
A18E
100
AcDbEntity
  8
1
  6
Continuous
100
AcDbLine
 10
40.49999999999999
 20
366.5
 30
0.0
 11
40.49999999999999
 21
366.5
 31
0.0
  0
LINE
  5
A2B4
330
A18E
100
AcDbEntity
  8
4
  6
CENTER
 48
0.1
100
AcDbLine
 10
38.0
 20
368.5
 30
0.0
 11
42.0
 21
368.5
 31
0.0
  0
LINE
  5
A2B5
330
A18E
100
AcDbEntity
  8
4
  6
CENTER
 48
0.1
100
AcDbLine
 10
38.0
 20
358.4999999999998
 30
0.0
 11
42.0
 21
358.4999999999998
 31
0.0
  0
LINE
  5
A2B6
330
A18E
100
AcDbEntity
  8
5
  6
PHANTOM
 48
0.1
100
AcDbLine
 10
66.0
 20
341.200012
 30
0.0
 11
67.5
 21
341.200012
 31
0.0
  0
LINE
  5
A2B7
330
A18E
100
AcDbEntity
  8
5
  6
PHANTOM
 48
0.1
100
AcDbLine
 10
66.0
 20
356.0
 30
0.0
 11
67.5
 21
356.0
 31
0.0
  0
LINE
  5
A2B8
330
A18E
100
AcDbEntity
  8
1
  6
Continuous
100
AcDbLine
 10
184.3000029999998
 20
83.0
 30
0.0
 11
180.3000029999997
 21
83.0
 31
0.0
  0
LINE
  5
A2B9
330
A18E
100
AcDbEntity
  8
1
  6
Continuous
100
AcDbLine
 10
184.3000029999998
 20
81.5
 30
0.0
 11
184.3000029999998
 21
83.0
 31
0.0
  0
LINE
  5
A2BA
330
A18E
100
AcDbEntity
  8
1
  6
Continuous
100
AcDbLine
 10
180.3000029999997
 20
81.5
 30
0.0
 11
180.3000029999997
 21
83.0
 31
0.0
  0
LINE
  5
A2BB
330
A18E
100
AcDbEntity
  8
1
  6
Continuous
100
AcDbLine
 10
183.800003
 20
82.5
 30
0.0
 11
180.800003
 21
82.5
 31
0.0
  0
LINE
  5
A2BC
330
A18E
100
AcDbEntity
  8
1
  6
Continuous
100
AcDbLine
 10
185.325684
 20
366.3335879999999
 30
0.0
 11
180.674316
 21
366.3335879999999
 31
0.0
  0
LINE
  5
A2BD
330
A18E
100
AcDbEntity
  8
1
  6
Continuous
100
AcDbLine
 10
185.270203
 20
366.99942
 30
0.0
 11
180.729797
 21
366.99942
 31
0.0
  0
LINE
  5
A2BE
330
A18E
100
AcDbEntity
  8
1
  6
Continuous
100
AcDbLine
 10
180.927383
 20
367.6666259999998
 30
0.0
 11
182.2008669999999
 21
367.6666259999998
 31
0.0
  0
LINE
  5
A2BF
330
A18E
100
AcDbEntity
  8
1
  6
Continuous
100
AcDbLine
 10
184.731583
 20
368.3338009999998
 30
0.0
 11
181.2684169999999
 21
368.3338009999998
 31
0.0
  0
LINE
  5
A2C0
330
A18E
100
AcDbEntity
  8
1
  6
Continuous
100
AcDbLine
 10
183.0006709999999
 20
366.3335879999999
 30
0.0
 11
183.0006709999999
 21
366.99942
 31
0.0
  0
LINE
  5
A2C1
330
A18E
100
AcDbEntity
  8
1
  6
Continuous
100
AcDbLine
 10
183.800491
 20
367.6666259999998
 30
0.0
 11
185.0726169999999
 21
367.6666259999998
 31
0.0
  0
LINE
  5
A2C2
330
A18E
100
AcDbEntity
  8
1
  6
Continuous
100
AcDbLine
 10
184.6449739999999
 20
368.9996339999999
 30
0.0
 11
181.356384
 21
368.9996339999999
 31
0.0
  0
LINE
  5
A2C3
330
A18E
100
AcDbEntity
  8
1
  6
Continuous
100
AcDbLine
 10
181.7705079999998
 20
369.66684
 30
0.0
 11
184.229492
 21
369.66684
 31
0.0
  0
LINE
  5
A2C4
330
A18E
100
AcDbEntity
  8
1
  6
Continuous
100
AcDbLine
 10
184.8290249999998
 20
370.332672
 30
0.0
 11
181.9545589999999
 21
370.332672
 31
0.0
  0
LINE
  5
A2C5
330
A18E
100
AcDbEntity
  8
1
  6
Continuous
100
AcDbLine
 10
185.191711
 20
363.6675419999999
 30
0.0
 11
181.018051
 21
363.6675419999999
 31
0.0
  0
LINE
  5
A2C6
330
A18E
100
AcDbEntity
  8
1
  6
Continuous
100
AcDbLine
 10
181.1181949999999
 20
364.333374
 30
0.0
 11
183.0006709999999
 21
364.333374
 31
0.0
  0
LINE
  5
A2C7
330
A18E
100
AcDbEntity
  8
1
  6
Continuous
100
AcDbLine
 10
185.1944119999997
 20
365.0005799999998
 30
0.0
 11
180.8055879999997
 21
365.0005799999998
 31
0.0
  0
LINE
  5
A2C8
330
A18E
100
AcDbEntity
  8
1
  6
Continuous
100
AcDbLine
 10
185.325684
 20
365.6664119999998
 30
0.0
 11
180.674316
 21
365.6664119999998
 31
0.0
  0
LINE
  5
A2C9
330
A18E
100
AcDbEntity
  8
1
  6
Continuous
100
AcDbLine
 10
183.0006709999999
 20
360.282867
 30
0.0
 11
183.0006709999999
 21
361.660553
 31
0.0
  0
LINE
  5
A2CA
330
A18E
100
AcDbEntity
  8
1
  6
Continuous
100
AcDbLine
 10
181.7529139999997
 20
361.994812
 30
0.0
 11
184.562408
 21
361.2410279999999
 31
0.0
  0
LINE
  5
A2CB
330
A18E
100
AcDbEntity
  8
1
  6
Continuous
100
AcDbLine
 10
183.0006709999999
 20
362.66745
 30
0.0
 11
181.401047
 21
362.66745
 31
0.0
  0
LINE
  5
A2CC
330
A18E
100
AcDbEntity
  8
1
  6
Continuous
100
AcDbLine
 10
183.333603
 20
362.33316
 30
0.0
 11
184.757294
 21
362.33316
 31
0.0
  0
LINE
  5
A2CD
330
A18E
100
AcDbEntity
  8
1
  6
Continuous
100
AcDbLine
 10
184.8777469999999
 20
363.0003659999999
 30
0.0
 11
183.333603
 21
363.0003659999999
 31
0.0
  0
LINE
  5
A2CE
330
A18E
100
AcDbEntity
  8
1
  6
Continuous
100
AcDbLine
 10
183.0006709999999
 20
364.333374
 30
0.0
 11
183.0006709999999
 21
364.6662899999999
 31
0.0
  0
LINE
  5
A2CF
330
A18E
100
AcDbEntity
  8
1
  6
Continuous
100
AcDbLine
 10
183.800491
 20
364.333374
 30
0.0
 11
184.881805
 21
364.333374
 31
0.0
  0
LINE
  5
A2D0
330
A18E
100
AcDbEntity
  8
4
  6
CENTER
100
AcDbLine
 10
443.0
 20
164.0
 30
0.0
 11
443.0
 21
527.0
 31
0.0
  0
LINE
  5
A2D1
330
A18E
100
AcDbEntity
  8
1
  6
Continuous
100
AcDbLine
 10
177.100006
 20
84.0
 30
0.0
 11
177.100006
 21
80.45677899999999
 31
0.0
  0
LINE
  5
A2D2
330
A18E
100
AcDbEntity
  8
1
  6
Continuous
100
AcDbLine
 10
453.399994
 20
491.0
 30
0.0
 11
453.399994
 21
493.5
 31
0.0
  0
LINE
  5
A2D3
330
A18E
100
AcDbEntity
  8
4
  6
CENTER
 48
0.2
100
AcDbLine
 10
433.0
 20
514.0999759999998
 30
0.0
 11
433.0
 21
527.0
 31
0.0
  0
LINE
  5
A2D4
330
A18E
100
AcDbEntity
  8
1
  6
Continuous
100
AcDbLine
 10
451.8999939999998
 20
507.0
 30
0.0
 11
452.1000059999998
 21
507.0
 31
0.0
  0
LINE
  5
A2D5
330
A18E
100
AcDbEntity
  8
1
  6
Continuous
100
AcDbLine
 10
439.1000059999998
 20
374.5
 30
0.0
 11
439.1000059999998
 21
504.0
 31
0.0
  0
LINE
  5
A2D6
330
A18E
100
AcDbEntity
  8
1
  6
Continuous
100
AcDbLine
 10
449.0
 20
485.149994
 30
0.0
 11
449.0
 21
504.100006
 31
0.0
  0
LINE
  5
A2D7
330
A18E
100
AcDbEntity
  8
4
  6
CENTER
 48
0.2
100
AcDbLine
 10
428.496094
 20
494.0
 30
0.0
 11
461.6286319999998
 21
494.0
 31
0.0
  0
LINE
  5
A2D8
330
A18E
100
AcDbEntity
  8
1
  6
Continuous
100
AcDbLine
 10
447.3999939999997
 20
374.5
 30
0.0
 11
447.3999939999997
 21
504.0
 31
0.0
  0
LINE
  5
A2D9
330
A18E
100
AcDbEntity
  8
1
  6
Continuous
100
AcDbLine
 10
451.8999939999998
 20
504.100006
 30
0.0
 11
452.1000059999998
 21
504.100006
 31
0.0
  0
LINE
  5
A2DA
330
A18E
100
AcDbEntity
  8
1
  6
Continuous
100
AcDbLine
 10
436.1000059999998
 20
487.5
 30
0.0
 11
436.1000059999998
 21
500.4999999999998
 31
0.0
  0
LINE
  5
A2DB
330
A18E
100
AcDbEntity
  8
1
  6
Continuous
100
AcDbLine
 10
455.0
 20
507.0
 30
0.0
 11
455.0
 21
519.0999759999998
 31
0.0
  0
LINE
  5
A2DC
330
A18E
100
AcDbEntity
  8
4
  6
CENTER
 48
0.2
100
AcDbLine
 10
447.1000059999998
 20
513.0
 30
0.0
 11
460.149994
 21
513.0
 31
0.0
  0
LINE
  5
A2DD
330
A18E
100
AcDbEntity
  8
1
  6
Continuous
100
AcDbLine
 10
425.0
 20
519.0999759999998
 30
0.0
 11
452.1000059999998
 21
519.0999759999998
 31
0.0
  0
LINE
  5
A2DE
330
A18E
100
AcDbEntity
  8
1
  6
Continuous
100
AcDbLine
 10
425.0
 20
522.0
 30
0.0
 11
452.1000059999998
 21
522.0
 31
0.0
  0
LINE
  5
A2DF
330
A18E
100
AcDbEntity
  8
1
  6
Continuous
100
AcDbLine
 10
425.0
 20
519.0999759999998
 30
0.0
 11
425.0
 21
522.0
 31
0.0
  0
LINE
  5
A2E0
330
A18E
100
AcDbEntity
  8
1
  6
Continuous
100
AcDbLine
 10
447.3999939999997
 20
502.8500059999998
 30
0.0
 11
449.0
 21
502.8500059999998
 31
0.0
  0
LINE
  5
A2E1
330
A18E
100
AcDbEntity
  8
1
  6
Continuous
100
AcDbLine
 10
453.399994
 20
494.5
 30
0.0
 11
452.6500239999998
 21
494.0
 31
0.0
  0
LINE
  5
A2E2
330
A18E
100
AcDbEntity
  8
1
  6
Continuous
100
AcDbLine
 10
449.0
 20
486.0
 30
0.0
 11
451.8999939999998
 21
486.0
 31
0.0
  0
LINE
  5
A2E3
330
A18E
100
AcDbEntity
  8
1
  6
Continuous
100
AcDbLine
 10
453.399994
 20
494.5
 30
0.0
 11
453.399994
 21
497.0
 31
0.0
  0
LINE
  5
A2E4
330
A18E
100
AcDbEntity
  8
1
  6
Continuous
100
AcDbLine
 10
451.8999939999998
 20
486.0
 30
0.0
 11
451.8999939999998
 21
504.100006
 31
0.0
  0
LINE
  5
A2E5
330
A18E
100
AcDbEntity
  8
1
  6
Continuous
100
AcDbLine
 10
437.1000059999998
 20
486.5
 30
0.0
 11
437.1000059999998
 21
501.4999999999998
 31
0.0
  0
LINE
  5
A2E6
330
A18E
100
AcDbEntity
  8
1
  6
Continuous
100
AcDbLine
 10
447.3999939999997
 20
485.149994
 30
0.0
 11
449.0
 21
485.149994
 31
0.0
  0
LINE
  5
A2E7
330
A18E
100
AcDbEntity
  8
1
  6
Continuous
100
AcDbLine
 10
437.1000059999998
 20
501.4999999999998
 30
0.0
 11
439.1000059999998
 21
501.4999999999998
 31
0.0
  0
LINE
  5
A2E8
330
A18E
100
AcDbEntity
  8
1
  6
Continuous
100
AcDbLine
 10
437.1000059999998
 20
486.5
 30
0.0
 11
439.1000059999998
 21
486.5
 31
0.0
  0
LINE
  5
A2E9
330
A18E
100
AcDbEntity
  8
1
  6
Continuous
100
AcDbLine
 10
436.0999759999998
 20
500.499969
 30
0.0
 11
437.1000059999998
 21
501.4999999999998
 31
0.0
  0
LINE
  5
A2EA
330
A18E
100
AcDbEntity
  8
1
  6
Continuous
100
AcDbLine
 10
439.1000059999998
 20
504.0
 30
0.0
 11
447.3999939999997
 21
504.0
 31
0.0
  0
LINE
  5
A2EB
330
A18E
100
AcDbEntity
  8
1
  6
Continuous
100
AcDbLine
 10
436.0999759999998
 20
487.5
 30
0.0
 11
437.099976
 21
486.5
 31
0.0
  0
LINE
  5
A2EC
330
A18E
100
AcDbEntity
  8
1
  6
Continuous
100
AcDbLine
 10
451.8999939999998
 20
497.0
 30
0.0
 11
453.399994
 21
497.0
 31
0.0
  0
LINE
  5
A2ED
330
A18E
100
AcDbEntity
  8
1
  6
Continuous
100
AcDbLine
 10
451.8999939999998
 20
491.0
 30
0.0
 11
453.399994
 21
491.0
 31
0.0
  0
LINE
  5
A2EE
330
A18E
100
AcDbEntity
  8
1
  6
Continuous
100
AcDbLine
 10
452.6499629999998
 20
493.999969
 30
0.0
 11
453.399963
 21
493.499969
 31
0.0
  0
LINE
  5
A2EF
330
A18E
100
AcDbEntity
  8
1
  6
Continuous
100
AcDbLine
 10
452.1000059999998
 20
507.0
 30
0.0
 11
452.1000059999998
 21
519.0999759999998
 31
0.0
  0
LINE
  5
A2F0
330
A18E
100
AcDbEntity
  8
1
  6
Continuous
100
AcDbLine
 10
440.700012
 20
374.5
 30
0.0
 11
440.700012
 21
504.0
 31
0.0
  0
LINE
  5
A2F1
330
A18E
100
AcDbEntity
  8
1
  6
Continuous
100
AcDbLine
 10
445.799988
 20
374.5
 30
0.0
 11
445.799988
 21
504.0
 31
0.0
  0
LINE
  5
A2F2
330
A18E
100
AcDbEntity
  8
4
  6
CENTER
 48
0.2
100
AcDbLine
 10
35.0
 20
348.600006
 30
0.0
 11
70.0
 21
348.600006
 31
0.0
  0
LINE
  5
A2F3
330
A18E
100
AcDbEntity
  8
4
  6
CENTER
 48
0.2
100
AcDbLine
 10
295.5
 20
348.600006
 30
0.0
 11
330.5
 21
348.600006
 31
0.0
  0
LINE
  5
A2F4
330
A18E
100
AcDbEntity
  8
4
  6
CENTER
 48
0.2
100
AcDbLine
 10
432.0
 20
348.600006
 30
0.0
 11
454.0
 21
348.600006
 31
0.0
  0
ARC
  5
A2F5
330
A18E
100
AcDbEntity
  8
1
  6
Continuous
100
AcDbCircle
 10
184.4999999999997
 20
329.0
 30
0.0
 40
1.0
100
AcDbArc
 50
269.9999969999999
 51
0.0
  0
ARC
  5
A2F6
330
A18E
100
AcDbEntity
  8
1
  6
Continuous
100
AcDbCircle
 10
181.0
 20
329.0
 30
0.0
 40
1.0
100
AcDbArc
 50
179.9999909999999
 51
270.000001
  0
ARC
  5
A2F7
330
A18E
100
AcDbEntity
  8
1
  6
Continuous
100
AcDbCircle
 10
184.4999999999997
 20
355.0
 30
0.0
 40
1.0
100
AcDbArc
 50
0.0
 51
90.00000300000001
  0
ARC
  5
A2F8
330
A18E
100
AcDbEntity
  8
1
  6
Continuous
100
AcDbCircle
 10
181.0
 20
355.0
 30
0.0
 40
1.0
100
AcDbArc
 50
90.00000300000001
 51
180.000005
  0
ARC
  5
A2F9
330
A18E
100
AcDbEntity
  8
1
  6
Continuous
100
AcDbCircle
 10
191.300003
 20
175.0
 30
0.0
 40
2.649999999999999
100
AcDbArc
 50
190.875719
 51
74.68349499999998
  0
ARC
  5
A2FA
330
A18E
100
AcDbEntity
  8
1
  6
Continuous
100
AcDbCircle
 10
191.300003
 20
193.0
 30
0.0
 40
2.649999999999999
100
AcDbArc
 50
285.316505
 51
150.2183449999999
  0
ARC
  5
A2FB
330
A18E
100
AcDbEntity
  8
1
  6
Continuous
100
AcDbCircle
 10
174.100006
 20
504.100006
 30
0.0
 40
2.9
100
AcDbArc
 50
0.0
 51
90.00000300000001
  0
CIRCLE
  5
A2FC
330
A18E
100
AcDbEntity
  8
1
  6
Continuous
100
AcDbCircle
 10
313.0
 20
184.0
 30
0.0
 40
7.5
  0
CIRCLE
  5
A2FD
330
A18E
100
AcDbEntity
  8
1
  6
Continuous
100
AcDbCircle
 10
313.0
 20
184.0
 30
0.0
 40
6.5
  0
ARC
  5
A2FE
330
A18E
100
AcDbEntity
  8
1
  6
Continuous
100
AcDbCircle
 10
320.0
 20
184.0
 30
0.0
 40
15.0
100
AcDbArc
 50
219.296478
 51
269.9999969999999
  0
CIRCLE
  5
A2FF
330
A18E
100
AcDbEntity
  8
1
  6
Continuous
100
AcDbCircle
 10
332.0
 20
175.0
 30
0.0
 40
2.649999999999999
  0
CIRCLE
  5
A300
330
A18E
100
AcDbEntity
  8
1
  6
Continuous
100
AcDbCircle
 10
332.0
 20
193.0
 30
0.0
 40
2.649999999999999
  0
ARC
  5
A301
330
A18E
100
AcDbEntity
  8
1
  6
Continuous
100
AcDbCircle
 10
313.0
 20
501.0
 30
0.0
 40
15.0
100
AcDbArc
 50
179.9999909999999
 51
225.5729939999999
  0
ARC
  5
A302
330
A18E
100
AcDbEntity
  8
1
  6
Continuous
100
AcDbCircle
 10
313.0
 20
501.0
 30
0.0
 40
15.0
100
AcDbArc
 50
314.427004
 51
0.0
  0
CIRCLE
  5
A303
330
A18E
100
AcDbEntity
  8
1
  6
Continuous
100
AcDbCircle
 10
313.0
 20
494.0
 30
0.0
 40
6.5
  0
CIRCLE
  5
A304
330
A18E
100
AcDbEntity
  8
1
  6
Continuous
100
AcDbCircle
 10
313.0
 20
494.0
 30
0.0
 40
7.5
  0
CIRCLE
  5
A305
330
A18E
100
AcDbEntity
  8
1
  6
Continuous
100
AcDbCircle
 10
322.0
 20
513.0
 30
0.0
 40
2.649999999999999
  0
CIRCLE
  5
A306
330
A18E
100
AcDbEntity
  8
1
  6
Continuous
100
AcDbCircle
 10
304.0
 20
513.0
 30
0.0
 40
2.649999999999999
  0
ARC
  5
A307
330
A18E
100
AcDbEntity
  8
1
  6
Continuous
100
AcDbCircle
 10
46.0
 20
184.0
 30
0.0
 40
15.0
100
AcDbArc
 50
269.9999969999999
 51
90.00000300000001
  0
CIRCLE
  5
A308
330
A18E
100
AcDbEntity
  8
1
  6
Continuous
100
AcDbCircle
 10
34.0
 20
193.0
 30
0.0
 40
2.649999999999999
  0
CIRCLE
  5
A309
330
A18E
100
AcDbEntity
  8
1
  6
Continuous
100
AcDbCircle
 10
34.0
 20
175.0
 30
0.0
 40
2.649999999999999
  0
ARC
  5
A30A
330
A18E
100
AcDbEntity
  8
1
  6
Continuous
100
AcDbCircle
 10
300.4999999999999
 20
338.5
 30
0.0
 40
1.5
100
AcDbArc
 50
164.173378
 51
270.000001
  0
ARC
  5
A30B
330
A18E
100
AcDbEntity
  8
1
  6
Continuous
100
AcDbCircle
 10
173.899994
 20
507.0
 30
0.0
 40
2.9
100
AcDbArc
 50
179.9999909999999
 51
270.000001
  0
ARC
  5
A30C
330
A18E
100
AcDbEntity
  8
1
  6
Continuous
100
AcDbCircle
 10
173.899994
 20
519.0999759999998
 30
0.0
 40
2.9
100
AcDbArc
 50
90.00000300000001
 51
180.000005
  0
CIRCLE
  5
A30D
330
A18E
100
AcDbEntity
  8
1
  6
Continuous
100
AcDbCircle
 10
53.0
 20
184.0
 30
0.0
 40
3.0
  0
CIRCLE
  5
A30E
330
A18E
100
AcDbEntity
  8
1
  6
Continuous
100
AcDbCircle
 10
53.0
 20
184.0
 30
0.0
 40
3.25
  0
CIRCLE
  5
A30F
330
A18E
100
AcDbEntity
  8
1
  6
Continuous
100
AcDbCircle
 10
53.0
 20
494.0
 30
0.0
 40
3.0
  0
CIRCLE
  5
A310
330
A18E
100
AcDbEntity
  8
1
  6
Continuous
100
AcDbCircle
 10
53.0
 20
494.0
 30
0.0
 40
3.25
  0
ARC
  5
A311
330
A18E
100
AcDbEntity
  8
1
  6
Continuous
100
AcDbCircle
 10
53.0
 20
501.0
 30
0.0
 40
15.0
100
AcDbArc
 50
179.9999909999999
 51
0.00001
  0
CIRCLE
  5
A312
330
A18E
100
AcDbEntity
  8
1
  6
Continuous
100
AcDbCircle
 10
62.0
 20
513.0
 30
0.0
 40
2.649999999999999
  0
CIRCLE
  5
A313
330
A18E
100
AcDbEntity
  8
1
  6
Continuous
100
AcDbCircle
 10
44.0
 20
513.0
 30
0.0
 40
2.649999999999999
  0
CIRCLE
  5
A314
330
A18E
100
AcDbEntity
  8
1
  6
Continuous
100
AcDbCircle
 10
193.0
 20
595.0
 30
0.0
 40
2.649999999999999
  0
CIRCLE
  5
A315
330
A18E
100
AcDbEntity
  8
1
  6
Continuous
100
AcDbCircle
 10
193.0
 20
613.0
 30
0.0
 40
2.649999999999999
  0
ARC
  5
A316
330
A18E
100
AcDbEntity
  8
1
  6
Continuous
100
AcDbCircle
 10
172.1999969999999
 20
617.0
 30
0.0
 40
2.9
100
AcDbArc
 50
179.9999909999999
 51
245.5566659999998
  0
ARC
  5
A317
330
A18E
100
AcDbEntity
  8
1
  6
Continuous
100
AcDbCircle
 10
172.1999969999999
 20
629.099976
 30
0.0
 40
2.9
100
AcDbArc
 50
90.00000300000001
 51
180.000005
  0
ARC
  5
A318
330
A18E
100
AcDbEntity
  8
1
  6
Continuous
100
AcDbCircle
 10
172.4
 20
58.9
 30
0.0
 40
2.9
100
AcDbArc
 50
269.9999969999999
 51
0.0
  0
ARC
  5
A319
330
A18E
100
AcDbEntity
  8
1
  6
Continuous
100
AcDbCircle
 10
172.1999969999999
 20
56.0
 30
0.0
 40
2.9
100
AcDbArc
 50
90.00000300000001
 51
180.000005
  0
ARC
  5
A31A
330
A18E
100
AcDbEntity
  8
1
  6
Continuous
100
AcDbCircle
 10
172.1999969999999
 20
43.900002
 30
0.0
 40
2.9
100
AcDbArc
 50
179.9999909999999
 51
270.000001
  0
ARC
  5
A31B
330
A18E
100
AcDbEntity
  8
1
  6
Continuous
100
AcDbCircle
 10
193.0
 20
60.0
 30
0.0
 40
2.649999999999999
100
AcDbArc
 50
145.5256089999998
 51
108.7085629999997
  0
ARC
  5
A31C
330
A18E
100
AcDbEntity
  8
1
  6
Continuous
100
AcDbCircle
 10
193.0
 20
78.0
 30
0.0
 40
2.649999999999999
100
AcDbArc
 50
251.2914259999998
 51
214.4743879999998
  0
ARC
  5
A31D
330
A18E
100
AcDbEntity
  8
1
  6
Continuous
100
AcDbCircle
 10
187.399994
 20
58.09999799999999
 30
0.0
 40
1.6
100
AcDbArc
 50
269.9999969999999
 51
0.0
  0
ARC
  5
A31E
330
A18E
100
AcDbEntity
  8
1
  6
Continuous
100
AcDbCircle
 10
178.600006
 20
58.09999799999999
 30
0.0
 40
1.6
100
AcDbArc
 50
179.9999909999999
 51
270.000001
  0
ARC
  5
A31F
330
A18E
100
AcDbEntity
  8
1
  6
Continuous
100
AcDbCircle
 10
187.399994
 20
79.900002
 30
0.0
 40
1.6
100
AcDbArc
 50
0.0
 51
90.00000300000001
  0
ARC
  5
A320
330
A18E
100
AcDbEntity
  8
1
  6
Continuous
100
AcDbCircle
 10
178.600006
 20
79.900002
 30
0.0
 40
1.6
100
AcDbArc
 50
90.00000300000001
 51
180.000005
  0
ARC
  5
A321
330
A18E
100
AcDbEntity
  8
1
  6
Continuous
100
AcDbCircle
 10
185.300003
 20
77.900002
 30
0.0
 40
1.6
100
AcDbArc
 50
0.0
 51
90.00000300000001
  0
ARC
  5
A322
330
A18E
100
AcDbEntity
  8
1
  6
Continuous
100
AcDbCircle
 10
180.1999969999999
 20
77.900002
 30
0.0
 40
1.6
100
AcDbArc
 50
90.00000300000001
 51
180.000005
  0
ARC
  5
A323
330
A18E
100
AcDbEntity
  8
1
  6
Continuous
100
AcDbCircle
 10
196.3999939999999
 20
69.0
 30
0.0
 40
12.0
100
AcDbArc
 50
199.471225
 51
202.33164
  0
ARC
  5
A324
330
A18E
100
AcDbEntity
  8
1
  6
Continuous
100
AcDbCircle
 10
196.3999939999999
 20
69.0
 30
0.0
 40
12.09999999999999
100
AcDbArc
 50
199.303899
 51
203.4575279999998
  0
ARC
  5
A325
330
A18E
100
AcDbEntity
  8
1
  6
Continuous
100
AcDbCircle
 10
196.3999939999999
 20
69.0
 30
0.0
 40
12.09999999999999
100
AcDbArc
 50
156.542472
 51
160.696101
  0
ARC
  5
A326
330
A18E
100
AcDbEntity
  8
1
  6
Continuous
100
AcDbCircle
 10
196.3999939999999
 20
69.0
 30
0.0
 40
12.0
100
AcDbArc
 50
157.66836
 51
160.528775
  0
ARC
  5
A327
330
A18E
100
AcDbEntity
  8
1
  6
Continuous
100
AcDbCircle
 10
173.1999969999999
 20
347.0
 30
0.0
 40
12.0
100
AcDbArc
 50
337.6683549999999
 51
22.331645
  0
ARC
  5
A328
330
A18E
100
AcDbEntity
  8
1
  6
Continuous
100
AcDbCircle
 10
173.1999969999999
 20
347.0
 30
0.0
 40
12.09999999999999
100
AcDbArc
 50
336.5424669999999
 51
23.45753299999999
  0
CIRCLE
  5
A329
330
A18E
100
AcDbEntity
  8
1
  6
Continuous
100
AcDbCircle
 10
434.700012
 20
193.0
 30
0.0
 40
2.649999999999999
  0
CIRCLE
  5
A32A
330
A18E
100
AcDbEntity
  8
1
  6
Continuous
100
AcDbCircle
 10
434.700012
 20
175.0
 30
0.0
 40
2.649999999999999
  0
ARC
  5
A32B
330
A18E
100
AcDbEntity
  8
5
  6
PHANTOM
 48
0.1
100
AcDbCircle
 10
183.800003
 20
355.5
 30
0.0
 40
0.5
100
AcDbArc
 50
0.0
 51
90.00000300000001
  0
ARC
  5
A32C
330
A18E
100
AcDbEntity
  8
5
  6
PHANTOM
 48
0.1
100
AcDbCircle
 10
180.800003
 20
355.450012
 30
0.0
 40
0.5
100
AcDbArc
 50
324.9031989999998
 51
180.000005
  0
ARC
  5
A32D
330
A18E
100
AcDbEntity
  8
5
  6
PHANTOM
 48
0.1
100
AcDbCircle
 10
185.300003
 20
352.2877199999999
 30
0.0
 40
5.0
100
AcDbArc
 50
144.9032009999999
 51
180.000005
  0
ARC
  5
A32E
330
A18E
100
AcDbEntity
  8
5
  6
PHANTOM
 48
0.1
100
AcDbCircle
 10
180.800003
 20
341.700012
 30
0.0
 40
0.5
100
AcDbArc
 50
179.9999909999999
 51
35.0968
  0
ARC
  5
A32F
330
A18E
100
AcDbEntity
  8
5
  6
PHANTOM
 48
0.1
100
AcDbCircle
 10
183.800003
 20
341.700012
 30
0.0
 40
0.5
100
AcDbArc
 50
269.9999969999999
 51
0.0
  0
ARC
  5
A330
330
A18E
100
AcDbEntity
  8
5
  6
PHANTOM
 48
0.1
100
AcDbCircle
 10
185.300003
 20
344.862274
 30
0.0
 40
5.0
100
AcDbArc
 50
179.9999909999999
 51
215.096795
  0
ARC
  5
A331
330
A18E
100
AcDbEntity
  8
5
  6
PHANTOM
 48
0.1
100
AcDbCircle
 10
298.4999999999999
 20
342.700012
 30
0.0
 40
1.5
100
AcDbArc
 50
190.9912309999999
 51
269.9999969999999
  0
ARC
  5
A332
330
A18E
100
AcDbEntity
  8
5
  6
PHANTOM
 48
0.1
100
AcDbCircle
 10
298.4999999999999
 20
354.4999999999998
 30
0.0
 40
1.5
100
AcDbArc
 50
90.00000300000001
 51
169.008769
  0
ARC
  5
A333
330
A18E
100
AcDbEntity
  8
5
  6
PHANTOM
 48
0.1
100
AcDbCircle
 10
299.0
 20
348.600006
 30
0.0
 40
1.0
100
AcDbArc
 50
299.2945559999999
 51
60.70544399999999
  0
ARC
  5
A334
330
A18E
100
AcDbEntity
  8
5
  6
PHANTOM
 48
0.1
100
AcDbCircle
 10
301.935791
 20
343.36731
 30
0.0
 40
5.0
100
AcDbArc
 50
119.2945539999999
 51
190.991227
  0
ARC
  5
A335
330
A18E
100
AcDbEntity
  8
5
  6
PHANTOM
 48
0.1
100
AcDbCircle
 10
301.935791
 20
353.832703
 30
0.0
 40
5.0
100
AcDbArc
 50
169.008769
 51
240.705456
  0
ARC
  5
A336
330
A18E
100
AcDbEntity
  8
1
  6
Continuous
100
AcDbCircle
 10
65.5
 20
338.5
 30
0.0
 40
1.5
100
AcDbArc
 50
269.9999969999999
 51
15.826621
  0
ARC
  5
A337
330
A18E
100
AcDbEntity
  8
5
  6
PHANTOM
 48
0.1
100
AcDbCircle
 10
67.5
 20
342.700012
 30
0.0
 40
1.5
100
AcDbArc
 50
269.9999969999999
 51
349.008775
  0
ARC
  5
A338
330
A18E
100
AcDbEntity
  8
5
  6
PHANTOM
 48
0.1
100
AcDbCircle
 10
67.5
 20
354.4999999999998
 30
0.0
 40
1.5
100
AcDbArc
 50
10.991225
 51
90.00000300000001
  0
ARC
  5
A339
330
A18E
100
AcDbEntity
  8
5
  6
PHANTOM
 48
0.1
100
AcDbCircle
 10
64.064201
 20
343.36731
 30
0.0
 40
5.0
100
AcDbArc
 50
349.008775
 51
60.70544399999999
  0
ARC
  5
A33A
330
A18E
100
AcDbEntity
  8
5
  6
PHANTOM
 48
0.1
100
AcDbCircle
 10
67.0
 20
348.600006
 30
0.0
 40
1.0
100
AcDbArc
 50
119.2945539999999
 51
240.705456
  0
ARC
  5
A33B
330
A18E
100
AcDbEntity
  8
5
  6
PHANTOM
 48
0.1
100
AcDbCircle
 10
64.064201
 20
353.832703
 30
0.0
 40
5.0
100
AcDbArc
 50
299.2945559999999
 51
10.991225
  0
ARC
  5
A33C
330
A18E
100
AcDbEntity
  8
1
  6
Continuous
100
AcDbCircle
 10
188.5993799999999
 20
366.000671
 30
0.0
 40
7.932788
100
AcDbArc
 50
153.986
 51
157.0559929999998
  0
ARC
  5
A33D
330
A18E
100
AcDbEntity
  8
1
  6
Continuous
100
AcDbCircle
 10
181.356384
 20
369.0659479999998
 30
0.0
 40
0.066678
100
AcDbArc
 50
157.0559929999998
 51
270.000001
  0
ARC
  5
A33E
330
A18E
100
AcDbEntity
  8
1
  6
Continuous
100
AcDbCircle
 10
180.927383
 20
367.732941
 30
0.0
 40
0.066678
100
AcDbArc
 50
167.2709909999998
 51
270.000001
  0
ARC
  5
A33F
330
A18E
100
AcDbEntity
  8
1
  6
Continuous
100
AcDbCircle
 10
188.5993799999999
 20
366.000671
 30
0.0
 40
7.932788
100
AcDbArc
 50
164.7939959999999
 51
167.2709909999998
  0
ARC
  5
A340
330
A18E
100
AcDbEntity
  8
1
  6
Continuous
100
AcDbCircle
 10
188.5993799999999
 20
366.000671
 30
0.0
 40
7.932788
100
AcDbArc
 50
164.7419909999999
 51
164.7939959999999
  0
ARC
  5
A341
330
A18E
100
AcDbEntity
  8
1
  6
Continuous
100
AcDbCircle
 10
181.2684169999999
 20
367.999542
 30
0.0
 40
0.333392
100
AcDbArc
 50
90.00000300000001
 51
164.7419909999999
  0
ARC
  5
A342
330
A18E
100
AcDbEntity
  8
1
  6
Continuous
100
AcDbCircle
 10
184.731583
 20
367.999542
 30
0.0
 40
0.333392
100
AcDbArc
 50
15.25749699999999
 51
90.00000300000001
  0
ARC
  5
A343
330
A18E
100
AcDbEntity
  8
1
  6
Continuous
100
AcDbCircle
 10
177.40062
 20
366.000671
 30
0.0
 40
7.932788
100
AcDbArc
 50
13.26810299999998
 51
15.25749699999999
  0
ARC
  5
A344
330
A18E
100
AcDbEntity
  8
1
  6
Continuous
100
AcDbCircle
 10
177.40062
 20
366.000671
 30
0.0
 40
7.932788
100
AcDbArc
 50
12.7289
 51
13.26810299999998
  0
ARC
  5
A345
330
A18E
100
AcDbEntity
  8
1
  6
Continuous
100
AcDbCircle
 10
185.0726169999999
 20
367.732941
 30
0.0
 40
0.066678
100
AcDbArc
 50
269.9999969999999
 51
12.7289
  0
ARC
  5
A346
330
A18E
100
AcDbEntity
  8
1
  6
Continuous
100
AcDbCircle
 10
181.7705079999998
 20
369.33255
 30
0.0
 40
0.333392
100
AcDbArc
 50
90.00000300000001
 51
153.986
  0
ARC
  5
A347
330
A18E
100
AcDbEntity
  8
1
  6
Continuous
100
AcDbCircle
 10
184.6449739999999
 20
369.0659479999998
 30
0.0
 40
0.066678
100
AcDbArc
 50
269.9999969999999
 51
22.94399999999999
  0
ARC
  5
A348
330
A18E
100
AcDbEntity
  8
1
  6
Continuous
100
AcDbCircle
 10
177.40062
 20
366.000671
 30
0.0
 40
7.932788
100
AcDbArc
 50
22.94399999999999
 51
26.01439599999999
  0
ARC
  5
A349
330
A18E
100
AcDbEntity
  8
1
  6
Continuous
100
AcDbCircle
 10
184.229492
 20
369.33255
 30
0.0
 40
0.333392
100
AcDbArc
 50
26.01439599999999
 51
90.00000300000001
  0
ARC
  5
A34A
330
A18E
100
AcDbEntity
  8
1
  6
Continuous
100
AcDbCircle
 10
183.0006709999999
 20
369.9997559999998
 30
0.0
 40
1.717978999999997
100
AcDbArc
 50
90.00000300000001
 51
144.4620119999999
  0
ARC
  5
A34B
330
A18E
100
AcDbEntity
  8
1
  6
Continuous
100
AcDbCircle
 10
183.0006709999999
 20
369.9997559999998
 30
0.0
 40
1.717978999999997
100
AcDbArc
 50
35.537703
 51
76.53739899999997
  0
ARC
  5
A34C
330
A18E
100
AcDbEntity
  8
1
  6
Continuous
100
AcDbCircle
 10
188.5993799999999
 20
366.000671
 30
0.0
 40
7.932788
100
AcDbArc
 50
187.792995
 51
190.104003
  0
ARC
  5
A34D
330
A18E
100
AcDbEntity
  8
1
  6
Continuous
100
AcDbCircle
 10
180.8055879999997
 20
364.9328919999998
 30
0.0
 40
0.066678
100
AcDbArc
 50
90.00000300000001
 51
187.7930049999999
  0
ARC
  5
A34E
330
A18E
100
AcDbEntity
  8
1
  6
Continuous
100
AcDbCircle
 10
181.1181949999999
 20
364.6662899999999
 30
0.0
 40
0.333392
100
AcDbArc
 50
190.104003
 51
269.9999969999999
  0
ARC
  5
A34F
330
A18E
100
AcDbEntity
  8
1
  6
Continuous
100
AcDbCircle
 10
185.1944119999997
 20
364.9328919999998
 30
0.0
 40
0.066678
100
AcDbArc
 50
352.207003
 51
90.00000300000001
  0
ARC
  5
A350
330
A18E
100
AcDbEntity
  8
1
  6
Continuous
100
AcDbCircle
 10
177.40062
 20
366.000671
 30
0.0
 40
7.932788
100
AcDbArc
 50
349.8960009999998
 51
352.207003
  0
ARC
  5
A351
330
A18E
100
AcDbEntity
  8
1
  6
Continuous
100
AcDbCircle
 10
184.881805
 20
364.6662899999999
 30
0.0
 40
0.333392
100
AcDbArc
 50
269.9999969999999
 51
349.8960009999998
  0
ARC
  5
A352
330
A18E
100
AcDbEntity
  8
1
  6
Continuous
100
AcDbCircle
 10
183.0006709999999
 20
362.000244
 30
0.0
 40
1.717978999999997
100
AcDbArc
 50
215.5380019999999
 51
225.6990009999999
  0
ARC
  5
A353
330
A18E
100
AcDbEntity
  8
1
  6
Continuous
100
AcDbCircle
 10
183.0006709999999
 20
362.000244
 30
0.0
 40
1.717978999999997
100
AcDbArc
 50
242.2499979999999
 51
324.4619999999998
  0
ARC
  5
A354
330
A18E
100
AcDbEntity
  8
1
  6
Continuous
100
AcDbCircle
 10
183.333603
 20
362.66745
 30
0.0
 40
0.333392
100
AcDbArc
 50
90.00000300000001
 51
270.000001
  0
ARC
  5
A355
330
A18E
100
AcDbEntity
  8
1
  6
Continuous
100
AcDbCircle
 10
177.40062
 20
366.000671
 30
0.0
 40
8.599396
100
AcDbArc
 50
324.4619999999998
 51
35.537703
  0
ARC
  5
A356
330
A18E
100
AcDbEntity
  8
1
  6
Continuous
100
AcDbCircle
 10
188.5993799999999
 20
366.000671
 30
0.0
 40
8.599396
100
AcDbArc
 50
144.461998
 51
215.5379979999999
  0
ARC
  5
A357
330
A18E
100
AcDbEntity
  8
1
  6
Continuous
100
AcDbCircle
 10
451.8999939999998
 20
504.100006
 30
0.0
 40
2.9
100
AcDbArc
 50
90.00000300000001
 51
180.000005
  0
ARC
  5
A358
330
A18E
100
AcDbEntity
  8
1
  6
Continuous
100
AcDbCircle
 10
452.1000059999998
 20
507.0
 30
0.0
 40
2.9
100
AcDbArc
 50
269.9999969999999
 51
0.0
  0
ARC
  5
A359
330
A18E
100
AcDbEntity
  8
1
  6
Continuous
100
AcDbCircle
 10
452.1000059999998
 20
519.0999759999998
 30
0.0
 40
2.9
100
AcDbArc
 50
0.0
 51
90.00000300000001
  0
ARC
  5
A35A
330
A18E
100
AcDbEntity
  8
1
  6
Continuous
100
AcDbCircle
 10
44.24999999999999
 20
368.5
 30
0.0
 40
4.25
100
AcDbArc
 50
151.9275179999999
 51
208.0724919999999
  0
ARC
  5
A35B
330
A18E
100
AcDbEntity
  8
1
  6
Continuous
100
AcDbCircle
 10
44.24999999999999
 20
358.4999999999998
 30
0.0
 40
4.25
100
AcDbArc
 50
151.9275179999999
 51
208.0724919999999
  0
ARC
  5
A35C
330
A18E
100
AcDbEntity
  8
1
  6
Continuous
100
AcDbCircle
 10
321.75
 20
368.5
 30
0.0
 40
4.25
100
AcDbArc
 50
331.9275129999998
 51
28.072487
  0
ARC
  5
A35D
330
A18E
100
AcDbEntity
  8
1
  6
Continuous
100
AcDbCircle
 10
321.75
 20
358.4999999999998
 30
0.0
 40
4.25
100
AcDbArc
 50
331.9275129999998
 51
28.072487
  0
CIRCLE
  5
A35E
330
A18E
100
AcDbEntity
  8
1
  6
Continuous
100
AcDbCircle
 10
443.0
 20
368.5
 30
0.0
 40
2.0
  0
CIRCLE
  5
A35F
330
A18E
100
AcDbEntity
  8
1
  6
Continuous
100
AcDbCircle
 10
443.0
 20
358.4999999999998
 30
0.0
 40
2.0
  0
ARC
  5
A360
330
A18E
100
AcDbEntity
  8
1
  6
Continuous
100
AcDbCircle
 10
53.0
 20
494.0
 30
0.0
 40
8.849999999999997
100
AcDbArc
 50
232.03228
 51
307.967715
  0
TEXT
  5
A361
330
A18E
100
AcDbEntity
  8
6
  6
Continuous
100
AcDbText
 10
27.97945
 20
10.0487
 30
0.0
 40
1.399999999999999
  1
6
 41
1.069393
100
AcDbText
  0
TEXT
  5
A362
330
A18E
100
AcDbEntity
  8
1
  6
Continuous
100
AcDbText
 10
17.97945
 20
10.0487
 30
0.0
 40
1.399999999999999
  1
1
 41
1.069393
100
AcDbText
  0
TEXT
  5
A363
330
A18E
100
AcDbEntity
  8
1
  6
Continuous
100
AcDbText
 10
9.99995
 20
10.0
 30
0.0
 40
1.399999999999999
  1
LAYER
 41
1.009912999999996
100
AcDbText
  0
TEXT
  5
A364
330
A18E
100
AcDbEntity
  8
2
  6
Continuous
100
AcDbText
 10
19.97944999999998
 20
10.0487
 30
0.0
 40
1.399999999999999
  1
2
 41
1.069393
100
AcDbText
  0
TEXT
  5
A365
330
A18E
100
AcDbEntity
  8
3
  6
DASHED
100
AcDbText
 10
21.97945
 20
10.0487
 30
0.0
 40
1.399999999999999
  1
3
 41
1.069393
100
AcDbText
  0
TEXT
  5
A366
330
A18E
100
AcDbEntity
  8
4
  6
CENTER
100
AcDbText
 10
23.97944999999999
 20
10.0487
 30
0.0
 40
1.399999999999999
  1
4
 41
1.069393
100
AcDbText
  0
TEXT
  5
A367
330
A18E
100
AcDbEntity
  8
5
  6
PHANTOM
100
AcDbText
 10
25.97945
 20
10.0487
 30
0.0
 40
1.399999999999999
  1
5
 41
1.069393
100
AcDbText
  0
TEXT
  5
A368
330
A18E
100
AcDbEntity
  8
7
  6
Continuous
100
AcDbText
 10
10.00005
 20
26.0
 30
0.0
 40
3.0
  1
CODE No.5076
 41
1.003962999999999
100
AcDbText
  0
TEXT
  5
A369
330
A18E
100
AcDbEntity
  8
7
  6
Continuous
100
AcDbText
 10
10.00005
 20
18.0
 30
0.0
 40
3.0
  1
TYPE No.TM-70B-1R
 41
1.002774
100
AcDbText
  0
TEXT
  5
A36A
330
A18E
100
AcDbEntity
  8
7
  6
Continuous
100
AcDbText
 10
29.97944999999999
 20
10.0487
 30
0.0
 40
1.399999999999999
  1
7
 41
1.069393
100
AcDbText
  0
LINE
  5
A36B
330
A18E
100
AcDbEntity
  8
1
  6
Continuous
100
AcDbLine
 10
338.100006
 20
187.0
 30
0.0
 11
332.999994
 21
187.0
 31
0.0
  0
LINE
  5
A36C
330
A18E
100
AcDbEntity
  8
1
  6
Continuous
100
AcDbLine
 10
338.100006
 20
181.0
 30
0.0
 11
332.999994
 21
181.0
 31
0.0
  0
LINE
  5
A36D
330
A18E
100
AcDbEntity
  8
1
  6
Continuous
100
AcDbLine
 10
337.0000059999998
 20
182.0
 30
0.0
 11
337.0000059999998
 21
186.0
 31
0.0
  0
LINE
  5
A36E
330
A18E
100
AcDbEntity
  8
1
  6
Continuous
100
AcDbLine
 10
316.0
 20
514.000024
 30
0.0
 11
316.0
 21
519.0999759999998
 31
0.0
  0
LINE
  5
A36F
330
A18E
100
AcDbEntity
  8
1
  6
Continuous
100
AcDbLine
 10
310.0
 20
514.000024
 30
0.0
 11
310.0
 21
519.0999759999998
 31
0.0
  0
LINE
  5
A370
330
A18E
100
AcDbEntity
  8
1
  6
Continuous
100
AcDbLine
 10
315.0
 20
517.9999759999998
 30
0.0
 11
311.0
 21
517.9999759999998
 31
0.0
  0
LINE
  5
A371
330
A18E
100
AcDbEntity
  8
1
  6
Continuous
100
AcDbLine
 10
26.1
 20
182.0
 30
0.0
 11
26.1
 21
186.0
 31
0.0
  0
LINE
  5
A372
330
A18E
100
AcDbEntity
  8
1
  6
Continuous
100
AcDbLine
 10
51.0
 20
520.8999999999998
 30
0.0
 11
55.0
 21
520.8999999999998
 31
0.0
  0
LINE
  5
A373
330
A18E
100
AcDbEntity
  8
1
  6
Continuous
100
AcDbLine
 10
172.1
 20
602.0
 30
0.0
 11
172.1
 21
606.0
 31
0.0
  0
LINE
  5
A374
330
A18E
100
AcDbEntity
  8
1
  6
Continuous
100
AcDbLine
 10
179.299994
 20
45.000002
 30
0.0
 11
173.2999969999999
 21
45.000002
 31
0.0
  0
LINE
  5
A375
330
A18E
100
AcDbEntity
  8
1
  6
Continuous
100
AcDbLine
 10
173.2999969999999
 20
50.99999799999999
 30
0.0
 11
173.2999969999999
 21
45.000002
 31
0.0
  0
LINE
  5
A376
330
A18E
100
AcDbEntity
  8
1
  6
Continuous
100
AcDbLine
 10
455.600012
 20
182.0
 30
0.0
 11
455.600012
 21
186.0
 31
0.0
  0
LINE
  5
A377
330
A18E
100
AcDbEntity
  8
1
  6
Continuous
100
AcDbLine
 10
444.999994
 20
517.9999759999998
 30
0.0
 11
451.000006
 21
517.9999759999998
 31
0.0
  0
LINE
  5
A378
330
A18E
100
AcDbEntity
  8
1
  6
Continuous
100
AcDbLine
 10
451.000006
 20
511.999994
 30
0.0
 11
451.000006
 21
517.9999759999998
 31
0.0
  0
LINE
  5
A379
330
A18E
100
AcDbEntity
  8
1
  6
Continuous
100
AcDbLine
 10
51.0
 20
521.4999999999998
 30
0.0
 11
51.0
 21
513.000024
 31
0.0
  0
LINE
  5
A37A
330
A18E
100
AcDbEntity
  8
1
  6
Continuous
100
AcDbLine
 10
55.0
 20
521.4999999999998
 30
0.0
 11
55.0
 21
513.000024
 31
0.0
  0
LINE
  5
A37B
330
A18E
100
AcDbEntity
  8
1
  6
Continuous
100
AcDbLine
 10
180.000006
 20
602.0
 30
0.0
 11
171.5
 21
602.0
 31
0.0
  0
LINE
  5
A37C
330
A18E
100
AcDbEntity
  8
1
  6
Continuous
100
AcDbLine
 10
180.000006
 20
606.0
 30
0.0
 11
171.5
 21
606.0
 31
0.0
  0
LINE
  5
A37D
330
A18E
100
AcDbEntity
  8
1
  6
Continuous
100
AcDbLine
 10
25.5
 20
182.0
 30
0.0
 11
33.99999799999999
 21
182.0
 31
0.0
  0
LINE
  5
A37E
330
A18E
100
AcDbEntity
  8
1
  6
Continuous
100
AcDbLine
 10
25.5
 20
186.0
 30
0.0
 11
33.99999799999999
 21
186.0
 31
0.0
  0
LINE
  5
A37F
330
A18E
100
AcDbEntity
  8
1
  6
Continuous
100
AcDbLine
 10
447.7000059999999
 20
182.0
 30
0.0
 11
456.200012
 21
182.0
 31
0.0
  0
LINE
  5
A380
330
A18E
100
AcDbEntity
  8
1
  6
Continuous
100
AcDbLine
 10
447.7000059999999
 20
186.0
 30
0.0
 11
456.200012
 21
186.0
 31
0.0
  0
ARC
  5
A381
330
A18E
100
AcDbEntity
  8
1
  6
Continuous
100
AcDbCircle
 10
332.999994
 20
184.0
 30
0.0
 40
3.0
100
AcDbArc
 50
90.00000300000001
 51
270.000001
  0
ARC
  5
A382
330
A18E
100
AcDbEntity
  8
1
  6
Continuous
100
AcDbCircle
 10
338.0000059999998
 20
182.0
 30
0.0
 40
1.0
100
AcDbArc
 50
179.9999909999999
 51
270.000001
  0
ARC
  5
A383
330
A18E
100
AcDbEntity
  8
1
  6
Continuous
100
AcDbCircle
 10
338.0000059999998
 20
186.0
 30
0.0
 40
1.0
100
AcDbArc
 50
90.00000300000001
 51
180.000005
  0
ARC
  5
A384
330
A18E
100
AcDbEntity
  8
1
  6
Continuous
100
AcDbCircle
 10
313.0
 20
514.000024
 30
0.0
 40
3.0
100
AcDbArc
 50
179.9999909999999
 51
0.00001
  0
ARC
  5
A385
330
A18E
100
AcDbEntity
  8
1
  6
Continuous
100
AcDbCircle
 10
315.0
 20
518.9999759999998
 30
0.0
 40
1.0
100
AcDbArc
 50
269.9999969999999
 51
0.0
  0
ARC
  5
A386
330
A18E
100
AcDbEntity
  8
1
  6
Continuous
100
AcDbCircle
 10
311.0
 20
518.9999759999998
 30
0.0
 40
1.0
100
AcDbArc
 50
179.9999909999999
 51
270.000001
  0
ARC
  5
A387
330
A18E
100
AcDbEntity
  8
1
  6
Continuous
100
AcDbCircle
 10
25.5
 20
181.4999999999997
 30
0.0
 40
0.5
100
AcDbArc
 50
90.00000300000001
 51
180.000005
  0
ARC
  5
A388
330
A18E
100
AcDbEntity
  8
1
  6
Continuous
100
AcDbCircle
 10
25.5
 20
186.5
 30
0.0
 40
0.5
100
AcDbArc
 50
179.9999909999999
 51
270.000001
  0
ARC
  5
A389
330
A18E
100
AcDbEntity
  8
1
  6
Continuous
100
AcDbCircle
 10
55.5
 20
521.4999999999998
 30
0.0
 40
0.5
100
AcDbArc
 50
90.00000300000001
 51
180.000005
  0
ARC
  5
A38A
330
A18E
100
AcDbEntity
  8
1
  6
Continuous
100
AcDbCircle
 10
50.5
 20
521.4999999999998
 30
0.0
 40
0.5
100
AcDbArc
 50
0.0
 51
90.00000300000001
  0
ARC
  5
A38B
330
A18E
100
AcDbEntity
  8
1
  6
Continuous
100
AcDbCircle
 10
171.5
 20
606.5
 30
0.0
 40
0.5
100
AcDbArc
 50
179.9999909999999
 51
270.000001
  0
ARC
  5
A38C
330
A18E
100
AcDbEntity
  8
1
  6
Continuous
100
AcDbCircle
 10
171.5
 20
601.5
 30
0.0
 40
0.5
100
AcDbArc
 50
90.00000300000001
 51
180.000005
  0
ARC
  5
A38D
330
A18E
100
AcDbEntity
  8
1
  6
Continuous
100
AcDbCircle
 10
179.299994
 20
44.000002
 30
0.0
 40
1.0
100
AcDbArc
 50
0.0
 51
90.00000300000001
  0
ARC
  5
A38E
330
A18E
100
AcDbEntity
  8
1
  6
Continuous
100
AcDbCircle
 10
172.299997
 20
50.99999799999999
 30
0.0
 40
1.0
100
AcDbArc
 50
0.0
 51
90.00000300000001
  0
ARC
  5
A38F
330
A18E
100
AcDbEntity
  8
1
  6
Continuous
100
AcDbCircle
 10
456.200012
 20
186.5
 30
0.0
 40
0.5
100
AcDbArc
 50
269.9999969999999
 51
0.0
  0
ARC
  5
A390
330
A18E
100
AcDbEntity
  8
1
  6
Continuous
100
AcDbCircle
 10
456.200012
 20
181.4999999999997
 30
0.0
 40
0.5
100
AcDbArc
 50
0.0
 51
90.00000300000001
  0
ARC
  5
A391
330
A18E
100
AcDbEntity
  8
1
  6
Continuous
100
AcDbCircle
 10
444.999994
 20
518.9999759999998
 30
0.0
 40
1.0
100
AcDbArc
 50
180.000005
 51
270.000001
  0
ARC
  5
A392
330
A18E
100
AcDbEntity
  8
1
  6
Continuous
100
AcDbCircle
 10
452.000006
 20
511.999994
 30
0.0
 40
1.0
100
AcDbArc
 50
180.000005
 51
270.000001
  0
ARC
  5
A393
330
A18E
100
AcDbEntity
  8
1
  6
Continuous
100
AcDbCircle
 10
53.0
 20
513.000024
 30
0.0
 40
2.0
100
AcDbArc
 50
179.9999909999999
 51
0.00001
  0
ARC
  5
A394
330
A18E
100
AcDbEntity
  8
1
  6
Continuous
100
AcDbCircle
 10
180.000006
 20
604.0
 30
0.0
 40
2.0
100
AcDbArc
 50
269.9999969999999
 51
89.99998900000001
  0
ARC
  5
A395
330
A18E
100
AcDbEntity
  8
1
  6
Continuous
100
AcDbCircle
 10
33.99999799999999
 20
184.0
 30
0.0
 40
2.0
100
AcDbArc
 50
269.9999969999999
 51
89.99998900000001
  0
ARC
  5
A396
330
A18E
100
AcDbEntity
  8
1
  6
Continuous
100
AcDbCircle
 10
447.7000059999999
 20
184.0
 30
0.0
 40
2.0
100
AcDbArc
 50
90.00000300000001
 51
270.000001
  0
LINE
  5
A397
330
A18E
100
AcDbEntity
  8
1
  6
Continuous
100
AcDbLine
 10
180.299994
 20
44.000002
 30
0.0
 11
180.299994
 21
43.900002
 31
0.0
  0
LINE
  5
A398
330
A18E
100
AcDbEntity
  8
1
  6
Continuous
100
AcDbLine
 10
172.299997
 20
51.999998
 30
0.0
 11
172.1999969999999
 21
51.999998
 31
0.0
  0
LINE
  5
A399
330
A18E
100
AcDbEntity
  8
1
  6
Continuous
100
AcDbLine
 10
452.000006
 20
510.999994
 30
0.0
 11
452.1000059999998
 21
510.999994
 31
0.0
  0
LINE
  5
A39A
330
A18E
100
AcDbEntity
  8
1
  6
Continuous
100
AcDbLine
 10
443.9999939999998
 20
518.9999749999998
 30
0.0
 11
443.9999939999998
 21
519.0999759999998
 31
0.0
  0
ARC
  5
A39B
330
A18E
100
AcDbEntity
  8
1
  6
Continuous
100
AcDbCircle
 10
181.000006
 20
518.9999759999998
 30
0.0
 40
1.0
100
AcDbArc
 50
269.999999
 51
359.999995
  0
LINE
  5
A39C
330
A18E
100
AcDbEntity
  8
1
  6
Continuous
100
AcDbLine
 10
182.000006
 20
518.9999749999998
 30
0.0
 11
182.000006
 21
519.0999759999998
 31
0.0
  0
LINE
  5
A39D
330
A18E
100
AcDbEntity
  8
1
  6
Continuous
100
AcDbLine
 10
181.000006
 20
517.9999759999998
 30
0.0
 11
174.9999939999999
 21
517.9999759999998
 31
0.0
  0
LINE
  5
A39E
330
A18E
100
AcDbEntity
  8
1
  6
Continuous
100
AcDbLine
 10
174.9999939999999
 20
511.999994
 30
0.0
 11
174.9999939999999
 21
517.9999759999998
 31
0.0
  0
ARC
  5
A39F
330
A18E
100
AcDbEntity
  8
1
  6
Continuous
100
AcDbCircle
 10
173.9999939999999
 20
511.999994
 30
0.0
 40
1.0
100
AcDbArc
 50
269.999999
 51
359.999995
  0
LINE
  5
A3A0
330
A18E
100
AcDbEntity
  8
1
  6
Continuous
100
AcDbLine
 10
173.9999939999999
 20
510.999994
 30
0.0
 11
173.899994
 21
510.999994
 31
0.0
  0
LINE
  5
A3A1
330
A18E
100
AcDbEntity
  8
1
  6
Continuous
100
AcDbLine
 10
180.3000089999999
 20
628.9999749999997
 30
0.0
 11
180.3000089999999
 21
629.099976
 31
0.0
  0
ARC
  5
A3A2
330
A18E
100
AcDbEntity
  8
1
  6
Continuous
100
AcDbCircle
 10
179.3000089999999
 20
628.9999759999997
 30
0.0
 40
1.0
100
AcDbArc
 50
269.999999
 51
359.999995
  0
LINE
  5
A3A3
330
A18E
100
AcDbEntity
  8
1
  6
Continuous
100
AcDbLine
 10
179.3000089999999
 20
627.9999759999997
 30
0.0
 11
173.2999969999999
 21
627.9999759999997
 31
0.0
  0
LINE
  5
A3A4
330
A18E
100
AcDbEntity
  8
1
  6
Continuous
100
AcDbLine
 10
173.2999969999999
 20
621.999994
 30
0.0
 11
173.2999969999999
 21
627.9999759999997
 31
0.0
  0
LINE
  5
A3A5
330
A18E
100
AcDbEntity
  8
1
  6
Continuous
100
AcDbLine
 10
172.299997
 20
620.999994
 30
0.0
 11
172.1999969999999
 21
620.999994
 31
0.0
  0
ARC
  5
A3A6
330
A18E
100
AcDbEntity
  8
1
  6
Continuous
100
AcDbCircle
 10
172.299997
 20
621.999994
 30
0.0
 40
1.0
100
AcDbArc
 50
269.999999
 51
359.999995
  0
CIRCLE
  5
A3A7
330
A18E
100
AcDbEntity
  8
5
  6
PHANTOM
 48
0.2
100
AcDbCircle
 10
304.0
 20
402.0
 30
0.0
 40
2.649999999999999
  0
LINE
  5
A3A8
330
A18E
100
AcDbEntity
  8
4
  6
CENTER
 48
0.2
100
AcDbLine
 10
325.4999999999999
 20
383.0
 30
0.0
 11
300.4999999999999
 21
383.0
 31
0.0
  0
LINE
  5
A3A9
330
A18E
100
AcDbEntity
  8
4
  6
CENTER
 48
0.2
100
AcDbLine
 10
308.6499939999999
 20
402.0
 30
0.0
 11
299.350006
 21
402.0
 31
0.0
  0
LINE
  5
A3AA
330
A18E
100
AcDbEntity
  8
5
  6
PHANTOM
 48
0.2
100
AcDbLine
 10
323.4999999999998
 20
393.0
 30
0.0
 11
302.4999999999999
 21
393.0
 31
0.0
  0
LINE
  5
A3AB
330
A18E
100
AcDbEntity
  8
5
  6
PHANTOM
 48
0.2
100
AcDbLine
 10
328.0
 20
396.0
 30
0.0
 11
298.0
 21
396.0
 31
0.0
  0
LINE
  5
A3AC
330
A18E
100
AcDbEntity
  8
5
  6
PHANTOM
 48
0.2
100
AcDbLine
 10
328.0
 20
408.099976
 30
0.0
 11
298.0
 21
408.099976
 31
0.0
  0
LINE
  5
A3AD
330
A18E
100
AcDbEntity
  8
5
  6
PHANTOM
 48
0.2
100
AcDbLine
 10
328.0
 20
411.0
 30
0.0
 11
298.0
 21
411.0
 31
0.0
  0
LINE
  5
A3AE
330
A18E
100
AcDbEntity
  8
4
  6
CENTER
 48
0.2
100
AcDbLine
 10
304.0
 20
397.350006
 30
0.0
 11
304.0
 21
416.0
 31
0.0
  0
ARC
  5
A3AF
330
A18E
100
AcDbEntity
  8
5
  6
PHANTOM
 48
0.2
100
AcDbCircle
 10
313.0
 20
390.0
 30
0.0
 40
15.0
100
AcDbArc
 50
179.9999909999999
 51
225.5729939999999
  0
LINE
  5
A3B0
330
A18E
100
AcDbEntity
  8
5
  6
PHANTOM
 48
0.2
100
AcDbLine
 10
298.0
 20
390.0
 30
0.0
 11
298.0
 21
411.0
 31
0.0
  0
LINE
  5
A3B1
330
A18E
100
AcDbEntity
  8
4
  6
CENTER
 48
0.2
100
AcDbLine
 10
447.1000059999998
 20
402.0
 30
0.0
 11
460.149994
 21
402.0
 31
0.0
  0
LINE
  5
A3B2
330
A18E
100
AcDbEntity
  8
4
  6
CENTER
 48
0.2
100
AcDbLine
 10
428.496094
 20
383.0
 30
0.0
 11
461.6286319999998
 21
383.0
 31
0.0
  0
LINE
  5
A3B3
330
A18E
100
AcDbEntity
  8
4
  6
CENTER
 48
0.2
100
AcDbLine
 10
433.0
 20
403.0999759999998
 30
0.0
 11
433.0
 21
416.0
 31
0.0
  0
LINE
  5
A3B4
330
A18E
100
AcDbEntity
  8
4
  6
CENTER
 48
0.2
100
AcDbLine
 10
322.0
 20
397.350006
 30
0.0
 11
322.0
 21
416.0
 31
0.0
  0
CIRCLE
  5
A3B5
330
A18E
100
AcDbEntity
  8
5
  6
PHANTOM
 48
0.2
100
AcDbCircle
 10
313.0
 20
383.0
 30
0.0
 40
7.5
  0
CIRCLE
  5
A3B6
330
A18E
100
AcDbEntity
  8
5
  6
PHANTOM
 48
0.2
100
AcDbCircle
 10
313.0
 20
383.0
 30
0.0
 40
6.5
  0
ARC
  5
A3B7
330
A18E
100
AcDbEntity
  8
5
  6
PHANTOM
 48
0.2
100
AcDbCircle
 10
313.0
 20
390.0
 30
0.0
 40
15.0
100
AcDbArc
 50
314.427004
 51
0.0
  0
CIRCLE
  5
A3B8
330
A18E
100
AcDbEntity
  8
5
  6
PHANTOM
 48
0.2
100
AcDbCircle
 10
322.0
 20
402.0
 30
0.0
 40
2.649999999999999
  0
LINE
  5
A3B9
330
A18E
100
AcDbEntity
  8
4
  6
CENTER
 48
0.2
100
AcDbLine
 10
326.649994
 20
402.0
 30
0.0
 11
317.350006
 21
402.0
 31
0.0
  0
ARC
  5
A3BA
330
A18E
100
AcDbEntity
  8
5
  6
PHANTOM
 48
0.1
100
AcDbCircle
 10
313.0
 20
403.0000239999997
 30
0.0
 40
3.0
100
AcDbArc
 50
179.9999909999999
 51
0.00001
  0
LINE
  5
A3BB
330
A18E
100
AcDbEntity
  8
5
  6
PHANTOM
 48
0.1
100
AcDbLine
 10
316.0
 20
403.0000239999997
 30
0.0
 11
316.0
 21
408.099976
 31
0.0
  0
LINE
  5
A3BC
330
A18E
100
AcDbEntity
  8
5
  6
PHANTOM
 48
0.1
100
AcDbLine
 10
310.0
 20
403.0000239999997
 30
0.0
 11
310.0
 21
408.099976
 31
0.0
  0
LINE
  5
A3BD
330
A18E
100
AcDbEntity
  8
5
  6
PHANTOM
 48
0.1
100
AcDbLine
 10
315.0
 20
406.9999759999998
 30
0.0
 11
311.0
 21
406.9999759999998
 31
0.0
  0
ARC
  5
A3BE
330
A18E
100
AcDbEntity
  8
5
  6
PHANTOM
 48
0.1
100
AcDbCircle
 10
315.0
 20
407.9999759999997
 30
0.0
 40
1.0
100
AcDbArc
 50
269.9999969999999
 51
0.0
  0
ARC
  5
A3BF
330
A18E
100
AcDbEntity
  8
5
  6
PHANTOM
 48
0.1
100
AcDbCircle
 10
311.0
 20
407.9999759999997
 30
0.0
 40
1.0
100
AcDbArc
 50
179.9999909999999
 51
270.000001
  0
LINE
  5
A3C0
330
A18E
100
AcDbEntity
  8
5
  6
PHANTOM
 48
0.2
100
AcDbLine
 10
328.0
 20
390.0
 30
0.0
 11
328.0
 21
411.0
 31
0.0
  0
LINE
  5
A3C1
330
A18E
100
AcDbEntity
  8
5
  6
PHANTOM
 48
0.2
100
AcDbLine
 10
437.1000059999998
 20
375.4999999999999
 30
0.0
 11
437.1000059999998
 21
390.5
 31
0.0
  0
LINE
  5
A3C2
330
A18E
100
AcDbEntity
  8
5
  6
PHANTOM
 48
0.2
100
AcDbLine
 10
451.8999939999998
 20
375.0
 30
0.0
 11
451.8999939999998
 21
393.100006
 31
0.0
  0
LINE
  5
A3C3
330
A18E
100
AcDbEntity
  8
5
  6
PHANTOM
 48
0.2
100
AcDbLine
 10
436.1000059999998
 20
376.5
 30
0.0
 11
436.1000059999998
 21
389.4999999999998
 31
0.0
  0
LINE
  5
A3C4
330
A18E
100
AcDbEntity
  8
5
  6
PHANTOM
 48
0.2
100
AcDbLine
 10
449.0
 20
374.149994
 30
0.0
 11
449.0
 21
393.100006
 31
0.0
  0
LINE
  5
A3C5
330
A18E
100
AcDbEntity
  8
5
  6
PHANTOM
 48
0.2
100
AcDbLine
 10
437.1000059999998
 20
375.4999999999999
 30
0.0
 11
439.1000059999998
 21
375.4999999999999
 31
0.0
  0
LINE
  5
A3C6
330
A18E
100
AcDbEntity
  8
5
  6
PHANTOM
 48
0.2
100
AcDbLine
 10
436.0999759999998
 20
376.5
 30
0.0
 11
437.099976
 21
375.4999999999999
 31
0.0
  0
LINE
  5
A3C7
330
A18E
100
AcDbEntity
  8
5
  6
PHANTOM
 48
0.1
100
AcDbLine
 10
452.6499629999998
 20
382.999969
 30
0.0
 11
453.399963
 21
382.499969
 31
0.0
  0
LINE
  5
A3C8
330
A18E
100
AcDbEntity
  8
5
  6
PHANTOM
 48
0.1
100
AcDbLine
 10
451.8999939999998
 20
380.0
 30
0.0
 11
453.399994
 21
380.0
 31
0.0
  0
LINE
  5
A3C9
330
A18E
100
AcDbEntity
  8
5
  6
PHANTOM
 48
0.1
100
AcDbLine
 10
451.8999939999998
 20
386.0
 30
0.0
 11
453.399994
 21
386.0
 31
0.0
  0
LINE
  5
A3CA
330
A18E
100
AcDbEntity
  8
5
  6
PHANTOM
 48
0.1
100
AcDbLine
 10
453.399994
 20
383.4999999999998
 30
0.0
 11
453.399994
 21
386.0
 31
0.0
  0
LINE
  5
A3CB
330
A18E
100
AcDbEntity
  8
5
  6
PHANTOM
 48
0.2
100
AcDbLine
 10
449.0
 20
375.0
 30
0.0
 11
451.8999939999998
 21
375.0
 31
0.0
  0
LINE
  5
A3CC
330
A18E
100
AcDbEntity
  8
5
  6
PHANTOM
 48
0.1
100
AcDbLine
 10
453.399994
 20
383.4999999999998
 30
0.0
 11
452.6500239999998
 21
383.0
 31
0.0
  0
LINE
  5
A3CD
330
A18E
100
AcDbEntity
  8
5
  6
PHANTOM
 48
0.1
100
AcDbLine
 10
453.399994
 20
380.0
 30
0.0
 11
453.399994
 21
382.5
 31
0.0
  0
LINE
  5
A3CE
330
A18E
100
AcDbEntity
  8
5
  6
PHANTOM
 48
0.2
100
AcDbLine
 10
437.1000059999998
 20
390.5
 30
0.0
 11
439.1000059999998
 21
390.5
 31
0.0
  0
LINE
  5
A3CF
330
A18E
100
AcDbEntity
  8
5
  6
PHANTOM
 48
0.2
100
AcDbLine
 10
425.0
 20
411.0
 30
0.0
 11
452.1000059999998
 21
411.0
 31
0.0
  0
LINE
  5
A3D0
330
A18E
100
AcDbEntity
  8
5
  6
PHANTOM
 48
0.2
100
AcDbLine
 10
425.0
 20
408.099976
 30
0.0
 11
452.1000059999998
 21
408.099976
 31
0.0
  0
LINE
  5
A3D1
330
A18E
100
AcDbEntity
  8
5
  6
PHANTOM
 48
0.2
100
AcDbLine
 10
436.0999759999998
 20
389.499969
 30
0.0
 11
437.1000059999998
 21
390.5
 31
0.0
  0
LINE
  5
A3D2
330
A18E
100
AcDbEntity
  8
5
  6
PHANTOM
 48
0.2
100
AcDbLine
 10
425.0
 20
408.099976
 30
0.0
 11
425.0
 21
411.0
 31
0.0
  0
LINE
  5
A3D3
330
A18E
100
AcDbEntity
  8
5
  6
PHANTOM
 48
0.1
100
AcDbLine
 10
451.000006
 20
400.999994
 30
0.0
 11
451.000006
 21
406.9999759999998
 31
0.0
  0
ARC
  5
A3D4
330
A18E
100
AcDbEntity
  8
5
  6
PHANTOM
 48
0.1
100
AcDbCircle
 10
452.000006
 20
400.999994
 30
0.0
 40
1.0
100
AcDbArc
 50
180.000005
 51
270.000001
  0
LINE
  5
A3D5
330
A18E
100
AcDbEntity
  8
5
  6
PHANTOM
 48
0.2
100
AcDbLine
 10
452.000006
 20
399.999994
 30
0.0
 11
452.1000059999998
 21
399.999994
 31
0.0
  0
LINE
  5
A3D6
330
A18E
100
AcDbEntity
  8
5
  6
PHANTOM
 48
0.2
100
AcDbLine
 10
443.9999939999998
 20
407.9999749999998
 30
0.0
 11
443.9999939999998
 21
408.099976
 31
0.0
  0
LINE
  5
A3D7
330
A18E
100
AcDbEntity
  8
5
  6
PHANTOM
 48
0.1
100
AcDbLine
 10
444.999994
 20
406.9999759999998
 30
0.0
 11
451.000006
 21
406.9999759999998
 31
0.0
  0
ARC
  5
A3D8
330
A18E
100
AcDbEntity
  8
5
  6
PHANTOM
 48
0.1
100
AcDbCircle
 10
444.999994
 20
407.9999759999997
 30
0.0
 40
1.0
100
AcDbArc
 50
180.000005
 51
270.000001
  0
ARC
  5
A3D9
330
A18E
100
AcDbEntity
  8
5
  6
PHANTOM
 48
0.2
100
AcDbCircle
 10
452.1000059999998
 20
408.099976
 30
0.0
 40
2.9
100
AcDbArc
 50
0.0
 51
90.00000300000001
  0
ARC
  5
A3DA
330
A18E
100
AcDbEntity
  8
5
  6
PHANTOM
 48
0.2
100
AcDbCircle
 10
452.1000059999998
 20
396.0
 30
0.0
 40
2.9
100
AcDbArc
 50
269.9999969999999
 51
0.0
  0
ARC
  5
A3DB
330
A18E
100
AcDbEntity
  8
5
  6
PHANTOM
 48
0.2
100
AcDbCircle
 10
451.8999939999998
 20
393.100006
 30
0.0
 40
2.9
100
AcDbArc
 50
90.00000300000001
 51
180.000005
  0
LINE
  5
A3DC
330
A18E
100
AcDbEntity
  8
5
  6
PHANTOM
 48
0.2
100
AcDbLine
 10
452.1000059999998
 20
396.0
 30
0.0
 11
452.1000059999998
 21
408.099976
 31
0.0
  0
LINE
  5
A3DD
330
A18E
100
AcDbEntity
  8
5
  6
PHANTOM
 48
0.1
100
AcDbLine
 10
439.1000059999998
 20
393.0
 30
0.0
 11
447.3999939999997
 21
393.0
 31
0.0
  0
LINE
  5
A3DE
330
A18E
100
AcDbEntity
  8
5
  6
PHANTOM
 48
0.2
100
AcDbLine
 10
447.3999939999997
 20
391.8500059999999
 30
0.0
 11
449.0
 21
391.8500059999999
 31
0.0
  0
LINE
  5
A3DF
330
A18E
100
AcDbEntity
  8
5
  6
PHANTOM
 48
0.2
100
AcDbLine
 10
455.0
 20
396.0
 30
0.0
 11
455.0
 21
408.099976
 31
0.0
  0
LINE
  5
A3E0
330
A18E
100
AcDbEntity
  8
5
  6
PHANTOM
 48
0.2
100
AcDbLine
 10
451.8999939999998
 20
393.100006
 30
0.0
 11
452.1000059999998
 21
393.100006
 31
0.0
  0
LINE
  5
A3E1
330
A18E
100
AcDbEntity
  8
5
  6
PHANTOM
 48
0.2
100
AcDbLine
 10
451.8999939999998
 20
396.0
 30
0.0
 11
452.1000059999998
 21
396.0
 31
0.0
  0
LINE
  5
A3E2
330
A18E
100
AcDbEntity
  8
4
  6
CENTER
 48
0.2
100
AcDbLine
 10
193.0
 20
403.7499999999998
 30
0.0
 11
193.0
 21
415.3499759999998
 31
0.0
  0
LINE
  5
A3E3
330
A18E
100
AcDbEntity
  8
5
  6
PHANTOM
 48
0.2
100
AcDbLine
 10
201.0
 20
408.099976
 30
0.0
 11
173.899994
 21
408.099976
 31
0.0
  0
LINE
  5
A3E4
330
A18E
100
AcDbEntity
  8
5
  6
PHANTOM
 48
0.2
100
AcDbLine
 10
201.0
 20
411.0
 30
0.0
 11
173.899994
 21
411.0
 31
0.0
  0
LINE
  5
A3E5
330
A18E
100
AcDbEntity
  8
4
  6
CENTER
 48
0.2
100
AcDbLine
 10
197.5038909999999
 20
383.0
 30
0.0
 11
164.371384
 21
383.0
 31
0.0
  0
LINE
  5
A3E6
330
A18E
100
AcDbEntity
  8
5
  6
PHANTOM
 48
0.2
100
AcDbLine
 10
174.100006
 20
375.0
 30
0.0
 11
174.100006
 21
393.100006
 31
0.0
  0
LINE
  5
A3E7
330
A18E
100
AcDbEntity
  8
5
  6
PHANTOM
 48
0.2
100
AcDbLine
 10
177.0
 20
374.149994
 30
0.0
 11
177.0
 21
393.100006
 31
0.0
  0
LINE
  5
A3E8
330
A18E
100
AcDbEntity
  8
5
  6
PHANTOM
 48
0.2
100
AcDbLine
 10
188.8999939999999
 20
375.4999999999999
 30
0.0
 11
188.8999939999999
 21
390.5
 31
0.0
  0
LINE
  5
A3E9
330
A18E
100
AcDbEntity
  8
5
  6
PHANTOM
 48
0.2
100
AcDbLine
 10
189.8999939999999
 20
376.5
 30
0.0
 11
189.8999939999999
 21
389.4999999999998
 31
0.0
  0
LINE
  5
A3EA
330
A18E
100
AcDbEntity
  8
5
  6
PHANTOM
 48
0.1
100
AcDbLine
 10
174.100006
 20
386.0
 30
0.0
 11
172.600006
 21
386.0
 31
0.0
  0
LINE
  5
A3EB
330
A18E
100
AcDbEntity
  8
5
  6
PHANTOM
 48
0.1
100
AcDbLine
 10
174.100006
 20
380.0
 30
0.0
 11
172.600006
 21
380.0
 31
0.0
  0
LINE
  5
A3EC
330
A18E
100
AcDbEntity
  8
5
  6
PHANTOM
 48
0.1
100
AcDbLine
 10
173.3499909999999
 20
383.0
 30
0.0
 11
172.5999909999999
 21
382.5
 31
0.0
  0
LINE
  5
A3ED
330
A18E
100
AcDbEntity
  8
5
  6
PHANTOM
 48
0.1
100
AcDbLine
 10
172.5999909999999
 20
383.4999999999998
 30
0.0
 11
173.3499909999999
 21
383.0
 31
0.0
  0
LINE
  5
A3EE
330
A18E
100
AcDbEntity
  8
5
  6
PHANTOM
 48
0.1
100
AcDbLine
 10
172.600006
 20
380.0
 30
0.0
 11
172.600006
 21
382.5
 31
0.0
  0
LINE
  5
A3EF
330
A18E
100
AcDbEntity
  8
5
  6
PHANTOM
 48
0.1
100
AcDbLine
 10
172.600006
 20
383.4999999999998
 30
0.0
 11
172.600006
 21
386.0
 31
0.0
  0
LINE
  5
A3F0
330
A18E
100
AcDbEntity
  8
5
  6
PHANTOM
 48
0.2
100
AcDbLine
 10
177.0
 20
375.0
 30
0.0
 11
174.100006
 21
375.0
 31
0.0
  0
LINE
  5
A3F1
330
A18E
100
AcDbEntity
  8
5
  6
PHANTOM
 48
0.2
100
AcDbLine
 10
189.900009
 20
376.5
 30
0.0
 11
188.900009
 21
375.4999999999999
 31
0.0
  0
LINE
  5
A3F2
330
A18E
100
AcDbEntity
  8
5
  6
PHANTOM
 48
0.2
100
AcDbLine
 10
188.8999939999999
 20
375.4999999999999
 30
0.0
 11
186.8999939999999
 21
375.4999999999999
 31
0.0
  0
ARC
  5
A3F3
330
A18E
100
AcDbEntity
  8
5
  6
PHANTOM
 48
0.2
100
AcDbCircle
 10
173.899994
 20
408.099976
 30
0.0
 40
2.9
100
AcDbArc
 50
90.00000300000001
 51
180.000005
  0
ARC
  5
A3F4
330
A18E
100
AcDbEntity
  8
5
  6
PHANTOM
 48
0.2
100
AcDbCircle
 10
173.899994
 20
396.0
 30
0.0
 40
2.9
100
AcDbArc
 50
179.9999909999999
 51
270.000001
  0
LINE
  5
A3F5
330
A18E
100
AcDbEntity
  8
4
  6
CENTER
 48
0.2
100
AcDbLine
 10
178.2499999999997
 20
402.0
 30
0.0
 11
166.649994
 21
402.0
 31
0.0
  0
LINE
  5
A3F6
330
A18E
100
AcDbEntity
  8
5
  6
PHANTOM
 48
0.2
100
AcDbLine
 10
171.0
 20
396.0
 30
0.0
 11
171.0
 21
408.099976
 31
0.0
  0
LINE
  5
A3F7
330
A18E
100
AcDbEntity
  8
5
  6
PHANTOM
 48
0.1
100
AcDbLine
 10
174.9999939999999
 20
400.999994
 30
0.0
 11
174.9999939999999
 21
406.9999759999998
 31
0.0
  0
ARC
  5
A3F8
330
A18E
100
AcDbEntity
  8
5
  6
PHANTOM
 48
0.1
100
AcDbCircle
 10
173.9999939999999
 20
400.999994
 30
0.0
 40
1.0
100
AcDbArc
 50
269.999999
 51
359.999995
  0
LINE
  5
A3F9
330
A18E
100
AcDbEntity
  8
5
  6
PHANTOM
 48
0.2
100
AcDbLine
 10
173.9999939999999
 20
399.999994
 30
0.0
 11
173.899994
 21
399.999994
 31
0.0
  0
LINE
  5
A3FA
330
A18E
100
AcDbEntity
  8
5
  6
PHANTOM
 48
0.1
100
AcDbLine
 10
181.000006
 20
406.9999759999998
 30
0.0
 11
174.9999939999999
 21
406.9999759999998
 31
0.0
  0
LINE
  5
A3FB
330
A18E
100
AcDbEntity
  8
5
  6
PHANTOM
 48
0.2
100
AcDbLine
 10
182.000006
 20
407.9999749999998
 30
0.0
 11
182.000006
 21
408.099976
 31
0.0
  0
ARC
  5
A3FC
330
A18E
100
AcDbEntity
  8
5
  6
PHANTOM
 48
0.1
100
AcDbCircle
 10
181.000006
 20
407.9999759999997
 30
0.0
 40
1.0
100
AcDbArc
 50
269.999999
 51
359.999995
  0
ARC
  5
A3FD
330
A18E
100
AcDbEntity
  8
5
  6
PHANTOM
 48
0.2
100
AcDbCircle
 10
174.100006
 20
393.100006
 30
0.0
 40
2.9
100
AcDbArc
 50
0.0
 51
90.00000300000001
  0
LINE
  5
A3FE
330
A18E
100
AcDbEntity
  8
5
  6
PHANTOM
 48
0.2
100
AcDbLine
 10
173.899994
 20
396.0
 30
0.0
 11
173.899994
 21
408.099976
 31
0.0
  0
LINE
  5
A3FF
330
A18E
100
AcDbEntity
  8
5
  6
PHANTOM
 48
0.2
100
AcDbLine
 10
174.100006
 20
393.100006
 30
0.0
 11
173.899994
 21
393.100006
 31
0.0
  0
LINE
  5
A400
330
A18E
100
AcDbEntity
  8
5
  6
PHANTOM
 48
0.2
100
AcDbLine
 10
174.100006
 20
396.0
 30
0.0
 11
173.899994
 21
396.0
 31
0.0
  0
LINE
  5
A401
330
A18E
100
AcDbEntity
  8
5
  6
PHANTOM
 48
0.2
100
AcDbLine
 10
178.600006
 20
391.8500059999999
 30
0.0
 11
177.0
 21
391.8500059999999
 31
0.0
  0
LINE
  5
A402
330
A18E
100
AcDbEntity
  8
5
  6
PHANTOM
 48
0.2
100
AcDbLine
 10
189.8999939999999
 20
389.4999999999998
 30
0.0
 11
188.8999939999999
 21
390.5
 31
0.0
  0
LINE
  5
A403
330
A18E
100
AcDbEntity
  8
5
  6
PHANTOM
 48
0.2
100
AcDbLine
 10
188.8999939999999
 20
390.5
 30
0.0
 11
186.8999939999999
 21
390.5
 31
0.0
  0
LINE
  5
A404
330
A18E
100
AcDbEntity
  8
5
  6
PHANTOM
 48
0.1
100
AcDbLine
 10
186.8999939999999
 20
393.0
 30
0.0
 11
178.600006
 21
393.0
 31
0.0
  0
LINE
  5
A405
330
A18E
100
AcDbEntity
  8
5
  6
PHANTOM
 48
0.2
100
AcDbLine
 10
201.0
 20
408.099976
 30
0.0
 11
201.0
 21
411.0
 31
0.0
  0
LINE
  5
A406
330
A18E
100
AcDbEntity
  8
4
  6
CENTER
 48
0.2
100
AcDbLine
 10
62.0
 20
416.0
 30
0.0
 11
62.0
 21
397.350006
 31
0.0
  0
LINE
  5
A407
330
A18E
100
AcDbEntity
  8
4
  6
CENTER
 48
0.2
100
AcDbLine
 10
44.0
 20
416.0
 30
0.0
 11
44.0
 21
397.350006
 31
0.0
  0
ARC
  5
A408
330
A18E
100
AcDbEntity
  8
5
  6
PHANTOM
 48
0.2
100
AcDbCircle
 10
53.0
 20
390.0
 30
0.0
 40
15.0
100
AcDbArc
 50
179.9999909999999
 51
0.00001
  0
LINE
  5
A409
330
A18E
100
AcDbEntity
  8
5
  6
PHANTOM
 48
0.2
100
AcDbLine
 10
38.0
 20
393.100006
 30
0.0
 11
68.0
 21
393.100006
 31
0.0
  0
LINE
  5
A40A
330
A18E
100
AcDbEntity
  8
5
  6
PHANTOM
 48
0.2
100
AcDbLine
 10
38.0
 20
411.0
 30
0.0
 11
68.0
 21
411.0
 31
0.0
  0
LINE
  5
A40B
330
A18E
100
AcDbEntity
  8
5
  6
PHANTOM
 48
0.2
100
AcDbLine
 10
38.0
 20
411.0
 30
0.0
 11
38.0
 21
390.0
 31
0.0
  0
LINE
  5
A40C
330
A18E
100
AcDbEntity
  8
4
  6
CENTER
 48
0.2
100
AcDbLine
 10
59.5
 20
383.0
 30
0.0
 11
46.5
 21
383.0
 31
0.0
  0
CIRCLE
  5
A40D
330
A18E
100
AcDbEntity
  8
5
  6
PHANTOM
 48
0.2
100
AcDbCircle
 10
53.0
 20
383.0
 30
0.0
 40
3.25
  0
CIRCLE
  5
A40E
330
A18E
100
AcDbEntity
  8
5
  6
PHANTOM
 48
0.2
100
AcDbCircle
 10
53.0
 20
383.0
 30
0.0
 40
3.0
  0
LINE
  5
A40F
330
A18E
100
AcDbEntity
  8
5
  6
PHANTOM
 48
0.1
100
AcDbLine
 10
53.5
 20
383.4999999999998
 30
0.0
 11
53.5
 21
385.958038
 31
0.0
  0
LINE
  5
A410
330
A18E
100
AcDbEntity
  8
5
  6
PHANTOM
 48
0.1
100
AcDbLine
 10
52.5
 20
383.4999999999998
 30
0.0
 11
52.5
 21
385.958038
 31
0.0
  0
LINE
  5
A411
330
A18E
100
AcDbEntity
  8
5
  6
PHANTOM
 48
0.1
100
AcDbLine
 10
53.5
 20
383.4999999999998
 30
0.0
 11
55.958038
 21
383.4999999999998
 31
0.0
  0
LINE
  5
A412
330
A18E
100
AcDbEntity
  8
5
  6
PHANTOM
 48
0.1
100
AcDbLine
 10
53.5
 20
382.5
 30
0.0
 11
55.958038
 21
382.5
 31
0.0
  0
LINE
  5
A413
330
A18E
100
AcDbEntity
  8
5
  6
PHANTOM
 48
0.1
100
AcDbLine
 10
50.04196199999999
 20
383.4999999999998
 30
0.0
 11
52.5
 21
383.4999999999998
 31
0.0
  0
LINE
  5
A414
330
A18E
100
AcDbEntity
  8
5
  6
PHANTOM
 48
0.1
100
AcDbLine
 10
50.04196199999999
 20
382.5
 30
0.0
 11
52.5
 21
382.5
 31
0.0
  0
LINE
  5
A415
330
A18E
100
AcDbEntity
  8
5
  6
PHANTOM
 48
0.1
100
AcDbLine
 10
53.5
 20
380.0419619999999
 30
0.0
 11
53.5
 21
382.5
 31
0.0
  0
LINE
  5
A416
330
A18E
100
AcDbEntity
  8
5
  6
PHANTOM
 48
0.1
100
AcDbLine
 10
52.5
 20
380.0419619999999
 30
0.0
 11
52.5
 21
382.5
 31
0.0
  0
LINE
  5
A417
330
A18E
100
AcDbEntity
  8
5
  6
PHANTOM
 48
0.1
100
AcDbLine
 10
55.0
 20
410.5
 30
0.0
 11
55.0
 21
402.0000239999998
 31
0.0
  0
LINE
  5
A418
330
A18E
100
AcDbEntity
  8
5
  6
PHANTOM
 48
0.1
100
AcDbLine
 10
51.0
 20
410.5
 30
0.0
 11
51.0
 21
402.0000239999998
 31
0.0
  0
ARC
  5
A419
330
A18E
100
AcDbEntity
  8
5
  6
PHANTOM
 48
0.1
100
AcDbCircle
 10
53.0
 20
402.0000239999998
 30
0.0
 40
2.0
100
AcDbArc
 50
179.9999909999999
 51
0.00001
  0
LINE
  5
A41A
330
A18E
100
AcDbEntity
  8
5
  6
PHANTOM
 48
0.1
100
AcDbLine
 10
51.0
 20
409.9
 30
0.0
 11
55.0
 21
409.9
 31
0.0
  0
ARC
  5
A41B
330
A18E
100
AcDbEntity
  8
5
  6
PHANTOM
 48
0.2
100
AcDbCircle
 10
50.5
 20
410.5
 30
0.0
 40
0.5
100
AcDbArc
 50
0.0
 51
90.00000300000001
  0
ARC
  5
A41C
330
A18E
100
AcDbEntity
  8
5
  6
PHANTOM
 48
0.2
100
AcDbCircle
 10
55.5
 20
410.5
 30
0.0
 40
0.5
100
AcDbArc
 50
90.00000300000001
 51
180.000005
  0
CIRCLE
  5
A41D
330
A18E
100
AcDbEntity
  8
5
  6
PHANTOM
 48
0.2
100
AcDbCircle
 10
44.0
 20
402.0
 30
0.0
 40
2.649999999999999
  0
LINE
  5
A41E
330
A18E
100
AcDbEntity
  8
4
  6
CENTER
 48
0.2
100
AcDbLine
 10
39.34999799999999
 20
402.0
 30
0.0
 11
48.650002
 21
402.0
 31
0.0
  0
CIRCLE
  5
A41F
330
A18E
100
AcDbEntity
  8
5
  6
PHANTOM
 48
0.2
100
AcDbCircle
 10
62.0
 20
402.0
 30
0.0
 40
2.649999999999999
  0
LINE
  5
A420
330
A18E
100
AcDbEntity
  8
4
  6
CENTER
 48
0.2
100
AcDbLine
 10
57.349998
 20
402.0
 30
0.0
 11
66.650002
 21
402.0
 31
0.0
  0
LINE
  5
A421
330
A18E
100
AcDbEntity
  8
5
  6
PHANTOM
 48
0.2
100
AcDbLine
 10
68.0
 20
411.0
 30
0.0
 11
68.0
 21
390.0
 31
0.0
  0
ARC
  5
A422
330
A18E
100
AcDbEntity
  8
1
  6
Continuous
100
AcDbCircle
 10
428.700012
 20
197.0
 30
0.0
 40
2.0
100
AcDbArc
 50
90.0
 51
180.0
  0
ARC
  5
A423
330
A18E
100
AcDbEntity
  8
1
  6
Continuous
100
AcDbCircle
 10
428.700012
 20
171.0
 30
0.0
 40
2.0
100
AcDbArc
 50
180.0
 51
270.0
  0
ARC
  5
A424
330
A18E
100
AcDbEntity
  8
1
  6
Continuous
100
AcDbCircle
 10
197.300003
 20
197.0
 30
0.0
 40
2.0
100
AcDbArc
 50
0.0
 51
90.0
  0
ARC
  5
A425
330
A18E
100
AcDbEntity
  8
1
  6
Continuous
100
AcDbCircle
 10
197.300003
 20
171.0
 30
0.0
 40
2.0
100
AcDbArc
 50
270.0
 51
0.0
  0
ARC
  5
A426
330
A18E
100
AcDbEntity
  8
1
  6
Continuous
100
AcDbCircle
 10
199.0
 20
56.0
 30
0.0
 40
2.0
100
AcDbArc
 50
270.0
 51
0.0
  0
ARC
  5
A427
330
A18E
100
AcDbEntity
  8
1
  6
Continuous
100
AcDbCircle
 10
199.0
 20
82.0
 30
0.0
 40
2.0
100
AcDbArc
 50
0.0
 51
90.0
  0
ARC
  5
A428
330
A18E
100
AcDbEntity
  8
1
  6
Continuous
100
AcDbCircle
 10
199.0
 20
591.0
 30
0.0
 40
2.0
100
AcDbArc
 50
270.0
 51
0.0
  0
ARC
  5
A429
330
A18E
100
AcDbEntity
  8
1
  6
Continuous
100
AcDbCircle
 10
199.0
 20
617.0
 30
0.0
 40
2.0
100
AcDbArc
 50
0.0
 51
90.0
  0
LINE
  5
A445
330
A18E
100
AcDbEntity
  8
1
  6
Continuous
100
AcDbLine
 10
175.3999939999999
 20
192.850006
 30
0.0
 11
175.3999939999999
 21
175.1499939999999
 31
0.0
  0
LINE
  5
A446
330
A18E
100
AcDbEntity
  8
1
  6
Continuous
100
AcDbLine
 10
175.3999939999999
 20
77.849998
 30
0.0
 11
175.3999939999999
 21
60.150002
 31
0.0
  0
LINE
  5
A447
330
A18E
100
AcDbEntity
  8
1
  6
Continuous
100
AcDbLine
 10
170.9
 20
72.0
 30
0.0
 11
170.9
 21
69.5
 31
0.0
  0
LINE
  5
A448
330
A18E
100
AcDbEntity
  8
1
  6
Continuous
100
AcDbLine
 10
170.9
 20
68.499992
 30
0.0
 11
170.9
 21
66.0
 31
0.0
  0
LINE
  5
A449
330
A18E
100
AcDbEntity
  8
1
  6
Continuous
100
AcDbLine
 10
171.0
 20
66.0
 30
0.0
 11
171.0
 21
58.640076
 31
0.0
  0
LINE
  5
A44A
330
A18E
100
AcDbEntity
  8
1
  6
Continuous
100
AcDbLine
 10
171.0
 20
69.43333333333329
 30
0.0
 11
171.0
 21
68.56665973333335
 31
0.0
  0
ENDSEC
  0
SECTION
  2
OBJECTS
  0
DICTIONARY
  5
A17C
330
0
100
AcDbDictionary
281
     1
  3
ACAD_CIP_PREVIOUS_PRODUCT_INFO
350
A6F8
  3
ACAD_COLOR
350
A6DA
  3
ACAD_DETAILVIEWSTYLE
350
A6F3
  3
ACAD_GROUP
350
A17D
  3
ACAD_LAYOUT
350
A189
  3
ACAD_MATERIAL
350
A6A8
  3
ACAD_MLEADERSTYLE
350
A6EF
  3
ACAD_MLINESTYLE
350
A186
  3
ACAD_PLOTSETTINGS
350
A188
  3
ACAD_PLOTSTYLENAME
350
A6A6
  3
ACAD_SCALELIST
350
A6DD
  3
ACAD_SECTIONVIEWSTYLE
350
A6F1
  3
ACAD_TABLESTYLE
350
A6DB
  3
ACAD_VISUALSTYLE
350
A6C1
  3
ACDB_RECOMPOSE_DATA
350
A716
  3
AcDbVariableDictionary
350
A709
  3
DWGPROPS
350
A717
  0
DICTIONARY
  5
A6F9
330
A180
100
AcDbDictionary
280
     1
281
     1
  3
ADSK_XREC_LAYER_RECONCILED
360
A6FA
  0
DICTIONARY
  5
A6FB
330
A196
100
AcDbDictionary
280
     1
281
     1
  3
ADSK_XREC_LAYER_RECONCILED
360
A6FC
  0
DICTIONARY
  5
A6FD
330
A197
100
AcDbDictionary
280
     1
281
     1
  3
ADSK_XREC_LAYER_RECONCILED
360
A6FE
  0
DICTIONARY
  5
A6FF
330
A198
100
AcDbDictionary
280
     1
281
     1
  3
ADSK_XREC_LAYER_RECONCILED
360
A700
  0
DICTIONARY
  5
A701
330
A199
100
AcDbDictionary
280
     1
281
     1
  3
ADSK_XREC_LAYER_RECONCILED
360
A702
  0
DICTIONARY
  5
A703
330
A19A
100
AcDbDictionary
280
     1
281
     1
  3
ADSK_XREC_LAYER_RECONCILED
360
A704
  0
DICTIONARY
  5
A705
330
A19B
100
AcDbDictionary
280
     1
281
     1
  3
ADSK_XREC_LAYER_RECONCILED
360
A706
  0
DICTIONARY
  5
A707
330
A19C
100
AcDbDictionary
280
     1
281
     1
  3
ADSK_XREC_LAYER_RECONCILED
360
A708
  0
DICTIONARY
  5
A438
330
A18E
100
AcDbDictionary
281
     1
  3
ACAD_LAYOUTSELFREF
350
A6A2
  0
DICTIONARY
  5
A436
330
A18A
100
AcDbDictionary
281
     1
  3
ACAD_LAYOUTSELFREF
350
A6A1
  0
XRECORD
  5
A6F8
102
{ACAD_REACTORS
330
A17C
102
}
330
A17C
100
AcDbXrecord
280
     1
300
ACDLT
300
2014
300
ACDLT_F_S
  0
DICTIONARY
  5
A6DA
102
{ACAD_REACTORS
330
A17C
102
}
330
A17C
100
AcDbDictionary
281
     1
  0
DICTIONARY
  5
A6F3
102
{ACAD_REACTORS
330
A17C
102
}
330
A17C
100
AcDbDictionary
281
     1
  3
Imperial24
350
A6F4
  0
DICTIONARY
  5
A17D
102
{ACAD_REACTORS
330
A17C
102
}
330
A17C
100
AcDbDictionary
281
     1
  0
DICTIONARY
  5
A189
102
{ACAD_REACTORS
330
A17C
102
}
330
A17C
100
AcDbDictionary
281
     1
  3
Model
350
A6F5
  3
レイアウト1
350
A6F6
  0
DICTIONARY
  5
A6A8
102
{ACAD_REACTORS
330
A17C
102
}
330
A17C
100
AcDbDictionary
281
     1
  3
ByBlock
350
A6B1
  3
ByLayer
350
A6A9
  3
Global
350
A6B9
  0
DICTIONARY
  5
A6EF
102
{ACAD_REACTORS
330
A17C
102
}
330
A17C
100
AcDbDictionary
281
     1
  3
Standard
350
A6F0
  0
DICTIONARY
  5
A186
102
{ACAD_REACTORS
330
A17C
102
}
330
A17C
100
AcDbDictionary
281
     1
  3
STANDARD
350
A187
  0
DICTIONARY
  5
A188
102
{ACAD_REACTORS
330
A17C
102
}
330
A17C
100
AcDbDictionary
281
     1
  0
ACDBDICTIONARYWDFLT
  5
A6A6
102
{ACAD_REACTORS
330
A17C
102
}
330
A17C
100
AcDbDictionary
281
     1
  3
Normal
350
A6A7
100
AcDbDictionaryWithDefault
340
A6A7
  0
DICTIONARY
  5
A6DD
102
{ACAD_REACTORS
330
A17C
102
}
330
A17C
100
AcDbDictionary
281
     1
  3
A0
350
A6DE
  3
A1
350
A6DF
  3
A2
350
A6E0
  3
A3
350
A6E1
  3
A4
350
A6E2
  3
A5
350
A6E3
  3
A6
350
A6E4
  3
A7
350
A6E5
  3
A8
350
A6E6
  3
A9
350
A6E7
  3
B0
350
A6E8
  3
B1
350
A6E9
  3
B2
350
A6EA
  3
B3
350
A6EB
  3
B4
350
A6EC
  3
B5
350
A6ED
  3
B6
350
A6EE
  0
DICTIONARY
  5
A6F1
102
{ACAD_REACTORS
330
A17C
102
}
330
A17C
100
AcDbDictionary
281
     1
  3
Imperial24
350
A6F2
  0
DICTIONARY
  5
A6DB
102
{ACAD_REACTORS
330
A17C
102
}
330
A17C
100
AcDbDictionary
281
     1
  3
Standard
350
A6DC
  0
DICTIONARY
  5
A6C1
102
{ACAD_REACTORS
330
A17C
102
}
330
A17C
100
AcDbDictionary
281
     1
  3
2dWireframe
350
A6C7
  3
Basic
350
A6C6
  3
Brighten
350
A6CD
  3
ColorChange
350
A6D1
  3
Conceptual
350
A6CA
  3
Dim
350
A6CC
  3
EdgeColorOff
350
A6D9
  3
Facepattern
350
A6D0
  3
Flat
350
A6C2
  3
FlatWithEdges
350
A6C3
  3
Gouraud
350
A6C4
  3
GouraudWithEdges
350
A6C5
  3
Hidden
350
A6C9
  3
JitterOff
350
A6D7
  3
Linepattern
350
A6CF
  3
OverhangOff
350
A6D8
  3
Realistic
350
A6CB
  3
Shaded
350
A6D6
  3
Shaded with edges
350
A6D5
  3
Shades of Gray
350
A6D2
  3
Sketchy
350
A6D3
  3
Thicken
350
A6CE
  3
Wireframe
350
A6C8
  3
X-Ray
350
A6D4
  0
XRECORD
  5
A716
102
{ACAD_REACTORS
330
A17C
102
}
330
A17C
100
AcDbXrecord
280
     1
 90
        1
330
A6DC
  0
DICTIONARY
  5
A709
102
{ACAD_REACTORS
330
A17C
102
}
330
A17C
100
AcDbDictionary
281
     1
  3
CANNOSCALE
350
A70E
  3
CMLEADERSTYLE
350
A70B
  3
CTABLESTYLE
350
A70A
  3
CVIEWDETAILSTYLE
350
A70C
  3
CVIEWSECTIONSTYLE
350
A70D
  3
DIMASSOC
350
A711
  3
INDEXCTL
350
A710
  3
SORTENTS
350
A70F
  3
XCLIPFRAME
350
A712
  0
XRECORD
  5
A717
102
{ACAD_REACTORS
330
A17C
102
}
330
A17C
100
AcDbXrecord
280
     1
  1
DWGPROPS COOKIE
  2

  3

  4

  6

  7

  8
Yoshitsune
  9

300
=
301
=
302
=
303
=
304
=
305
=
306
=
307
=
308
=
309
=
 40
0.0159796064814815
 41
2451065.509030903
 42
2457192.622774109
  1

 90
        0
  0
XRECORD
  5
A6FA
102
{ACAD_REACTORS
330
A6F9
102
}
330
A6F9
100
AcDbXrecord
280
     1
290
     1
  0
XRECORD
  5
A6FC
102
{ACAD_REACTORS
330
A6FB
102
}
330
A6FB
100
AcDbXrecord
280
     1
290
     1
  0
XRECORD
  5
A6FE
102
{ACAD_REACTORS
330
A6FD
102
}
330
A6FD
100
AcDbXrecord
280
     1
290
     1
  0
XRECORD
  5
A700
102
{ACAD_REACTORS
330
A6FF
102
}
330
A6FF
100
AcDbXrecord
280
     1
290
     1
  0
XRECORD
  5
A702
102
{ACAD_REACTORS
330
A701
102
}
330
A701
100
AcDbXrecord
280
     1
290
     1
  0
XRECORD
  5
A704
102
{ACAD_REACTORS
330
A703
102
}
330
A703
100
AcDbXrecord
280
     1
290
     1
  0
XRECORD
  5
A706
102
{ACAD_REACTORS
330
A705
102
}
330
A705
100
AcDbXrecord
280
     1
290
     1
  0
XRECORD
  5
A708
102
{ACAD_REACTORS
330
A707
102
}
330
A707
100
AcDbXrecord
280
     1
290
     1
  0
XRECORD
  5
A6A2
102
{ACAD_REACTORS
330
A438
102
}
330
A438
100
AcDbXrecord
280
     1
340
A18E
  0
XRECORD
  5
A6A1
102
{ACAD_REACTORS
330
A436
102
}
330
A436
100
AcDbXrecord
280
     1
340
A18A
  0
ACDBDETAILVIEWSTYLE
  5
A6F4
102
{ACAD_XDICTIONARY
360
A74F
102
}
102
{ACAD_REACTORS
330
A6F3
102
}
330
A6F3
100
AcDbModelDocViewStyle
 70
     0
  3
Imperial24
290
     0
100
AcDbDetailViewStyle
 70
     0
 71
     0
 90
        3
 71
     1
340
A181
 40
0.24
340
0
 40
0.24
300

 40
0.36
280
     3
 71
     2
340
A185
 90
       25
 71
     3
340
A181
 40
0.24
 90
        1
 40
0.75
 90
        1
300
%<\AcVar ViewType \f "%tc1">% %<\AcVar ViewDetailId>%\PSCALE %<\AcVar ViewScale \f "%sn">%
 71
     4
340
A185
 90
       25
340
A185
 90
       25
280
     0
  0
LAYOUT
  5
A6F5
102
{ACAD_XDICTIONARY
360
A751
102
}
102
{ACAD_REACTORS
330
A189
102
}
330
A189
100
AcDbPlotSettings
  1

  2
Canon LBP9100C
  4

  6

 40
0.0
 41
0.0
 42
0.0
 43
0.0
 44
0.0
 45
0.0
 46
0.0
 47
0.0
 48
0.0
 49
0.0
140
0.0
141
0.0
142
1.0
143
1.0
 70
  1712
 72
     0
 73
     0
 74
     0
  7

 75
     0
147
1.0
148
0.0
149
0.0
100
AcDbLayout
  1
Model
 70
     1
 71
     0
 10
0.0
 20
0.0
 11
12.0
 21
9.0
 12
0.0
 22
0.0
 32
0.0
 14
0.0
 24
0.0
 34
0.0
 15
0.0
 25
0.0
 35
0.0
146
0.0
 13
0.0
 23
0.0
 33
0.0
 16
1.0
 26
0.0
 36
0.0
 17
0.0
 27
1.0
 37
0.0
 76
     0
330
A18E
331
A6A0
  0
LAYOUT
  5
A6F6
102
{ACAD_XDICTIONARY
360
A753
102
}
102
{ACAD_REACTORS
330
A189
102
}
330
A189
100
AcDbPlotSettings
  1

  2
Canon LBP9100C
  4

  6

 40
0.0
 41
0.0
 42
0.0
 43
0.0
 44
0.0
 45
0.0
 46
0.0
 47
0.0
 48
0.0
 49
0.0
140
0.0
141
0.0
142
1.0
143
1.0
 70
   688
 72
     0
 73
     0
 74
     5
  7

 75
    16
147
1.0
148
0.0
149
0.0
100
AcDbLayout
  1
レイアウト1
 70
     0
 71
     1
 10
0.0
 20
0.0
 11
420.0
 21
297.0
 12
0.0
 22
0.0
 32
0.0
 14
1.000000000000000E+20
 24
1.000000000000000E+20
 34
1.000000000000000E+20
 15
-1.000000000000000E+20
 25
-1.000000000000000E+20
 35
-1.000000000000000E+20
146
0.0
 13
0.0
 23
0.0
 33
0.0
 16
1.0
 26
0.0
 36
0.0
 17
0.0
 27
1.0
 37
0.0
 76
     0
330
A18A
  0
MATERIAL
  5
A6B1
102
{ACAD_XDICTIONARY
360
A6B2
102
}
102
{ACAD_REACTORS
330
A6A8
102
}
330
A6A8
100
AcDbMaterial
  1
ByBlock
 72
     0
 43
0.0208333333333333
 43
0.0
 43
0.0
 43
0.0
 43
0.0
 43
0.0208333333333333
 43
0.0
 43
0.0
 43
0.0
 43
0.0
 43
1.0
 43
0.0
 43
0.0
 43
0.0
 43
0.0
 43
1.0
 77
     0
 47
0.0208333333333333
 47
0.0
 47
0.0
 47
0.0
 47
0.0
 47
0.0208333333333333
 47
0.0
 47
0.0
 47
0.0
 47
0.0
 47
1.0
 47
0.0
 47
0.0
 47
0.0
 47
0.0
 47
1.0
171
     0
 49
0.0208333333333333
 49
0.0
 49
0.0
 49
0.0
 49
0.0
 49
0.0208333333333333
 49
0.0
 49
0.0
 49
0.0
 49
0.0
 49
1.0
 49
0.0
 49
0.0
 49
0.0
 49
0.0
 49
1.0
175
     0
142
0.0208333333333333
142
0.0
142
0.0
142
0.0
142
0.0
142
0.0208333333333333
142
0.0
142
0.0
142
0.0
142
0.0
142
1.0
142
0.0
142
0.0
142
0.0
142
0.0
142
1.0
179
     0
144
0.0208333333333333
144
0.0
144
0.0
144
0.0
144
0.0
144
0.0208333333333333
144
0.0
144
0.0
144
0.0
144
0.0
144
1.0
144
0.0
144
0.0
144
0.0
144
0.0
144
1.0
147
0.0208333333333333
147
0.0
147
0.0
147
0.0
147
0.0
147
0.0208333333333333
147
0.0
147
0.0
147
0.0
147
0.0
147
1.0
147
0.0
147
0.0
147
0.0
147
0.0
147
1.0
  0
MATERIAL
  5
A6A9
102
{ACAD_XDICTIONARY
360
A6AA
102
}
102
{ACAD_REACTORS
330
A6A8
102
}
330
A6A8
100
AcDbMaterial
  1
ByLayer
 72
     0
 43
0.0208333333333333
 43
0.0
 43
0.0
 43
0.0
 43
0.0
 43
0.0208333333333333
 43
0.0
 43
0.0
 43
0.0
 43
0.0
 43
1.0
 43
0.0
 43
0.0
 43
0.0
 43
0.0
 43
1.0
 77
     0
 47
0.0208333333333333
 47
0.0
 47
0.0
 47
0.0
 47
0.0
 47
0.0208333333333333
 47
0.0
 47
0.0
 47
0.0
 47
0.0
 47
1.0
 47
0.0
 47
0.0
 47
0.0
 47
0.0
 47
1.0
171
     0
 49
0.0208333333333333
 49
0.0
 49
0.0
 49
0.0
 49
0.0
 49
0.0208333333333333
 49
0.0
 49
0.0
 49
0.0
 49
0.0
 49
1.0
 49
0.0
 49
0.0
 49
0.0
 49
0.0
 49
1.0
175
     0
142
0.0208333333333333
142
0.0
142
0.0
142
0.0
142
0.0
142
0.0208333333333333
142
0.0
142
0.0
142
0.0
142
0.0
142
1.0
142
0.0
142
0.0
142
0.0
142
0.0
142
1.0
179
     0
144
0.0208333333333333
144
0.0
144
0.0
144
0.0
144
0.0
144
0.0208333333333333
144
0.0
144
0.0
144
0.0
144
0.0
144
1.0
144
0.0
144
0.0
144
0.0
144
0.0
144
1.0
147
0.0208333333333333
147
0.0
147
0.0
147
0.0
147
0.0
147
0.0208333333333333
147
0.0
147
0.0
147
0.0
147
0.0
147
1.0
147
0.0
147
0.0
147
0.0
147
0.0
147
1.0
  0
MATERIAL
  5
A6B9
102
{ACAD_XDICTIONARY
360
A6BA
102
}
102
{ACAD_REACTORS
330
A6A8
102
}
330
A6A8
100
AcDbMaterial
  1
Global
 72
     0
 43
0.0208333333333333
 43
0.0
 43
0.0
 43
0.0
 43
0.0
 43
0.0208333333333333
 43
0.0
 43
0.0
 43
0.0
 43
0.0
 43
1.0
 43
0.0
 43
0.0
 43
0.0
 43
0.0
 43
1.0
 77
     0
 47
0.0208333333333333
 47
0.0
 47
0.0
 47
0.0
 47
0.0
 47
0.0208333333333333
 47
0.0
 47
0.0
 47
0.0
 47
0.0
 47
1.0
 47
0.0
 47
0.0
 47
0.0
 47
0.0
 47
1.0
171
     0
 49
0.0208333333333333
 49
0.0
 49
0.0
 49
0.0
 49
0.0
 49
0.0208333333333333
 49
0.0
 49
0.0
 49
0.0
 49
0.0
 49
1.0
 49
0.0
 49
0.0
 49
0.0
 49
0.0
 49
1.0
175
     0
142
0.0208333333333333
142
0.0
142
0.0
142
0.0
142
0.0
142
0.0208333333333333
142
0.0
142
0.0
142
0.0
142
0.0
142
1.0
142
0.0
142
0.0
142
0.0
142
0.0
142
1.0
179
     0
144
0.0208333333333333
144
0.0
144
0.0
144
0.0
144
0.0
144
0.0208333333333333
144
0.0
144
0.0
144
0.0
144
0.0
144
1.0
144
0.0
144
0.0
144
0.0
144
0.0
144
1.0
147
0.0208333333333333
147
0.0
147
0.0
147
0.0
147
0.0
147
0.0208333333333333
147
0.0
147
0.0
147
0.0
147
0.0
147
1.0
147
0.0
147
0.0
147
0.0
147
0.0
147
1.0
  0
MLEADERSTYLE
  5
A6F0
102
{ACAD_REACTORS
330
A6EF
102
}
330
A6EF
100
AcDbMLeaderStyle
170
     2
171
     1
172
     0
 90
        2
 40
0.0
 41
0.0
173
     1
 91
-1056964608
340
A183
 92
       -2
290
     1
 42
0.09
291
     1
 43
0.36
  3
Standard
 44
0.18
300

342
A181
174
     1
178
     6
175
     1
176
     0
 93
-1056964608
 45
0.18
292
     0
297
     0
 46
0.18
 94
-1056964608
 47
1.0
 49
1.0
140
1.0
293
     1
141
0.0
294
     1
177
     0
142
1.0
295
     0
296
     0
143
0.125
1001
ACAD_MLEADERVER
1070
     2
  0
MLINESTYLE
  5
A187
102
{ACAD_REACTORS
330
A186
102
}
330
A186
100
AcDbMlineStyle
  2
STANDARD
 70
     0
  3

 62
   256
 51
90.0
 52
90.0
 71
     2
 49
0.5
 62
   256
  6
BYLAYER
 49
-0.5
 62
   256
  6
BYLAYER
  0
ACDBPLACEHOLDER
  5
A6A7
102
{ACAD_REACTORS
330
A6A6
102
}
330
A6A6
  0
SCALE
  5
A6DE
102
{ACAD_REACTORS
330
A6DD
102
}
330
A6DD
100
AcDbScale
 70
     0
300
1:1
140
1.0
141
1.0
290
     1
  0
SCALE
  5
A6DF
102
{ACAD_REACTORS
330
A6DD
102
}
330
A6DD
100
AcDbScale
 70
     0
300
1/128" = 1'-0"
140
0.0078125
141
12.0
290
     0
  0
SCALE
  5
A6E0
102
{ACAD_REACTORS
330
A6DD
102
}
330
A6DD
100
AcDbScale
 70
     0
300
1/64" = 1'-0"
140
0.015625
141
12.0
290
     0
  0
SCALE
  5
A6E1
102
{ACAD_REACTORS
330
A6DD
102
}
330
A6DD
100
AcDbScale
 70
     0
300
1/32" = 1'-0"
140
0.03125
141
12.0
290
     0
  0
SCALE
  5
A6E2
102
{ACAD_REACTORS
330
A6DD
102
}
330
A6DD
100
AcDbScale
 70
     0
300
1/16" = 1'-0"
140
0.0625
141
12.0
290
     0
  0
SCALE
  5
A6E3
102
{ACAD_REACTORS
330
A6DD
102
}
330
A6DD
100
AcDbScale
 70
     0
300
3/32" = 1'-0"
140
0.09375
141
12.0
290
     0
  0
SCALE
  5
A6E4
102
{ACAD_REACTORS
330
A6DD
102
}
330
A6DD
100
AcDbScale
 70
     0
300
1/8" = 1'-0"
140
0.125
141
12.0
290
     0
  0
SCALE
  5
A6E5
102
{ACAD_REACTORS
330
A6DD
102
}
330
A6DD
100
AcDbScale
 70
     0
300
3/16" = 1'-0"
140
0.1875
141
12.0
290
     0
  0
SCALE
  5
A6E6
102
{ACAD_REACTORS
330
A6DD
102
}
330
A6DD
100
AcDbScale
 70
     0
300
1/4" = 1'-0"
140
0.25
141
12.0
290
     0
  0
SCALE
  5
A6E7
102
{ACAD_REACTORS
330
A6DD
102
}
330
A6DD
100
AcDbScale
 70
     0
300
3/8" = 1'-0"
140
0.375
141
12.0
290
     0
  0
SCALE
  5
A6E8
102
{ACAD_REACTORS
330
A6DD
102
}
330
A6DD
100
AcDbScale
 70
     0
300
1/2" = 1'-0"
140
0.5
141
12.0
290
     0
  0
SCALE
  5
A6E9
102
{ACAD_REACTORS
330
A6DD
102
}
330
A6DD
100
AcDbScale
 70
     0
300
3/4" = 1'-0"
140
0.75
141
12.0
290
     0
  0
SCALE
  5
A6EA
102
{ACAD_REACTORS
330
A6DD
102
}
330
A6DD
100
AcDbScale
 70
     0
300
1" = 1'-0"
140
1.0
141
12.0
290
     0
  0
SCALE
  5
A6EB
102
{ACAD_REACTORS
330
A6DD
102
}
330
A6DD
100
AcDbScale
 70
     0
300
1-1/2" = 1'-0"
140
1.5
141
12.0
290
     0
  0
SCALE
  5
A6EC
102
{ACAD_REACTORS
330
A6DD
102
}
330
A6DD
100
AcDbScale
 70
     0
300
3" = 1'-0"
140
3.0
141
12.0
290
     0
  0
SCALE
  5
A6ED
102
{ACAD_REACTORS
330
A6DD
102
}
330
A6DD
100
AcDbScale
 70
     0
300
6" = 1'-0"
140
6.0
141
12.0
290
     0
  0
SCALE
  5
A6EE
102
{ACAD_REACTORS
330
A6DD
102
}
330
A6DD
100
AcDbScale
 70
     0
300
1'-0" = 1'-0"
140
12.0
141
12.0
290
     0
  0
ACDBSECTIONVIEWSTYLE
  5
A6F2
102
{ACAD_XDICTIONARY
360
A74D
102
}
102
{ACAD_REACTORS
330
A6F1
102
}
330
A6F1
100
AcDbModelDocViewStyle
 70
     0
  3
Imperial24
290
     0
100
AcDbSectionViewStyle
 70
     0
 71
     0
 90
       78
 71
     1
340
A181
 40
0.24
340
0
340
0
 40
0.24
300
I, O, Q, S, X, Z
 40
0.48
 90
        3
 40
0.18
 90
        1
 71
     2
340
A185
 90
       25
340
A185
 90
       50
 40
0.24
 40
0.0
 40
0.24
 71
     3
340
A181
 40
0.24
 90
        1
 40
0.75
 90
        1
300
%<\AcVar ViewType \f "%tc1">% %<\AcVar ViewSectionStartId>%-%<\AcVar ViewSectionEndId>%\PSCALE %<\AcVar ViewScale \f "%sn">%
 71
     4
300
ANSI31
 40
1.0
 90
        0
290
     0
290
     0
 90
        6
 40
0.0
 40
1.570796326794896
 40
0.2617993877991494
 40
1.308996938995747
 40
-0.2617993877991494
 40
1.832595714594046
  0
TABLESTYLE
  5
A6DC
102
{ACAD_XDICTIONARY
360
A714
102
}
102
{ACAD_REACTORS
330
A6DB
102
}
330
A6DB
100
AcDbTableStyle
  3
Standard
 70
     0
 71
     0
 40
0.06
 41
0.06
280
     0
281
     0
  7
STANDARD
140
0.18
170
     2
 62
     0
 63
     7
283
     0
274
    -2
284
     1
 64
     0
275
    -2
285
     1
 65
     0
276
    -2
286
     1
 66
     0
277
    -2
287
     1
 67
     0
278
    -2
288
     1
 68
     0
279
    -2
289
     1
 69
     0
  7
STANDARD
140
0.25
170
     5
 62
     0
 63
     7
283
     0
274
    -2
284
     1
 64
     0
275
    -2
285
     1
 65
     0
276
    -2
286
     1
 66
     0
277
    -2
287
     1
 67
     0
278
    -2
288
     1
 68
     0
279
    -2
289
     1
 69
     0
  7
STANDARD
140
0.18
170
     5
 62
     0
 63
     7
283
     0
274
    -2
284
     1
 64
     0
275
    -2
285
     1
 65
     0
276
    -2
286
     1
 66
     0
277
    -2
287
     1
 67
     0
278
    -2
288
     1
 68
     0
279
    -2
289
     1
 69
     0
  0
VISUALSTYLE
  5
A6C7
102
{ACAD_XDICTIONARY
360
A725
102
}
102
{ACAD_REACTORS
330
A6C1
102
}
330
A6C1
100
AcDbVisualStyle
  2
2dWireframe
 70
     4
 71
     0
 72
     2
 73
     0
 90
        0
 40
-0.6
 41
-30.0
 62
     5
 63
     7
 74
     1
 91
        4
 64
     7
 65
   257
 75
     1
175
     1
 42
1.0
 92
        0
 66
   257
 43
1.0
 76
     1
 77
     6
 78
     2
 67
     7
 79
     5
170
     0
171
     0
290
     0
174
     0
 93
        1
 44
0.0
173
     0
291
     0
 45
0.0
1001
ACAD
1000
AcDbSavedByObjectVersion
1070
     0
  0
VISUALSTYLE
  5
A6C6
102
{ACAD_XDICTIONARY
360
A723
102
}
102
{ACAD_REACTORS
330
A6C1
102
}
330
A6C1
100
AcDbVisualStyle
  2
Basic
 70
     7
 71
     1
 72
     0
 73
     1
 90
        0
 40
-0.6
 41
-30.0
 62
     5
 63
     7
 74
     0
 91
        4
 64
     7
 65
   257
 75
     1
175
     1
 42
1.0
 92
        8
 66
     7
 43
1.0
 76
     1
 77
     6
 78
     2
 67
     7
 79
     5
170
     0
171
     0
290
     0
174
     0
 93
        1
 44
0.0
173
     0
291
     1
 45
0.0
1001
ACAD
1000
AcDbSavedByObjectVersion
1070
     0
  0
VISUALSTYLE
  5
A6CD
102
{ACAD_XDICTIONARY
360
A731
102
}
102
{ACAD_REACTORS
330
A6C1
102
}
330
A6C1
100
AcDbVisualStyle
  2
Brighten
 70
    12
 71
     2
 72
     2
 73
     0
 90
        0
 40
-0.6
 41
-30.0
 62
     5
 63
     7
 74
     1
 91
        4
 64
     7
 65
   257
 75
     1
175
     1
 42
1.0
 92
        8
 66
     7
 43
1.0
 76
     1
 77
     6
 78
     2
 67
     7
 79
     5
170
     0
171
     0
290
     0
174
     0
 93
        1
 44
50.0
173
     0
291
     1
 45
0.0
1001
ACAD
1000
AcDbSavedByObjectVersion
1070
     0
  0
VISUALSTYLE
  5
A6D1
102
{ACAD_XDICTIONARY
360
A739
102
}
102
{ACAD_REACTORS
330
A6C1
102
}
330
A6C1
100
AcDbVisualStyle
  2
ColorChange
 70
    16
 71
     2
 72
     2
 73
     3
 90
        0
 40
-0.6
 41
-30.0
 62
     5
 63
     8
 74
     1
 91
        4
 64
     7
 65
   257
 75
     1
175
     1
 42
1.0
 92
        8
 66
     8
 43
1.0
 76
     1
 77
     6
 78
     2
 67
     7
 79
     5
170
     0
171
     0
290
     0
174
     0
 93
        1
 44
0.0
173
     0
291
     1
 45
0.0
1001
ACAD
1000
AcDbSavedByObjectVersion
1070
     0
  0
VISUALSTYLE
  5
A6CA
102
{ACAD_XDICTIONARY
360
A72B
102
}
102
{ACAD_REACTORS
330
A6C1
102
}
330
A6C1
100
AcDbVisualStyle
  2
Conceptual
 70
     9
 71
     3
 72
     2
 73
     0
 90
        0
 40
-0.6
 41
-30.0
 62
     5
 63
     7
 74
     2
 91
        2
 64
     7
 65
   257
 75
     1
175
     1
 42
179.0
 92
        8
 66
     7
 43
1.0
 76
     1
 77
     6
 78
     2
 67
     7
 79
     3
170
     0
171
     0
290
     0
174
     0
 93
        1
 44
0.0
173
     0
291
     0
 45
0.0
1001
ACAD
1000
AcDbSavedByObjectVersion
1070
     0
  0
VISUALSTYLE
  5
A6CC
102
{ACAD_XDICTIONARY
360
A72F
102
}
102
{ACAD_REACTORS
330
A6C1
102
}
330
A6C1
100
AcDbVisualStyle
  2
Dim
 70
    11
 71
     2
 72
     2
 73
     0
 90
        0
 40
-0.6
 41
-30.0
 62
     5
 63
     7
 74
     1
 91
        4
 64
     7
 65
   257
 75
     1
175
     1
 42
1.0
 92
        8
 66
     7
 43
1.0
 76
     1
 77
     6
 78
     2
 67
     7
 79
     5
170
     0
171
     0
290
     0
174
     0
 93
        1
 44
-50.0
173
     0
291
     1
 45
0.0
1001
ACAD
1000
AcDbSavedByObjectVersion
1070
     0
  0
VISUALSTYLE
  5
A6D9
102
{ACAD_XDICTIONARY
360
A749
102
}
102
{ACAD_REACTORS
330
A6C1
102
}
330
A6C1
100
AcDbVisualStyle
  2
EdgeColorOff
 70
    22
 71
     2
 72
     2
 73
     0
 90
        0
 40
-0.6
 41
-30.0
 62
     5
 63
     7
 74
     1
 91
        4
 64
     7
 65
   257
 75
     1
175
     1
 42
1.0
 92
        8
 66
     7
 43
1.0
 76
     1
 77
     6
 78
     2
 67
     7
 79
     5
170
     0
171
     0
290
     0
174
     0
 93
        1
 44
0.0
173
     0
291
     1
 45
0.0
1001
ACAD
1000
AcDbSavedByObjectVersion
1070
     0
  0
VISUALSTYLE
  5
A6D0
102
{ACAD_XDICTIONARY
360
A737
102
}
102
{ACAD_REACTORS
330
A6C1
102
}
330
A6C1
100
AcDbVisualStyle
  2
Facepattern
 70
    15
 71
     2
 72
     2
 73
     0
 90
        0
 40
-0.6
 41
-30.0
 62
     5
 63
     7
 74
     1
 91
        4
 64
     7
 65
   257
 75
     1
175
     1
 42
1.0
 92
        8
 66
     7
 43
1.0
 76
     1
 77
     6
 78
     2
 67
     7
 79
     5
170
     0
171
     0
290
     0
174
     0
 93
        1
 44
0.0
173
     0
291
     1
 45
0.0
1001
ACAD
1000
AcDbSavedByObjectVersion
1070
     0
  0
VISUALSTYLE
  5
A6C2
102
{ACAD_XDICTIONARY
360
A71B
102
}
102
{ACAD_REACTORS
330
A6C1
102
}
330
A6C1
100
AcDbVisualStyle
  2
Flat
 70
     0
 71
     2
 72
     1
 73
     1
 90
        2
 40
-0.6
 41
30.0
 62
     5
 63
     7
 74
     0
 91
        0
 64
     7
 65
   257
 75
     1
175
     1
 42
1.0
 92
        8
 66
     7
 43
1.0
 76
     1
 77
     6
 78
     2
 67
     7
 79
     5
170
     0
171
     0
290
     0
174
     0
 93
       13
 44
0.0
173
     0
291
     1
 45
0.0
1001
ACAD
1000
AcDbSavedByObjectVersion
1070
     0
  0
VISUALSTYLE
  5
A6C3
102
{ACAD_XDICTIONARY
360
A71D
102
}
102
{ACAD_REACTORS
330
A6C1
102
}
330
A6C1
100
AcDbVisualStyle
  2
FlatWithEdges
 70
     1
 71
     2
 72
     1
 73
     1
 90
        2
 40
-0.6
 41
30.0
 62
     5
 63
     7
 74
     1
 91
        0
 64
     7
 65
   257
 75
     1
175
     1
 42
1.0
 92
        0
 66
   257
 43
1.0
 76
     1
 77
     6
 78
     2
 67
     7
 79
     5
170
     0
171
     0
290
     0
174
     0
 93
       13
 44
0.0
173
     0
291
     1
 45
0.0
1001
ACAD
1000
AcDbSavedByObjectVersion
1070
     0
  0
VISUALSTYLE
  5
A6C4
102
{ACAD_XDICTIONARY
360
A71F
102
}
102
{ACAD_REACTORS
330
A6C1
102
}
330
A6C1
100
AcDbVisualStyle
  2
Gouraud
 70
     2
 71
     2
 72
     2
 73
     1
 90
        2
 40
-0.6
 41
30.0
 62
     5
 63
     7
 74
     0
 91
        0
 64
     7
 65
   257
 75
     1
175
     1
 42
1.0
 92
        0
 66
     7
 43
1.0
 76
     1
 77
     6
 78
     2
 67
     7
 79
     5
170
     0
171
     0
290
     0
174
     0
 93
       13
 44
0.0
173
     0
291
     1
 45
0.0
1001
ACAD
1000
AcDbSavedByObjectVersion
1070
     0
  0
VISUALSTYLE
  5
A6C5
102
{ACAD_XDICTIONARY
360
A721
102
}
102
{ACAD_REACTORS
330
A6C1
102
}
330
A6C1
100
AcDbVisualStyle
  2
GouraudWithEdges
 70
     3
 71
     2
 72
     2
 73
     1
 90
        2
 40
-0.6
 41
30.0
 62
     5
 63
     7
 74
     1
 91
        0
 64
     7
 65
   257
 75
     1
175
     1
 42
1.0
 92
        0
 66
   257
 43
1.0
 76
     1
 77
     6
 78
     2
 67
     7
 79
     5
170
     0
171
     0
290
     0
174
     0
 93
       13
 44
0.0
173
     0
291
     1
 45
0.0
1001
ACAD
1000
AcDbSavedByObjectVersion
1070
     0
  0
VISUALSTYLE
  5
A6C9
102
{ACAD_XDICTIONARY
360
A729
102
}
102
{ACAD_REACTORS
330
A6C1
102
}
330
A6C1
100
AcDbVisualStyle
  2
Hidden
 70
     6
 71
     1
 72
     2
 73
     2
 90
        0
 40
-0.6
 41
-30.0
 62
     5
 63
     7
 74
     2
 91
        2
 64
     7
 65
   257
 75
     2
175
     1
 42
40.0
 92
        0
 66
   257
 43
1.0
 76
     1
 77
     6
 78
     2
 67
     7
 79
     3
170
     0
171
     0
290
     0
174
     0
 93
        1
 44
0.0
173
     0
291
     0
 45
0.0
1001
ACAD
1000
AcDbSavedByObjectVersion
1070
     0
  0
VISUALSTYLE
  5
A6D7
102
{ACAD_XDICTIONARY
360
A745
102
}
102
{ACAD_REACTORS
330
A6C1
102
}
330
A6C1
100
AcDbVisualStyle
  2
JitterOff
 70
    20
 71
     2
 72
     2
 73
     0
 90
        0
 40
-0.6
 41
-30.0
 62
     5
 63
     7
 74
     1
 91
        4
 64
     7
 65
   257
 75
     1
175
     1
 42
1.0
 92
       10
 66
     7
 43
1.0
 76
     1
 77
     6
 78
     2
 67
     7
 79
     5
170
     0
171
     0
290
     0
174
     0
 93
        1
 44
0.0
173
     0
291
     1
 45
0.0
1001
ACAD
1000
AcDbSavedByObjectVersion
1070
     0
  0
VISUALSTYLE
  5
A6CF
102
{ACAD_XDICTIONARY
360
A735
102
}
102
{ACAD_REACTORS
330
A6C1
102
}
330
A6C1
100
AcDbVisualStyle
  2
Linepattern
 70
    14
 71
     2
 72
     2
 73
     0
 90
        0
 40
-0.6
 41
-30.0
 62
     5
 63
     7
 74
     1
 91
        4
 64
     7
 65
   257
 75
     7
175
     7
 42
1.0
 92
        8
 66
     7
 43
1.0
 76
     1
 77
     6
 78
     2
 67
     7
 79
     5
170
     0
171
     0
290
     0
174
     0
 93
        1
 44
0.0
173
     0
291
     1
 45
0.0
1001
ACAD
1000
AcDbSavedByObjectVersion
1070
     0
  0
VISUALSTYLE
  5
A6D8
102
{ACAD_XDICTIONARY
360
A747
102
}
102
{ACAD_REACTORS
330
A6C1
102
}
330
A6C1
100
AcDbVisualStyle
  2
OverhangOff
 70
    21
 71
     2
 72
     2
 73
     0
 90
        0
 40
-0.6
 41
-30.0
 62
     5
 63
     7
 74
     1
 91
        4
 64
     7
 65
   257
 75
     1
175
     1
 42
1.0
 92
        9
 66
     7
 43
1.0
 76
     1
 77
     6
 78
     2
 67
     7
 79
     5
170
     0
171
     0
290
     0
174
     0
 93
        1
 44
0.0
173
     0
291
     1
 45
0.0
1001
ACAD
1000
AcDbSavedByObjectVersion
1070
     0
  0
VISUALSTYLE
  5
A6CB
102
{ACAD_XDICTIONARY
360
A72D
102
}
102
{ACAD_REACTORS
330
A6C1
102
}
330
A6C1
100
AcDbVisualStyle
  2
Realistic
 70
     8
 71
     2
 72
     3
 73
     0
 90
        2
 40
-0.6
 41
30.0
 62
     5
 63
     7
 74
     0
 91
        0
 64
     7
 65
   257
 75
     1
175
     1
 42
1.0
 92
        8
 66
   257
 43
1.0
 76
     1
 77
     6
 78
     2
 67
     7
 79
     3
170
     0
171
     0
290
     0
174
     0
 93
       13
 44
0.0
173
     0
291
     0
 45
0.0
1001
ACAD
1000
AcDbSavedByObjectVersion
1070
     0
  0
VISUALSTYLE
  5
A6D6
102
{ACAD_XDICTIONARY
360
A743
102
}
102
{ACAD_REACTORS
330
A6C1
102
}
330
A6C1
100
AcDbVisualStyle
  2
Shaded
 70
    27
 71
     2
 72
     2
 73
     1
 90
        2
 40
-0.6
 41
30.0
 62
     5
 63
     7
 74
     0
 91
        4
 64
     7
 65
   257
 75
     1
175
     1
 42
1.0
 92
        8
 66
   257
 43
1.0
 76
     1
 77
     6
 78
     2
 67
     8
 79
     3
170
     0
171
     0
290
     0
174
     0
 93
        5
 44
0.0
173
     0
291
     0
 45
0.0
1001
ACAD
1000
AcDbSavedByObjectVersion
1070
     0
  0
VISUALSTYLE
  5
A6D5
102
{ACAD_XDICTIONARY
360
A741
102
}
102
{ACAD_REACTORS
330
A6C1
102
}
330
A6C1
100
AcDbVisualStyle
  2
Shaded with edges
 70
    26
 71
     2
 72
     2
 73
     1
 90
        2
 40
-0.6
 41
30.0
 62
     5
 63
     7
 74
     1
 91
       10
 64
     7
 65
   257
 75
     2
175
     1
 42
1.0
 92
        8
 66
   257
 43
1.0
 76
     1
 77
     6
 78
     2
 67
     7
 79
     3
170
     0
171
     0
290
     0
174
     0
 93
        5
 44
0.0
173
     0
291
     0
 45
0.0
1001
ACAD
1000
AcDbSavedByObjectVersion
1070
     0
  0
VISUALSTYLE
  5
A6D2
102
{ACAD_XDICTIONARY
360
A73B
102
}
102
{ACAD_REACTORS
330
A6C1
102
}
330
A6C1
100
AcDbVisualStyle
  2
Shades of Gray
 70
    23
 71
     2
 72
     2
 73
     3
 90
        0
 40
-0.6
 41
-30.0
 62
     5
 63
     7
 74
     2
 91
        2
 64
     7
 65
     7
 75
     1
175
     1
 42
40.0
 92
        8
 66
     7
 43
1.0
 76
     1
 77
     6
 78
     2
 67
     7
 79
     3
170
     0
171
     0
290
     0
174
     0
 93
        1
 44
0.0
173
     0
291
     0
 45
0.0
1001
ACAD
1000
AcDbSavedByObjectVersion
1070
     0
  0
VISUALSTYLE
  5
A6D3
102
{ACAD_XDICTIONARY
360
A73D
102
}
102
{ACAD_REACTORS
330
A6C1
102
}
330
A6C1
100
AcDbVisualStyle
  2
Sketchy
 70
    24
 71
     1
 72
     2
 73
     2
 90
        0
 40
-0.6
 41
-30.0
 62
     5
 63
     7
 74
     2
 91
        2
 64
     7
 65
     7
 75
     1
175
     1
 42
40.0
 92
       11
 66
     7
 43
1.0
 76
     1
 77
     6
 78
     2
 67
     7
 79
     6
170
     0
171
     0
290
     0
174
     0
 93
        1
 44
0.0
173
     0
291
     0
 45
0.0
1001
ACAD
1000
AcDbSavedByObjectVersion
1070
     0
  0
VISUALSTYLE
  5
A6CE
102
{ACAD_XDICTIONARY
360
A733
102
}
102
{ACAD_REACTORS
330
A6C1
102
}
330
A6C1
100
AcDbVisualStyle
  2
Thicken
 70
    13
 71
     2
 72
     2
 73
     0
 90
        0
 40
-0.6
 41
-30.0
 62
     5
 63
     7
 74
     1
 91
        4
 64
     7
 65
   257
 75
     1
175
     1
 42
1.0
 92
       12
 66
     7
 43
1.0
 76
     1
 77
     6
 78
     2
 67
     7
 79
     5
170
     0
171
     0
290
     0
174
     0
 93
        1
 44
0.0
173
     0
291
     1
 45
0.0
1001
ACAD
1000
AcDbSavedByObjectVersion
1070
     0
  0
VISUALSTYLE
  5
A6C8
102
{ACAD_XDICTIONARY
360
A727
102
}
102
{ACAD_REACTORS
330
A6C1
102
}
330
A6C1
100
AcDbVisualStyle
  2
Wireframe
 70
     5
 71
     0
 72
     2
 73
     0
 90
        0
 40
-0.6
 41
-30.0
 62
     5
 63
     7
 74
     1
 91
        4
 64
     7
 65
   257
 75
     1
175
     1
 42
1.0
 92
        0
 66
   257
 43
1.0
 76
     1
 77
     6
 78
     2
 67
     7
 79
     3
170
     0
171
     0
290
     0
174
     0
 93
        1
 44
0.0
173
     0
291
     0
 45
0.0
1001
ACAD
1000
AcDbSavedByObjectVersion
1070
     0
  0
VISUALSTYLE
  5
A6D4
102
{ACAD_XDICTIONARY
360
A73F
102
}
102
{ACAD_REACTORS
330
A6C1
102
}
330
A6C1
100
AcDbVisualStyle
  2
X-Ray
 70
    25
 71
     2
 72
     2
 73
     1
 90
        1
 40
0.5
 41
-30.0
 62
     5
 63
     7
 74
     1
 91
        0
 64
     7
 65
   257
 75
     1
175
     1
 42
1.0
 92
        8
 66
     7
 43
1.0
 76
     1
 77
     6
 78
     2
 67
     7
 79
     3
170
     0
171
     0
290
     0
174
     0
 93
       13
 44
0.0
173
     0
291
     0
 45
0.0
1001
ACAD
1000
AcDbSavedByObjectVersion
1070
     0
  0
DICTIONARYVAR
  5
A70E
102
{ACAD_REACTORS
330
A709
102
}
330
A709
100
DictionaryVariables
280
     0
  1
1:1
  0
DICTIONARYVAR
  5
A70B
102
{ACAD_REACTORS
330
A709
102
}
330
A709
100
DictionaryVariables
280
     0
  1
STANDARD
  0
DICTIONARYVAR
  5
A70A
102
{ACAD_REACTORS
330
A709
102
}
330
A709
100
DictionaryVariables
280
     0
  1
STANDARD
  0
DICTIONARYVAR
  5
A70C
102
{ACAD_REACTORS
330
A709
102
}
330
A709
100
DictionaryVariables
280
     0
  1
Imperial24
  0
DICTIONARYVAR
  5
A70D
102
{ACAD_REACTORS
330
A709
102
}
330
A709
100
DictionaryVariables
280
     0
  1
Imperial24
  0
DICTIONARYVAR
  5
A711
102
{ACAD_REACTORS
330
A709
102
}
330
A709
100
DictionaryVariables
280
     0
  1
1
  0
DICTIONARYVAR
  5
A710
102
{ACAD_REACTORS
330
A709
102
}
330
A709
100
DictionaryVariables
280
     0
  1
0
  0
DICTIONARYVAR
  5
A70F
102
{ACAD_REACTORS
330
A709
102
}
330
A709
100
DictionaryVariables
280
     0
  1
127
  0
DICTIONARYVAR
  5
A712
102
{ACAD_REACTORS
330
A709
102
}
330
A709
100
DictionaryVariables
280
     0
  1
2
  0
DICTIONARY
  5
A74F
330
A6F4
100
AcDbDictionary
280
     1
281
     1
  3
ACAD_XREC_ROUNDTRIP
360
A750
  0
DICTIONARY
  5
A751
330
A6F5
100
AcDbDictionary
280
     1
281
     1
  3
ACAD_XREC_ROUNDTRIP
360
A752
  0
DICTIONARY
  5
A753
330
A6F6
100
AcDbDictionary
280
     1
281
     1
  3
ACAD_XREC_ROUNDTRIP
360
A754
  0
DICTIONARY
  5
A6B2
330
A6B1
100
AcDbDictionary
280
     1
281
     1
  3
ACAD_XREC_ROUNDTRIP
360
A719
  3
BUMPTILE
360
A6B4
  3
DIFFUSETILE
360
A6B3
  3
OPACITYTILE
360
A6B7
  3
REFLECTIONTILE
360
A6B6
  3
REFRACTIONTILE
360
A6B8
  3
SPECULARTILE
360
A6B5
  0
DICTIONARY
  5
A6AA
330
A6A9
100
AcDbDictionary
280
     1
281
     1
  3
ACAD_XREC_ROUNDTRIP
360
A718
  3
BUMPTILE
360
A6AC
  3
DIFFUSETILE
360
A6AB
  3
OPACITYTILE
360
A6AF
  3
REFLECTIONTILE
360
A6AE
  3
REFRACTIONTILE
360
A6B0
  3
SPECULARTILE
360
A6AD
  0
DICTIONARY
  5
A6BA
330
A6B9
100
AcDbDictionary
280
     1
281
     1
  3
ACAD_XREC_ROUNDTRIP
360
A71A
  3
BUMPTILE
360
A6BC
  3
DIFFUSETILE
360
A6BB
  3
OPACITYTILE
360
A6BF
  3
REFLECTIONTILE
360
A6BE
  3
REFRACTIONTILE
360
A6C0
  3
SPECULARTILE
360
A6BD
  0
DICTIONARY
  5
A74D
330
A6F2
100
AcDbDictionary
280
     1
281
     1
  3
ACAD_XREC_ROUNDTRIP
360
A74E
  0
DICTIONARY
  5
A714
330
A6DC
100
AcDbDictionary
280
     1
281
     1
  3
ACAD_ROUNDTRIP_2008_TABLESTYLE_CELLSTYLEMAP
360
A715
  3
ACAD_XREC_ROUNDTRIP
360
A74B
  0
DICTIONARY
  5
A725
330
A6C7
100
AcDbDictionary
280
     1
281
     1
  3
ACAD_XREC_ROUNDTRIP
360
A726
  0
DICTIONARY
  5
A723
330
A6C6
100
AcDbDictionary
280
     1
281
     1
  3
ACAD_XREC_ROUNDTRIP
360
A724
  0
DICTIONARY
  5
A731
330
A6CD
100
AcDbDictionary
280
     1
281
     1
  3
ACAD_XREC_ROUNDTRIP
360
A732
  0
DICTIONARY
  5
A739
330
A6D1
100
AcDbDictionary
280
     1
281
     1
  3
ACAD_XREC_ROUNDTRIP
360
A73A
  0
DICTIONARY
  5
A72B
330
A6CA
100
AcDbDictionary
280
     1
281
     1
  3
ACAD_XREC_ROUNDTRIP
360
A72C
  0
DICTIONARY
  5
A72F
330
A6CC
100
AcDbDictionary
280
     1
281
     1
  3
ACAD_XREC_ROUNDTRIP
360
A730
  0
DICTIONARY
  5
A749
330
A6D9
100
AcDbDictionary
280
     1
281
     1
  3
ACAD_XREC_ROUNDTRIP
360
A74A
  0
DICTIONARY
  5
A737
330
A6D0
100
AcDbDictionary
280
     1
281
     1
  3
ACAD_XREC_ROUNDTRIP
360
A738
  0
DICTIONARY
  5
A71B
330
A6C2
100
AcDbDictionary
280
     1
281
     1
  3
ACAD_XREC_ROUNDTRIP
360
A71C
  0
DICTIONARY
  5
A71D
330
A6C3
100
AcDbDictionary
280
     1
281
     1
  3
ACAD_XREC_ROUNDTRIP
360
A71E
  0
DICTIONARY
  5
A71F
330
A6C4
100
AcDbDictionary
280
     1
281
     1
  3
ACAD_XREC_ROUNDTRIP
360
A720
  0
DICTIONARY
  5
A721
330
A6C5
100
AcDbDictionary
280
     1
281
     1
  3
ACAD_XREC_ROUNDTRIP
360
A722
  0
DICTIONARY
  5
A729
330
A6C9
100
AcDbDictionary
280
     1
281
     1
  3
ACAD_XREC_ROUNDTRIP
360
A72A
  0
DICTIONARY
  5
A745
330
A6D7
100
AcDbDictionary
280
     1
281
     1
  3
ACAD_XREC_ROUNDTRIP
360
A746
  0
DICTIONARY
  5
A735
330
A6CF
100
AcDbDictionary
280
     1
281
     1
  3
ACAD_XREC_ROUNDTRIP
360
A736
  0
DICTIONARY
  5
A747
330
A6D8
100
AcDbDictionary
280
     1
281
     1
  3
ACAD_XREC_ROUNDTRIP
360
A748
  0
DICTIONARY
  5
A72D
330
A6CB
100
AcDbDictionary
280
     1
281
     1
  3
ACAD_XREC_ROUNDTRIP
360
A72E
  0
DICTIONARY
  5
A743
330
A6D6
100
AcDbDictionary
280
     1
281
     1
  3
ACAD_XREC_ROUNDTRIP
360
A744
  0
DICTIONARY
  5
A741
330
A6D5
100
AcDbDictionary
280
     1
281
     1
  3
ACAD_XREC_ROUNDTRIP
360
A742
  0
DICTIONARY
  5
A73B
330
A6D2
100
AcDbDictionary
280
     1
281
     1
  3
ACAD_XREC_ROUNDTRIP
360
A73C
  0
DICTIONARY
  5
A73D
330
A6D3
100
AcDbDictionary
280
     1
281
     1
  3
ACAD_XREC_ROUNDTRIP
360
A73E
  0
DICTIONARY
  5
A733
330
A6CE
100
AcDbDictionary
280
     1
281
     1
  3
ACAD_XREC_ROUNDTRIP
360
A734
  0
DICTIONARY
  5
A727
330
A6C8
100
AcDbDictionary
280
     1
281
     1
  3
ACAD_XREC_ROUNDTRIP
360
A728
  0
DICTIONARY
  5
A73F
330
A6D4
100
AcDbDictionary
280
     1
281
     1
  3
ACAD_XREC_ROUNDTRIP
360
A740
  0
XRECORD
  5
A750
102
{ACAD_REACTORS
330
A74F
102
}
330
A74F
100
AcDbXrecord
280
     1
102
DISPLAYNAME
  1
Imperial24
102
FLAGS
 90
        0
  0
XRECORD
  5
A752
102
{ACAD_REACTORS
330
A751
102
}
330
A751
100
AcDbXrecord
280
     1
102
SHADEPLOT
 70
     0
102
SHADEPLOTRESLEVEL
 70
     2
102
SHADEPLOTCUSTOMDPI
 70
   300
  0
XRECORD
  5
A754
102
{ACAD_REACTORS
330
A753
102
}
330
A753
100
AcDbXrecord
280
     1
102
SHADEPLOT
 70
     0
102
SHADEPLOTRESLEVEL
 70
     2
102
SHADEPLOTCUSTOMDPI
 70
   300
  0
XRECORD
  5
A719
102
{ACAD_REACTORS
330
A6B2
102
}
330
A6B2
100
AcDbXrecord
280
     1
102
MATERIAL
148
0.0
149
0.0
149
0.0
 93
        0
 94
      127
282
     0
 72
     0
 77
     0
171
     0
175
     0
179
     0
273
     0
  0
XRECORD
  5
A6B4
102
{ACAD_REACTORS
330
A6B2
102
}
330
A6B2
100
AcDbXrecord
280
     1
270
     1
271
     1
  0
XRECORD
  5
A6B3
102
{ACAD_REACTORS
330
A6B2
102
}
330
A6B2
100
AcDbXrecord
280
     1
270
     1
271
     1
  0
XRECORD
  5
A6B7
102
{ACAD_REACTORS
330
A6B2
102
}
330
A6B2
100
AcDbXrecord
280
     1
270
     1
271
     1
  0
XRECORD
  5
A6B6
102
{ACAD_REACTORS
330
A6B2
102
}
330
A6B2
100
AcDbXrecord
280
     1
270
     1
271
     1
  0
XRECORD
  5
A6B8
102
{ACAD_REACTORS
330
A6B2
102
}
330
A6B2
100
AcDbXrecord
280
     1
270
     1
271
     1
  0
XRECORD
  5
A6B5
102
{ACAD_REACTORS
330
A6B2
102
}
330
A6B2
100
AcDbXrecord
280
     1
270
     1
271
     1
  0
XRECORD
  5
A718
102
{ACAD_REACTORS
330
A6AA
102
}
330
A6AA
100
AcDbXrecord
280
     1
102
MATERIAL
148
0.0
149
0.0
149
0.0
 93
        0
 94
      127
282
     0
 72
     0
 77
     0
171
     0
175
     0
179
     0
273
     0
  0
XRECORD
  5
A6AC
102
{ACAD_REACTORS
330
A6AA
102
}
330
A6AA
100
AcDbXrecord
280
     1
270
     1
271
     1
  0
XRECORD
  5
A6AB
102
{ACAD_REACTORS
330
A6AA
102
}
330
A6AA
100
AcDbXrecord
280
     1
270
     1
271
     1
  0
XRECORD
  5
A6AF
102
{ACAD_REACTORS
330
A6AA
102
}
330
A6AA
100
AcDbXrecord
280
     1
270
     1
271
     1
  0
XRECORD
  5
A6AE
102
{ACAD_REACTORS
330
A6AA
102
}
330
A6AA
100
AcDbXrecord
280
     1
270
     1
271
     1
  0
XRECORD
  5
A6B0
102
{ACAD_REACTORS
330
A6AA
102
}
330
A6AA
100
AcDbXrecord
280
     1
270
     1
271
     1
  0
XRECORD
  5
A6AD
102
{ACAD_REACTORS
330
A6AA
102
}
330
A6AA
100
AcDbXrecord
280
     1
270
     1
271
     1
  0
XRECORD
  5
A71A
102
{ACAD_REACTORS
330
A6BA
102
}
330
A6BA
100
AcDbXrecord
280
     1
102
MATERIAL
148
0.0
149
0.0
149
0.0
 93
        0
 94
      127
282
     0
 72
     0
 77
     0
171
     0
175
     0
179
     0
273
     0
  0
XRECORD
  5
A6BC
102
{ACAD_REACTORS
330
A6BA
102
}
330
A6BA
100
AcDbXrecord
280
     1
270
     1
271
     1
  0
XRECORD
  5
A6BB
102
{ACAD_REACTORS
330
A6BA
102
}
330
A6BA
100
AcDbXrecord
280
     1
270
     1
271
     1
  0
XRECORD
  5
A6BF
102
{ACAD_REACTORS
330
A6BA
102
}
330
A6BA
100
AcDbXrecord
280
     1
270
     1
271
     1
  0
XRECORD
  5
A6BE
102
{ACAD_REACTORS
330
A6BA
102
}
330
A6BA
100
AcDbXrecord
280
     1
270
     1
271
     1
  0
XRECORD
  5
A6C0
102
{ACAD_REACTORS
330
A6BA
102
}
330
A6BA
100
AcDbXrecord
280
     1
270
     1
271
     1
  0
XRECORD
  5
A6BD
102
{ACAD_REACTORS
330
A6BA
102
}
330
A6BA
100
AcDbXrecord
280
     1
270
     1
271
     1
  0
XRECORD
  5
A74E
102
{ACAD_REACTORS
330
A74D
102
}
330
A74D
100
AcDbXrecord
280
     1
102
DISPLAYNAME
  1
Imperial24
102
FLAGS
 90
        0
  0
CELLSTYLEMAP
  5
A715
102
{ACAD_REACTORS
330
A714
102
}
330
A714
100
AcDbCellStyleMap
 90
        3
300
CELLSTYLE
  1
TABLEFORMAT_BEGIN
 90
        5
170
     1
 91
        0
 92
    32768
 62
   257
 93
        1
300
CONTENTFORMAT
  1
CONTENTFORMAT_BEGIN
 90
        0
 91
        0
 92
      512
 93
        0
300

 40
0.0
140
1.0
 94
        5
 62
     0
340
A181
144
0.25
309
CONTENTFORMAT_END
171
     0
 94
        0
309
TABLEFORMAT_END
  1
CELLSTYLE_BEGIN
 90
        1
 91
        1
300
_TITLE
309
CELLSTYLE_END
300
CELLSTYLE
  1
TABLEFORMAT_BEGIN
 90
        5
170
     1
 91
        0
 92
        0
 62
   257
 93
        1
300
CONTENTFORMAT
  1
CONTENTFORMAT_BEGIN
 90
        0
 91
        0
 92
      512
 93
        0
300

 40
0.0
140
1.0
 94
        5
 62
     0
340
A181
144
0.18
309
CONTENTFORMAT_END
171
     0
 94
        0
309
TABLEFORMAT_END
  1
CELLSTYLE_BEGIN
 90
        2
 91
        1
300
_HEADER
309
CELLSTYLE_END
300
CELLSTYLE
  1
TABLEFORMAT_BEGIN
 90
        5
170
     1
 91
        0
 92
        0
 62
   257
 93
        1
300
CONTENTFORMAT
  1
CONTENTFORMAT_BEGIN
 90
        0
 91
        0
 92
      512
 93
        0
300

 40
0.0
140
1.0
 94
        2
 62
     0
340
A181
144
0.18
309
CONTENTFORMAT_END
171
     0
 94
        0
309
TABLEFORMAT_END
  1
CELLSTYLE_BEGIN
 90
        3
 91
        2
300
_DATA
309
CELLSTYLE_END
  0
XRECORD
  5
A74B
102
{ACAD_REACTORS
330
A714
102
}
330
A714
100
AcDbXrecord
280
     1
102
ACAD_ROUNDTRIP_PRE2007_TABLESTYLE
 90
      512
 91
        0
  1

 92
      512
 93
        0
  2

 94
      512
 95
        0
  3

  0
XRECORD
  5
A726
102
{ACAD_REACTORS
330
A725
102
}
330
A725
100
AcDbXrecord
280
     1
102
RTVSPost2010Prop28
280
     1
102
RTVSPost2010PropOp28
 70
     1
102
RTVSPost2010Prop29
280
     1
102
RTVSPost2010PropOp29
 70
     1
102
RTVSPost2010Prop30
280
     0
102
RTVSPost2010PropOp30
 70
     1
102
RTVSPost2010Prop31
280
     0
102
RTVSPost2010PropOp31
 70
     1
102
RTVSPost2010Prop32
280
     0
102
RTVSPost2010PropOp32
 70
     1
102
RTVSPost2010Prop33
280
     0
102
RTVSPost2010PropOp33
 70
     1
102
RTVSPost2010Prop34
280
     0
102
RTVSPost2010PropOp34
 70
     1
102
RTVSPost2010Prop35
280
     0
102
RTVSPost2010PropOp35
 70
     1
102
RTVSPost2010Prop36
280
     0
102
RTVSPost2010PropOp36
 70
     1
102
RTVSPost2010Prop37
 90
       50
102
RTVSPost2010PropOp37
 70
     1
102
RTVSPost2010Prop38
140
0.0
102
RTVSPost2010PropOp38
 70
     1
102
RTVSPost2010Prop39
140
1.0
102
RTVSPost2010PropOp39
 70
     1
102
RTVSPost2010Prop40
 90
        0
102
RTVSPost2010PropOp40
 70
     1
102
RTVSPost2010Prop41ColorIndex
 90
       18
102
RTVSPost2010Prop41ColorRGB
 90
        0
102
RTVSPost2010PropOp41
 70
     1
102
RTVSPost2010Prop42
 90
       50
102
RTVSPost2010PropOp42
 70
     1
102
RTVSPost2010Prop43
 90
        3
102
RTVSPost2010PropOp43
 70
     1
102
RTVSPost2010Prop44ColorIndex
 90
        5
102
RTVSPost2010Prop44ColorRGB
 90
      255
102
RTVSPost2010PropOp44
 70
     1
102
RTVSPost2010Prop45
280
     0
102
RTVSPost2010PropOp45
 70
     1
102
RTVSPost2010Prop46
 90
       50
102
RTVSPost2010PropOp46
 70
     1
102
RTVSPost2010Prop47
 90
       50
102
RTVSPost2010PropOp47
 70
     1
102
RTVSPost2010Prop48
 90
       50
102
RTVSPost2010PropOp48
 70
     1
102
RTVSPost2010Prop49
280
     0
102
RTVSPost2010PropOp49
 70
     1
102
RTVSPost2010Prop50
 90
       50
102
RTVSPost2010PropOp50
 70
     1
102
RTVSPost2010Prop51ColorIndex
 90
      256
102
RTVSPost2010Prop51ColorRGB
 90
-16777216
102
RTVSPost2010PropOp51
 70
     0
102
RTVSPost2010Prop52
140
1.0
102
RTVSPost2010PropOp52
 70
     0
102
RTVSPost2010Prop53
 90
        2
102
RTVSPost2010PropOp53
 70
     1
102
RTVSPost2010Prop54
  1
strokes_ogs.tif
102
RTVSPost2010PropOp54
 70
     1
102
RTVSPost2010Prop55
280
     0
102
RTVSPost2010PropOp55
 70
     1
102
RTVSPost2010Prop56
140
1.0
102
RTVSPost2010PropOp56
 70
     1
102
RTVSPost2010Prop57
140
1.0
102
RTVSPost2010PropOp57
 70
     1
102
RTVSPropertyOp0
 70
     1
102
RTVSPropertyOp1
 70
     1
102
RTVSPropertyOp2
 70
     1
102
RTVSPropertyOp3
 70
     1
102
RTVSPropertyOp4
 70
     1
102
RTVSPropertyOp5
 70
     1
102
RTVSPropertyOp6
 70
     1
102
RTVSPropertyOp7
 70
     1
102
RTVSPropertyOp8
 70
     1
102
RTVSPropertyOp9
 70
     1
102
RTVSPropertyOp10
 70
     1
102
RTVSPropertyOp11
 70
     1
102
RTVSPropertyOp12
 70
     1
102
RTVSPropertyOp13
 70
     1
102
RTVSPropertyOp14
 70
     1
102
RTVSPropertyOp15
 70
     1
102
RTVSPropertyOp16
 70
     1
102
RTVSPropertyOp17
 70
     1
102
RTVSPropertyOp18
 70
     1
102
RTVSPropertyOp19
 70
     1
102
RTVSPropertyOp20
 70
     1
102
RTVSPropertyOp21
 70
     1
102
RTVSPropertyOp22
 70
     1
102
RTVSPropertyOp23
 70
     1
102
RTVSPropertyOp24
 70
     1
102
RTVSPropertyOp25
 70
     1
102
RTVSPropertyOp26
 70
     1
102
RTVSPropertyOp27
 70
     1
102
RTVSPropertyOp28
 70
     1
102
RTVSPropertyOp29
 70
     1
102
RTVSPropertyOp30
 70
     1
102
RTVSPropertyOp31
 70
     1
102
RTVSPropertyOp32
 70
     1
102
RTVSPropertyOp33
 70
     1
102
RTVSPropertyOp34
 70
     1
102
RTVSPropertyOp35
 70
     1
102
RTVSPropertyOp36
 70
     1
102
RTVSPropertyOp37
 70
     1
102
RTVSPropertyOp38
 70
     1
102
RTVSPropertyOp39
 70
     1
102
RTVSPropertyOp40
 70
     1
102
RTVSPropertyOp41
 70
     1
102
RTVSPropertyOp42
 70
     1
102
RTVSPropertyOp43
 70
     1
102
RTVSPropertyOp44
 70
     1
102
RTVSPropertyOp45
 70
     1
102
RTVSPropertyOp46
 70
     1
102
RTVSPropertyOp47
 70
     1
102
RTVSPropertyOp48
 70
     1
102
RTVSPropertyOp49
 70
     1
102
RTVSPropertyOp50
 70
     1
102
RTVSPropertyOp51
 70
     0
102
RTVSPropertyOp52
 70
     0
102
RTVSPropertyOp53
 70
     1
102
RTVSPropertyOp54
 70
     1
102
RTVSPropertyOp55
 70
     1
102
RTVSPropertyOp56
 70
     1
102
RTVSPropertyOp57
 70
     1
102
RTVSPropertyOp58
 70
     1
102
RTVSPropertyOp59
 70
     1
102
RTVSPropertyOp60
 70
     1
102
RTVSPropertyOp61
 70
     1
102
RTVSPropertyOp62
 70
     1
  0
XRECORD
  5
A724
102
{ACAD_REACTORS
330
A723
102
}
330
A723
100
AcDbXrecord
280
     1
102
RTVSPost2010Prop28
280
     0
102
RTVSPost2010PropOp28
 70
     1
102
RTVSPost2010Prop29
280
     1
102
RTVSPost2010PropOp29
 70
     1
102
RTVSPost2010Prop30
280
     1
102
RTVSPost2010PropOp30
 70
     1
102
RTVSPost2010Prop31
280
     0
102
RTVSPost2010PropOp31
 70
     1
102
RTVSPost2010Prop32
280
     0
102
RTVSPost2010PropOp32
 70
     1
102
RTVSPost2010Prop33
280
     0
102
RTVSPost2010PropOp33
 70
     1
102
RTVSPost2010Prop34
280
     0
102
RTVSPost2010PropOp34
 70
     1
102
RTVSPost2010Prop35
280
     0
102
RTVSPost2010PropOp35
 70
     1
102
RTVSPost2010Prop36
280
     0
102
RTVSPost2010PropOp36
 70
     1
102
RTVSPost2010Prop37
 90
       50
102
RTVSPost2010PropOp37
 70
     1
102
RTVSPost2010Prop38
140
0.0
102
RTVSPost2010PropOp38
 70
     1
102
RTVSPost2010Prop39
140
1.0
102
RTVSPost2010PropOp39
 70
     1
102
RTVSPost2010Prop40
 90
        0
102
RTVSPost2010PropOp40
 70
     1
102
RTVSPost2010Prop41ColorIndex
 90
       18
102
RTVSPost2010Prop41ColorRGB
 90
        0
102
RTVSPost2010PropOp41
 70
     1
102
RTVSPost2010Prop42
 90
       50
102
RTVSPost2010PropOp42
 70
     1
102
RTVSPost2010Prop43
 90
        3
102
RTVSPost2010PropOp43
 70
     1
102
RTVSPost2010Prop44ColorIndex
 90
        5
102
RTVSPost2010Prop44ColorRGB
 90
      255
102
RTVSPost2010PropOp44
 70
     1
102
RTVSPost2010Prop45
280
     0
102
RTVSPost2010PropOp45
 70
     1
102
RTVSPost2010Prop46
 90
       50
102
RTVSPost2010PropOp46
 70
     1
102
RTVSPost2010Prop47
 90
       50
102
RTVSPost2010PropOp47
 70
     1
102
RTVSPost2010Prop48
 90
       50
102
RTVSPost2010PropOp48
 70
     1
102
RTVSPost2010Prop49
280
     0
102
RTVSPost2010PropOp49
 70
     1
102
RTVSPost2010Prop50
 90
       50
102
RTVSPost2010PropOp50
 70
     1
102
RTVSPost2010Prop51ColorIndex
 90
      256
102
RTVSPost2010Prop51ColorRGB
 90
-16777216
102
RTVSPost2010PropOp51
 70
     0
102
RTVSPost2010Prop52
140
1.0
102
RTVSPost2010PropOp52
 70
     0
102
RTVSPost2010Prop53
 90
        2
102
RTVSPost2010PropOp53
 70
     1
102
RTVSPost2010Prop54
  1
strokes_ogs.tif
102
RTVSPost2010PropOp54
 70
     1
102
RTVSPost2010Prop55
280
     0
102
RTVSPost2010PropOp55
 70
     1
102
RTVSPost2010Prop56
140
1.0
102
RTVSPost2010PropOp56
 70
     1
102
RTVSPost2010Prop57
140
1.0
102
RTVSPost2010PropOp57
 70
     1
102
RTVSPropertyOp0
 70
     1
102
RTVSPropertyOp1
 70
     1
102
RTVSPropertyOp2
 70
     1
102
RTVSPropertyOp3
 70
     1
102
RTVSPropertyOp4
 70
     1
102
RTVSPropertyOp5
 70
     1
102
RTVSPropertyOp6
 70
     1
102
RTVSPropertyOp7
 70
     1
102
RTVSPropertyOp8
 70
     1
102
RTVSPropertyOp9
 70
     1
102
RTVSPropertyOp10
 70
     1
102
RTVSPropertyOp11
 70
     1
102
RTVSPropertyOp12
 70
     1
102
RTVSPropertyOp13
 70
     1
102
RTVSPropertyOp14
 70
     1
102
RTVSPropertyOp15
 70
     1
102
RTVSPropertyOp16
 70
     1
102
RTVSPropertyOp17
 70
     1
102
RTVSPropertyOp18
 70
     1
102
RTVSPropertyOp19
 70
     1
102
RTVSPropertyOp20
 70
     1
102
RTVSPropertyOp21
 70
     1
102
RTVSPropertyOp22
 70
     1
102
RTVSPropertyOp23
 70
     1
102
RTVSPropertyOp24
 70
     1
102
RTVSPropertyOp25
 70
     1
102
RTVSPropertyOp26
 70
     1
102
RTVSPropertyOp27
 70
     1
102
RTVSPropertyOp28
 70
     1
102
RTVSPropertyOp29
 70
     1
102
RTVSPropertyOp30
 70
     1
102
RTVSPropertyOp31
 70
     1
102
RTVSPropertyOp32
 70
     1
102
RTVSPropertyOp33
 70
     1
102
RTVSPropertyOp34
 70
     1
102
RTVSPropertyOp35
 70
     1
102
RTVSPropertyOp36
 70
     1
102
RTVSPropertyOp37
 70
     1
102
RTVSPropertyOp38
 70
     1
102
RTVSPropertyOp39
 70
     1
102
RTVSPropertyOp40
 70
     1
102
RTVSPropertyOp41
 70
     1
102
RTVSPropertyOp42
 70
     1
102
RTVSPropertyOp43
 70
     1
102
RTVSPropertyOp44
 70
     1
102
RTVSPropertyOp45
 70
     1
102
RTVSPropertyOp46
 70
     1
102
RTVSPropertyOp47
 70
     1
102
RTVSPropertyOp48
 70
     1
102
RTVSPropertyOp49
 70
     1
102
RTVSPropertyOp50
 70
     1
102
RTVSPropertyOp51
 70
     0
102
RTVSPropertyOp52
 70
     0
102
RTVSPropertyOp53
 70
     1
102
RTVSPropertyOp54
 70
     1
102
RTVSPropertyOp55
 70
     1
102
RTVSPropertyOp56
 70
     1
102
RTVSPropertyOp57
 70
     1
102
RTVSPropertyOp58
 70
     1
102
RTVSPropertyOp59
 70
     1
102
RTVSPropertyOp60
 70
     1
102
RTVSPropertyOp61
 70
     1
102
RTVSPropertyOp62
 70
     1
  0
XRECORD
  5
A732
102
{ACAD_REACTORS
330
A731
102
}
330
A731
100
AcDbXrecord
280
     1
102
RTVSPost2010Prop28
280
     0
102
RTVSPost2010PropOp28
 70
     1
102
RTVSPost2010Prop29
280
     1
102
RTVSPost2010PropOp29
 70
     1
102
RTVSPost2010Prop30
280
     1
102
RTVSPost2010PropOp30
 70
     1
102
RTVSPost2010Prop31
280
     0
102
RTVSPost2010PropOp31
 70
     1
102
RTVSPost2010Prop32
280
     0
102
RTVSPost2010PropOp32
 70
     1
102
RTVSPost2010Prop33
280
     0
102
RTVSPost2010PropOp33
 70
     1
102
RTVSPost2010Prop34
280
     0
102
RTVSPost2010PropOp34
 70
     1
102
RTVSPost2010Prop35
280
     0
102
RTVSPost2010PropOp35
 70
     1
102
RTVSPost2010Prop36
280
     0
102
RTVSPost2010PropOp36
 70
     1
102
RTVSPost2010Prop37
 90
       50
102
RTVSPost2010PropOp37
 70
     1
102
RTVSPost2010Prop38
140
0.0
102
RTVSPost2010PropOp38
 70
     1
102
RTVSPost2010Prop39
140
1.0
102
RTVSPost2010PropOp39
 70
     1
102
RTVSPost2010Prop40
 90
        0
102
RTVSPost2010PropOp40
 70
     1
102
RTVSPost2010Prop41ColorIndex
 90
       18
102
RTVSPost2010Prop41ColorRGB
 90
        0
102
RTVSPost2010PropOp41
 70
     1
102
RTVSPost2010Prop42
 90
       50
102
RTVSPost2010PropOp42
 70
     1
102
RTVSPost2010Prop43
 90
        3
102
RTVSPost2010PropOp43
 70
     1
102
RTVSPost2010Prop44ColorIndex
 90
        5
102
RTVSPost2010Prop44ColorRGB
 90
      255
102
RTVSPost2010PropOp44
 70
     1
102
RTVSPost2010Prop45
280
     0
102
RTVSPost2010PropOp45
 70
     1
102
RTVSPost2010Prop46
 90
       50
102
RTVSPost2010PropOp46
 70
     1
102
RTVSPost2010Prop47
 90
       50
102
RTVSPost2010PropOp47
 70
     1
102
RTVSPost2010Prop48
 90
       50
102
RTVSPost2010PropOp48
 70
     1
102
RTVSPost2010Prop49
280
     0
102
RTVSPost2010PropOp49
 70
     1
102
RTVSPost2010Prop50
 90
       50
102
RTVSPost2010PropOp50
 70
     1
102
RTVSPost2010Prop51ColorIndex
 90
      256
102
RTVSPost2010Prop51ColorRGB
 90
-16777216
102
RTVSPost2010PropOp51
 70
     0
102
RTVSPost2010Prop52
140
1.0
102
RTVSPost2010PropOp52
 70
     0
102
RTVSPost2010Prop53
 90
        2
102
RTVSPost2010PropOp53
 70
     1
102
RTVSPost2010Prop54
  1
strokes_ogs.tif
102
RTVSPost2010PropOp54
 70
     1
102
RTVSPost2010Prop55
280
     0
102
RTVSPost2010PropOp55
 70
     1
102
RTVSPost2010Prop56
140
1.0
102
RTVSPost2010PropOp56
 70
     1
102
RTVSPost2010Prop57
140
1.0
102
RTVSPost2010PropOp57
 70
     1
102
RTVSPropertyOp0
 70
     1
102
RTVSPropertyOp1
 70
     1
102
RTVSPropertyOp2
 70
     1
102
RTVSPropertyOp3
 70
     1
102
RTVSPropertyOp4
 70
     1
102
RTVSPropertyOp5
 70
     1
102
RTVSPropertyOp6
 70
     1
102
RTVSPropertyOp7
 70
     1
102
RTVSPropertyOp8
 70
     1
102
RTVSPropertyOp9
 70
     1
102
RTVSPropertyOp10
 70
     1
102
RTVSPropertyOp11
 70
     1
102
RTVSPropertyOp12
 70
     1
102
RTVSPropertyOp13
 70
     1
102
RTVSPropertyOp14
 70
     1
102
RTVSPropertyOp15
 70
     1
102
RTVSPropertyOp16
 70
     1
102
RTVSPropertyOp17
 70
     1
102
RTVSPropertyOp18
 70
     1
102
RTVSPropertyOp19
 70
     1
102
RTVSPropertyOp20
 70
     1
102
RTVSPropertyOp21
 70
     1
102
RTVSPropertyOp22
 70
     1
102
RTVSPropertyOp23
 70
     1
102
RTVSPropertyOp24
 70
     1
102
RTVSPropertyOp25
 70
     1
102
RTVSPropertyOp26
 70
     1
102
RTVSPropertyOp27
 70
     1
102
RTVSPropertyOp28
 70
     1
102
RTVSPropertyOp29
 70
     1
102
RTVSPropertyOp30
 70
     1
102
RTVSPropertyOp31
 70
     1
102
RTVSPropertyOp32
 70
     1
102
RTVSPropertyOp33
 70
     1
102
RTVSPropertyOp34
 70
     1
102
RTVSPropertyOp35
 70
     1
102
RTVSPropertyOp36
 70
     1
102
RTVSPropertyOp37
 70
     1
102
RTVSPropertyOp38
 70
     1
102
RTVSPropertyOp39
 70
     1
102
RTVSPropertyOp40
 70
     1
102
RTVSPropertyOp41
 70
     1
102
RTVSPropertyOp42
 70
     1
102
RTVSPropertyOp43
 70
     1
102
RTVSPropertyOp44
 70
     1
102
RTVSPropertyOp45
 70
     1
102
RTVSPropertyOp46
 70
     1
102
RTVSPropertyOp47
 70
     1
102
RTVSPropertyOp48
 70
     1
102
RTVSPropertyOp49
 70
     1
102
RTVSPropertyOp50
 70
     1
102
RTVSPropertyOp51
 70
     0
102
RTVSPropertyOp52
 70
     0
102
RTVSPropertyOp53
 70
     1
102
RTVSPropertyOp54
 70
     1
102
RTVSPropertyOp55
 70
     1
102
RTVSPropertyOp56
 70
     1
102
RTVSPropertyOp57
 70
     1
102
RTVSPropertyOp58
 70
     1
102
RTVSPropertyOp59
 70
     1
102
RTVSPropertyOp60
 70
     1
102
RTVSPropertyOp61
 70
     1
102
RTVSPropertyOp62
 70
     1
  0
XRECORD
  5
A73A
102
{ACAD_REACTORS
330
A739
102
}
330
A739
100
AcDbXrecord
280
     1
102
RTVSPost2010Prop28
280
     0
102
RTVSPost2010PropOp28
 70
     1
102
RTVSPost2010Prop29
280
     1
102
RTVSPost2010PropOp29
 70
     1
102
RTVSPost2010Prop30
280
     1
102
RTVSPost2010PropOp30
 70
     1
102
RTVSPost2010Prop31
280
     0
102
RTVSPost2010PropOp31
 70
     1
102
RTVSPost2010Prop32
280
     0
102
RTVSPost2010PropOp32
 70
     1
102
RTVSPost2010Prop33
280
     0
102
RTVSPost2010PropOp33
 70
     1
102
RTVSPost2010Prop34
280
     0
102
RTVSPost2010PropOp34
 70
     1
102
RTVSPost2010Prop35
280
     0
102
RTVSPost2010PropOp35
 70
     1
102
RTVSPost2010Prop36
280
     0
102
RTVSPost2010PropOp36
 70
     1
102
RTVSPost2010Prop37
 90
       50
102
RTVSPost2010PropOp37
 70
     1
102
RTVSPost2010Prop38
140
0.0
102
RTVSPost2010PropOp38
 70
     1
102
RTVSPost2010Prop39
140
1.0
102
RTVSPost2010PropOp39
 70
     1
102
RTVSPost2010Prop40
 90
        0
102
RTVSPost2010PropOp40
 70
     1
102
RTVSPost2010Prop41ColorIndex
 90
       18
102
RTVSPost2010Prop41ColorRGB
 90
        0
102
RTVSPost2010PropOp41
 70
     1
102
RTVSPost2010Prop42
 90
       50
102
RTVSPost2010PropOp42
 70
     1
102
RTVSPost2010Prop43
 90
        3
102
RTVSPost2010PropOp43
 70
     1
102
RTVSPost2010Prop44ColorIndex
 90
        5
102
RTVSPost2010Prop44ColorRGB
 90
      255
102
RTVSPost2010PropOp44
 70
     1
102
RTVSPost2010Prop45
280
     0
102
RTVSPost2010PropOp45
 70
     1
102
RTVSPost2010Prop46
 90
       50
102
RTVSPost2010PropOp46
 70
     1
102
RTVSPost2010Prop47
 90
       50
102
RTVSPost2010PropOp47
 70
     1
102
RTVSPost2010Prop48
 90
       50
102
RTVSPost2010PropOp48
 70
     1
102
RTVSPost2010Prop49
280
     0
102
RTVSPost2010PropOp49
 70
     1
102
RTVSPost2010Prop50
 90
       50
102
RTVSPost2010PropOp50
 70
     1
102
RTVSPost2010Prop51ColorIndex
 90
      256
102
RTVSPost2010Prop51ColorRGB
 90
-16777216
102
RTVSPost2010PropOp51
 70
     0
102
RTVSPost2010Prop52
140
1.0
102
RTVSPost2010PropOp52
 70
     0
102
RTVSPost2010Prop53
 90
        2
102
RTVSPost2010PropOp53
 70
     1
102
RTVSPost2010Prop54
  1
strokes_ogs.tif
102
RTVSPost2010PropOp54
 70
     1
102
RTVSPost2010Prop55
280
     0
102
RTVSPost2010PropOp55
 70
     1
102
RTVSPost2010Prop56
140
1.0
102
RTVSPost2010PropOp56
 70
     1
102
RTVSPost2010Prop57
140
1.0
102
RTVSPost2010PropOp57
 70
     1
102
RTVSPropertyOp0
 70
     1
102
RTVSPropertyOp1
 70
     1
102
RTVSPropertyOp2
 70
     1
102
RTVSPropertyOp3
 70
     1
102
RTVSPropertyOp4
 70
     1
102
RTVSPropertyOp5
 70
     1
102
RTVSPropertyOp6
 70
     1
102
RTVSPropertyOp7
 70
     1
102
RTVSPropertyOp8
 70
     1
102
RTVSPropertyOp9
 70
     1
102
RTVSPropertyOp10
 70
     1
102
RTVSPropertyOp11
 70
     1
102
RTVSPropertyOp12
 70
     1
102
RTVSPropertyOp13
 70
     1
102
RTVSPropertyOp14
 70
     1
102
RTVSPropertyOp15
 70
     1
102
RTVSPropertyOp16
 70
     1
102
RTVSPropertyOp17
 70
     1
102
RTVSPropertyOp18
 70
     1
102
RTVSPropertyOp19
 70
     1
102
RTVSPropertyOp20
 70
     1
102
RTVSPropertyOp21
 70
     1
102
RTVSPropertyOp22
 70
     1
102
RTVSPropertyOp23
 70
     1
102
RTVSPropertyOp24
 70
     1
102
RTVSPropertyOp25
 70
     1
102
RTVSPropertyOp26
 70
     1
102
RTVSPropertyOp27
 70
     1
102
RTVSPropertyOp28
 70
     1
102
RTVSPropertyOp29
 70
     1
102
RTVSPropertyOp30
 70
     1
102
RTVSPropertyOp31
 70
     1
102
RTVSPropertyOp32
 70
     1
102
RTVSPropertyOp33
 70
     1
102
RTVSPropertyOp34
 70
     1
102
RTVSPropertyOp35
 70
     1
102
RTVSPropertyOp36
 70
     1
102
RTVSPropertyOp37
 70
     1
102
RTVSPropertyOp38
 70
     1
102
RTVSPropertyOp39
 70
     1
102
RTVSPropertyOp40
 70
     1
102
RTVSPropertyOp41
 70
     1
102
RTVSPropertyOp42
 70
     1
102
RTVSPropertyOp43
 70
     1
102
RTVSPropertyOp44
 70
     1
102
RTVSPropertyOp45
 70
     1
102
RTVSPropertyOp46
 70
     1
102
RTVSPropertyOp47
 70
     1
102
RTVSPropertyOp48
 70
     1
102
RTVSPropertyOp49
 70
     1
102
RTVSPropertyOp50
 70
     1
102
RTVSPropertyOp51
 70
     0
102
RTVSPropertyOp52
 70
     0
102
RTVSPropertyOp53
 70
     1
102
RTVSPropertyOp54
 70
     1
102
RTVSPropertyOp55
 70
     1
102
RTVSPropertyOp56
 70
     1
102
RTVSPropertyOp57
 70
     1
102
RTVSPropertyOp58
 70
     1
102
RTVSPropertyOp59
 70
     1
102
RTVSPropertyOp60
 70
     1
102
RTVSPropertyOp61
 70
     1
102
RTVSPropertyOp62
 70
     1
  0
XRECORD
  5
A72C
102
{ACAD_REACTORS
330
A72B
102
}
330
A72B
100
AcDbXrecord
280
     1
102
RTVSPost2010Prop28
280
     0
102
RTVSPost2010PropOp28
 70
     1
102
RTVSPost2010Prop29
280
     1
102
RTVSPost2010PropOp29
 70
     1
102
RTVSPost2010Prop30
280
     1
102
RTVSPost2010PropOp30
 70
     1
102
RTVSPost2010Prop31
280
     0
102
RTVSPost2010PropOp31
 70
     1
102
RTVSPost2010Prop32
280
     0
102
RTVSPost2010PropOp32
 70
     1
102
RTVSPost2010Prop33
280
     0
102
RTVSPost2010PropOp33
 70
     1
102
RTVSPost2010Prop34
280
     0
102
RTVSPost2010PropOp34
 70
     1
102
RTVSPost2010Prop35
280
     0
102
RTVSPost2010PropOp35
 70
     1
102
RTVSPost2010Prop36
280
     0
102
RTVSPost2010PropOp36
 70
     1
102
RTVSPost2010Prop37
 90
       50
102
RTVSPost2010PropOp37
 70
     1
102
RTVSPost2010Prop38
140
0.0
102
RTVSPost2010PropOp38
 70
     1
102
RTVSPost2010Prop39
140
1.0
102
RTVSPost2010PropOp39
 70
     1
102
RTVSPost2010Prop40
 90
        0
102
RTVSPost2010PropOp40
 70
     1
102
RTVSPost2010Prop41ColorIndex
 90
       18
102
RTVSPost2010Prop41ColorRGB
 90
        0
102
RTVSPost2010PropOp41
 70
     1
102
RTVSPost2010Prop42
 90
       50
102
RTVSPost2010PropOp42
 70
     1
102
RTVSPost2010Prop43
 90
        3
102
RTVSPost2010PropOp43
 70
     1
102
RTVSPost2010Prop44ColorIndex
 90
        5
102
RTVSPost2010Prop44ColorRGB
 90
      255
102
RTVSPost2010PropOp44
 70
     1
102
RTVSPost2010Prop45
280
     0
102
RTVSPost2010PropOp45
 70
     1
102
RTVSPost2010Prop46
 90
       50
102
RTVSPost2010PropOp46
 70
     1
102
RTVSPost2010Prop47
 90
       50
102
RTVSPost2010PropOp47
 70
     1
102
RTVSPost2010Prop48
 90
       50
102
RTVSPost2010PropOp48
 70
     1
102
RTVSPost2010Prop49
280
     0
102
RTVSPost2010PropOp49
 70
     1
102
RTVSPost2010Prop50
 90
       50
102
RTVSPost2010PropOp50
 70
     1
102
RTVSPost2010Prop51ColorIndex
 90
      256
102
RTVSPost2010Prop51ColorRGB
 90
-16777216
102
RTVSPost2010PropOp51
 70
     0
102
RTVSPost2010Prop52
140
1.0
102
RTVSPost2010PropOp52
 70
     0
102
RTVSPost2010Prop53
 90
        2
102
RTVSPost2010PropOp53
 70
     1
102
RTVSPost2010Prop54
  1
strokes_ogs.tif
102
RTVSPost2010PropOp54
 70
     1
102
RTVSPost2010Prop55
280
     0
102
RTVSPost2010PropOp55
 70
     1
102
RTVSPost2010Prop56
140
1.0
102
RTVSPost2010PropOp56
 70
     1
102
RTVSPost2010Prop57
140
1.0
102
RTVSPost2010PropOp57
 70
     1
102
RTVSPropertyOp0
 70
     1
102
RTVSPropertyOp1
 70
     1
102
RTVSPropertyOp2
 70
     1
102
RTVSPropertyOp3
 70
     1
102
RTVSPropertyOp4
 70
     1
102
RTVSPropertyOp5
 70
     1
102
RTVSPropertyOp6
 70
     1
102
RTVSPropertyOp7
 70
     1
102
RTVSPropertyOp8
 70
     1
102
RTVSPropertyOp9
 70
     1
102
RTVSPropertyOp10
 70
     1
102
RTVSPropertyOp11
 70
     1
102
RTVSPropertyOp12
 70
     1
102
RTVSPropertyOp13
 70
     1
102
RTVSPropertyOp14
 70
     1
102
RTVSPropertyOp15
 70
     1
102
RTVSPropertyOp16
 70
     1
102
RTVSPropertyOp17
 70
     1
102
RTVSPropertyOp18
 70
     1
102
RTVSPropertyOp19
 70
     1
102
RTVSPropertyOp20
 70
     1
102
RTVSPropertyOp21
 70
     1
102
RTVSPropertyOp22
 70
     1
102
RTVSPropertyOp23
 70
     1
102
RTVSPropertyOp24
 70
     1
102
RTVSPropertyOp25
 70
     1
102
RTVSPropertyOp26
 70
     1
102
RTVSPropertyOp27
 70
     1
102
RTVSPropertyOp28
 70
     1
102
RTVSPropertyOp29
 70
     1
102
RTVSPropertyOp30
 70
     1
102
RTVSPropertyOp31
 70
     1
102
RTVSPropertyOp32
 70
     1
102
RTVSPropertyOp33
 70
     1
102
RTVSPropertyOp34
 70
     1
102
RTVSPropertyOp35
 70
     1
102
RTVSPropertyOp36
 70
     1
102
RTVSPropertyOp37
 70
     1
102
RTVSPropertyOp38
 70
     1
102
RTVSPropertyOp39
 70
     1
102
RTVSPropertyOp40
 70
     1
102
RTVSPropertyOp41
 70
     1
102
RTVSPropertyOp42
 70
     1
102
RTVSPropertyOp43
 70
     1
102
RTVSPropertyOp44
 70
     1
102
RTVSPropertyOp45
 70
     1
102
RTVSPropertyOp46
 70
     1
102
RTVSPropertyOp47
 70
     1
102
RTVSPropertyOp48
 70
     1
102
RTVSPropertyOp49
 70
     1
102
RTVSPropertyOp50
 70
     1
102
RTVSPropertyOp51
 70
     0
102
RTVSPropertyOp52
 70
     0
102
RTVSPropertyOp53
 70
     1
102
RTVSPropertyOp54
 70
     1
102
RTVSPropertyOp55
 70
     1
102
RTVSPropertyOp56
 70
     1
102
RTVSPropertyOp57
 70
     1
102
RTVSPropertyOp58
 70
     1
102
RTVSPropertyOp59
 70
     1
102
RTVSPropertyOp60
 70
     1
102
RTVSPropertyOp61
 70
     1
102
RTVSPropertyOp62
 70
     1
  0
XRECORD
  5
A730
102
{ACAD_REACTORS
330
A72F
102
}
330
A72F
100
AcDbXrecord
280
     1
102
RTVSPost2010Prop28
280
     0
102
RTVSPost2010PropOp28
 70
     1
102
RTVSPost2010Prop29
280
     1
102
RTVSPost2010PropOp29
 70
     1
102
RTVSPost2010Prop30
280
     1
102
RTVSPost2010PropOp30
 70
     1
102
RTVSPost2010Prop31
280
     0
102
RTVSPost2010PropOp31
 70
     1
102
RTVSPost2010Prop32
280
     0
102
RTVSPost2010PropOp32
 70
     1
102
RTVSPost2010Prop33
280
     0
102
RTVSPost2010PropOp33
 70
     1
102
RTVSPost2010Prop34
280
     0
102
RTVSPost2010PropOp34
 70
     1
102
RTVSPost2010Prop35
280
     0
102
RTVSPost2010PropOp35
 70
     1
102
RTVSPost2010Prop36
280
     0
102
RTVSPost2010PropOp36
 70
     1
102
RTVSPost2010Prop37
 90
       50
102
RTVSPost2010PropOp37
 70
     1
102
RTVSPost2010Prop38
140
0.0
102
RTVSPost2010PropOp38
 70
     1
102
RTVSPost2010Prop39
140
1.0
102
RTVSPost2010PropOp39
 70
     1
102
RTVSPost2010Prop40
 90
        0
102
RTVSPost2010PropOp40
 70
     1
102
RTVSPost2010Prop41ColorIndex
 90
       18
102
RTVSPost2010Prop41ColorRGB
 90
        0
102
RTVSPost2010PropOp41
 70
     1
102
RTVSPost2010Prop42
 90
       50
102
RTVSPost2010PropOp42
 70
     1
102
RTVSPost2010Prop43
 90
        3
102
RTVSPost2010PropOp43
 70
     1
102
RTVSPost2010Prop44ColorIndex
 90
        5
102
RTVSPost2010Prop44ColorRGB
 90
      255
102
RTVSPost2010PropOp44
 70
     1
102
RTVSPost2010Prop45
280
     0
102
RTVSPost2010PropOp45
 70
     1
102
RTVSPost2010Prop46
 90
       50
102
RTVSPost2010PropOp46
 70
     1
102
RTVSPost2010Prop47
 90
       50
102
RTVSPost2010PropOp47
 70
     1
102
RTVSPost2010Prop48
 90
       50
102
RTVSPost2010PropOp48
 70
     1
102
RTVSPost2010Prop49
280
     0
102
RTVSPost2010PropOp49
 70
     1
102
RTVSPost2010Prop50
 90
       50
102
RTVSPost2010PropOp50
 70
     1
102
RTVSPost2010Prop51ColorIndex
 90
      256
102
RTVSPost2010Prop51ColorRGB
 90
-16777216
102
RTVSPost2010PropOp51
 70
     0
102
RTVSPost2010Prop52
140
1.0
102
RTVSPost2010PropOp52
 70
     0
102
RTVSPost2010Prop53
 90
        2
102
RTVSPost2010PropOp53
 70
     1
102
RTVSPost2010Prop54
  1
strokes_ogs.tif
102
RTVSPost2010PropOp54
 70
     1
102
RTVSPost2010Prop55
280
     0
102
RTVSPost2010PropOp55
 70
     1
102
RTVSPost2010Prop56
140
1.0
102
RTVSPost2010PropOp56
 70
     1
102
RTVSPost2010Prop57
140
1.0
102
RTVSPost2010PropOp57
 70
     1
102
RTVSPropertyOp0
 70
     1
102
RTVSPropertyOp1
 70
     1
102
RTVSPropertyOp2
 70
     1
102
RTVSPropertyOp3
 70
     1
102
RTVSPropertyOp4
 70
     1
102
RTVSPropertyOp5
 70
     1
102
RTVSPropertyOp6
 70
     1
102
RTVSPropertyOp7
 70
     1
102
RTVSPropertyOp8
 70
     1
102
RTVSPropertyOp9
 70
     1
102
RTVSPropertyOp10
 70
     1
102
RTVSPropertyOp11
 70
     1
102
RTVSPropertyOp12
 70
     1
102
RTVSPropertyOp13
 70
     1
102
RTVSPropertyOp14
 70
     1
102
RTVSPropertyOp15
 70
     1
102
RTVSPropertyOp16
 70
     1
102
RTVSPropertyOp17
 70
     1
102
RTVSPropertyOp18
 70
     1
102
RTVSPropertyOp19
 70
     1
102
RTVSPropertyOp20
 70
     1
102
RTVSPropertyOp21
 70
     1
102
RTVSPropertyOp22
 70
     1
102
RTVSPropertyOp23
 70
     1
102
RTVSPropertyOp24
 70
     1
102
RTVSPropertyOp25
 70
     1
102
RTVSPropertyOp26
 70
     1
102
RTVSPropertyOp27
 70
     1
102
RTVSPropertyOp28
 70
     1
102
RTVSPropertyOp29
 70
     1
102
RTVSPropertyOp30
 70
     1
102
RTVSPropertyOp31
 70
     1
102
RTVSPropertyOp32
 70
     1
102
RTVSPropertyOp33
 70
     1
102
RTVSPropertyOp34
 70
     1
102
RTVSPropertyOp35
 70
     1
102
RTVSPropertyOp36
 70
     1
102
RTVSPropertyOp37
 70
     1
102
RTVSPropertyOp38
 70
     1
102
RTVSPropertyOp39
 70
     1
102
RTVSPropertyOp40
 70
     1
102
RTVSPropertyOp41
 70
     1
102
RTVSPropertyOp42
 70
     1
102
RTVSPropertyOp43
 70
     1
102
RTVSPropertyOp44
 70
     1
102
RTVSPropertyOp45
 70
     1
102
RTVSPropertyOp46
 70
     1
102
RTVSPropertyOp47
 70
     1
102
RTVSPropertyOp48
 70
     1
102
RTVSPropertyOp49
 70
     1
102
RTVSPropertyOp50
 70
     1
102
RTVSPropertyOp51
 70
     0
102
RTVSPropertyOp52
 70
     0
102
RTVSPropertyOp53
 70
     1
102
RTVSPropertyOp54
 70
     1
102
RTVSPropertyOp55
 70
     1
102
RTVSPropertyOp56
 70
     1
102
RTVSPropertyOp57
 70
     1
102
RTVSPropertyOp58
 70
     1
102
RTVSPropertyOp59
 70
     1
102
RTVSPropertyOp60
 70
     1
102
RTVSPropertyOp61
 70
     1
102
RTVSPropertyOp62
 70
     1
  0
XRECORD
  5
A74A
102
{ACAD_REACTORS
330
A749
102
}
330
A749
100
AcDbXrecord
280
     1
102
RTVSPost2010Prop28
280
     0
102
RTVSPost2010PropOp28
 70
     1
102
RTVSPost2010Prop29
280
     1
102
RTVSPost2010PropOp29
 70
     1
102
RTVSPost2010Prop30
280
     1
102
RTVSPost2010PropOp30
 70
     1
102
RTVSPost2010Prop31
280
     0
102
RTVSPost2010PropOp31
 70
     1
102
RTVSPost2010Prop32
280
     0
102
RTVSPost2010PropOp32
 70
     1
102
RTVSPost2010Prop33
280
     0
102
RTVSPost2010PropOp33
 70
     1
102
RTVSPost2010Prop34
280
     0
102
RTVSPost2010PropOp34
 70
     1
102
RTVSPost2010Prop35
280
     0
102
RTVSPost2010PropOp35
 70
     1
102
RTVSPost2010Prop36
280
     0
102
RTVSPost2010PropOp36
 70
     1
102
RTVSPost2010Prop37
 90
       50
102
RTVSPost2010PropOp37
 70
     0
102
RTVSPost2010Prop38
140
0.0
102
RTVSPost2010PropOp38
 70
     0
102
RTVSPost2010Prop39
140
1.0
102
RTVSPost2010PropOp39
 70
     0
102
RTVSPost2010Prop40
 90
        0
102
RTVSPost2010PropOp40
 70
     0
102
RTVSPost2010Prop41ColorIndex
 90
       18
102
RTVSPost2010Prop41ColorRGB
 90
        0
102
RTVSPost2010PropOp41
 70
     0
102
RTVSPost2010Prop42
 90
       50
102
RTVSPost2010PropOp42
 70
     0
102
RTVSPost2010Prop43
 90
        3
102
RTVSPost2010PropOp43
 70
     0
102
RTVSPost2010Prop44ColorIndex
 90
        5
102
RTVSPost2010Prop44ColorRGB
 90
      255
102
RTVSPost2010PropOp44
 70
     0
102
RTVSPost2010Prop45
280
     0
102
RTVSPost2010PropOp45
 70
     1
102
RTVSPost2010Prop46
 90
       50
102
RTVSPost2010PropOp46
 70
     0
102
RTVSPost2010Prop47
 90
       50
102
RTVSPost2010PropOp47
 70
     0
102
RTVSPost2010Prop48
 90
       50
102
RTVSPost2010PropOp48
 70
     0
102
RTVSPost2010Prop49
280
     0
102
RTVSPost2010PropOp49
 70
     1
102
RTVSPost2010Prop50
 90
       50
102
RTVSPost2010PropOp50
 70
     0
102
RTVSPost2010Prop51ColorIndex
 90
      256
102
RTVSPost2010Prop51ColorRGB
 90
-16777216
102
RTVSPost2010PropOp51
 70
     0
102
RTVSPost2010Prop52
140
1.0
102
RTVSPost2010PropOp52
 70
     0
102
RTVSPost2010Prop53
 90
        2
102
RTVSPost2010PropOp53
 70
     0
102
RTVSPost2010Prop54
  1
strokes_ogs.tif
102
RTVSPost2010PropOp54
 70
     0
102
RTVSPost2010Prop55
280
     0
102
RTVSPost2010PropOp55
 70
     1
102
RTVSPost2010Prop56
140
1.0
102
RTVSPost2010PropOp56
 70
     0
102
RTVSPost2010Prop57
140
1.0
102
RTVSPost2010PropOp57
 70
     0
102
RTVSPropertyOp0
 70
     0
102
RTVSPropertyOp1
 70
     0
102
RTVSPropertyOp2
 70
     0
102
RTVSPropertyOp3
 70
     0
102
RTVSPropertyOp4
 70
     0
102
RTVSPropertyOp5
 70
     0
102
RTVSPropertyOp6
 70
     0
102
RTVSPropertyOp7
 70
     0
102
RTVSPropertyOp8
 70
     0
102
RTVSPropertyOp9
 70
     0
102
RTVSPropertyOp10
 70
     0
102
RTVSPropertyOp11
 70
     0
102
RTVSPropertyOp12
 70
     0
102
RTVSPropertyOp13
 70
     0
102
RTVSPropertyOp14
 70
     2
102
RTVSPropertyOp15
 70
     0
102
RTVSPropertyOp16
 70
     0
102
RTVSPropertyOp17
 70
     0
102
RTVSPropertyOp18
 70
     0
102
RTVSPropertyOp19
 70
     0
102
RTVSPropertyOp20
 70
     0
102
RTVSPropertyOp21
 70
     0
102
RTVSPropertyOp22
 70
     0
102
RTVSPropertyOp23
 70
     0
102
RTVSPropertyOp24
 70
     0
102
RTVSPropertyOp25
 70
     0
102
RTVSPropertyOp26
 70
     0
102
RTVSPropertyOp27
 70
     0
102
RTVSPropertyOp28
 70
     1
102
RTVSPropertyOp29
 70
     1
102
RTVSPropertyOp30
 70
     1
102
RTVSPropertyOp31
 70
     1
102
RTVSPropertyOp32
 70
     1
102
RTVSPropertyOp33
 70
     1
102
RTVSPropertyOp34
 70
     1
102
RTVSPropertyOp35
 70
     1
102
RTVSPropertyOp36
 70
     1
102
RTVSPropertyOp37
 70
     0
102
RTVSPropertyOp38
 70
     0
102
RTVSPropertyOp39
 70
     0
102
RTVSPropertyOp40
 70
     0
102
RTVSPropertyOp41
 70
     0
102
RTVSPropertyOp42
 70
     0
102
RTVSPropertyOp43
 70
     0
102
RTVSPropertyOp44
 70
     0
102
RTVSPropertyOp45
 70
     1
102
RTVSPropertyOp46
 70
     0
102
RTVSPropertyOp47
 70
     0
102
RTVSPropertyOp48
 70
     0
102
RTVSPropertyOp49
 70
     1
102
RTVSPropertyOp50
 70
     0
102
RTVSPropertyOp51
 70
     0
102
RTVSPropertyOp52
 70
     0
102
RTVSPropertyOp53
 70
     0
102
RTVSPropertyOp54
 70
     0
102
RTVSPropertyOp55
 70
     1
102
RTVSPropertyOp56
 70
     0
102
RTVSPropertyOp57
 70
     0
102
RTVSPropertyOp58
 70
     0
102
RTVSPropertyOp59
 70
     0
102
RTVSPropertyOp60
 70
     0
102
RTVSPropertyOp61
 70
     0
102
RTVSPropertyOp62
 70
     0
  0
XRECORD
  5
A738
102
{ACAD_REACTORS
330
A737
102
}
330
A737
100
AcDbXrecord
280
     1
102
RTVSPost2010Prop28
280
     0
102
RTVSPost2010PropOp28
 70
     1
102
RTVSPost2010Prop29
280
     1
102
RTVSPost2010PropOp29
 70
     1
102
RTVSPost2010Prop30
280
     1
102
RTVSPost2010PropOp30
 70
     1
102
RTVSPost2010Prop31
280
     0
102
RTVSPost2010PropOp31
 70
     1
102
RTVSPost2010Prop32
280
     0
102
RTVSPost2010PropOp32
 70
     1
102
RTVSPost2010Prop33
280
     0
102
RTVSPost2010PropOp33
 70
     1
102
RTVSPost2010Prop34
280
     0
102
RTVSPost2010PropOp34
 70
     1
102
RTVSPost2010Prop35
280
     0
102
RTVSPost2010PropOp35
 70
     1
102
RTVSPost2010Prop36
280
     0
102
RTVSPost2010PropOp36
 70
     1
102
RTVSPost2010Prop37
 90
       50
102
RTVSPost2010PropOp37
 70
     1
102
RTVSPost2010Prop38
140
0.0
102
RTVSPost2010PropOp38
 70
     1
102
RTVSPost2010Prop39
140
1.0
102
RTVSPost2010PropOp39
 70
     1
102
RTVSPost2010Prop40
 90
        0
102
RTVSPost2010PropOp40
 70
     1
102
RTVSPost2010Prop41ColorIndex
 90
       18
102
RTVSPost2010Prop41ColorRGB
 90
        0
102
RTVSPost2010PropOp41
 70
     1
102
RTVSPost2010Prop42
 90
       50
102
RTVSPost2010PropOp42
 70
     1
102
RTVSPost2010Prop43
 90
        3
102
RTVSPost2010PropOp43
 70
     1
102
RTVSPost2010Prop44ColorIndex
 90
        5
102
RTVSPost2010Prop44ColorRGB
 90
      255
102
RTVSPost2010PropOp44
 70
     1
102
RTVSPost2010Prop45
280
     0
102
RTVSPost2010PropOp45
 70
     1
102
RTVSPost2010Prop46
 90
       50
102
RTVSPost2010PropOp46
 70
     1
102
RTVSPost2010Prop47
 90
       50
102
RTVSPost2010PropOp47
 70
     1
102
RTVSPost2010Prop48
 90
       50
102
RTVSPost2010PropOp48
 70
     1
102
RTVSPost2010Prop49
280
     0
102
RTVSPost2010PropOp49
 70
     1
102
RTVSPost2010Prop50
 90
       50
102
RTVSPost2010PropOp50
 70
     1
102
RTVSPost2010Prop51ColorIndex
 90
      256
102
RTVSPost2010Prop51ColorRGB
 90
-16777216
102
RTVSPost2010PropOp51
 70
     0
102
RTVSPost2010Prop52
140
1.0
102
RTVSPost2010PropOp52
 70
     0
102
RTVSPost2010Prop53
 90
        2
102
RTVSPost2010PropOp53
 70
     1
102
RTVSPost2010Prop54
  1
strokes_ogs.tif
102
RTVSPost2010PropOp54
 70
     1
102
RTVSPost2010Prop55
280
     0
102
RTVSPost2010PropOp55
 70
     1
102
RTVSPost2010Prop56
140
1.0
102
RTVSPost2010PropOp56
 70
     1
102
RTVSPost2010Prop57
140
1.0
102
RTVSPost2010PropOp57
 70
     1
102
RTVSPropertyOp0
 70
     1
102
RTVSPropertyOp1
 70
     1
102
RTVSPropertyOp2
 70
     1
102
RTVSPropertyOp3
 70
     1
102
RTVSPropertyOp4
 70
     1
102
RTVSPropertyOp5
 70
     1
102
RTVSPropertyOp6
 70
     1
102
RTVSPropertyOp7
 70
     1
102
RTVSPropertyOp8
 70
     1
102
RTVSPropertyOp9
 70
     1
102
RTVSPropertyOp10
 70
     1
102
RTVSPropertyOp11
 70
     1
102
RTVSPropertyOp12
 70
     1
102
RTVSPropertyOp13
 70
     1
102
RTVSPropertyOp14
 70
     1
102
RTVSPropertyOp15
 70
     1
102
RTVSPropertyOp16
 70
     1
102
RTVSPropertyOp17
 70
     1
102
RTVSPropertyOp18
 70
     1
102
RTVSPropertyOp19
 70
     1
102
RTVSPropertyOp20
 70
     1
102
RTVSPropertyOp21
 70
     1
102
RTVSPropertyOp22
 70
     1
102
RTVSPropertyOp23
 70
     1
102
RTVSPropertyOp24
 70
     1
102
RTVSPropertyOp25
 70
     1
102
RTVSPropertyOp26
 70
     1
102
RTVSPropertyOp27
 70
     1
102
RTVSPropertyOp28
 70
     1
102
RTVSPropertyOp29
 70
     1
102
RTVSPropertyOp30
 70
     1
102
RTVSPropertyOp31
 70
     1
102
RTVSPropertyOp32
 70
     1
102
RTVSPropertyOp33
 70
     1
102
RTVSPropertyOp34
 70
     1
102
RTVSPropertyOp35
 70
     1
102
RTVSPropertyOp36
 70
     1
102
RTVSPropertyOp37
 70
     1
102
RTVSPropertyOp38
 70
     1
102
RTVSPropertyOp39
 70
     1
102
RTVSPropertyOp40
 70
     1
102
RTVSPropertyOp41
 70
     1
102
RTVSPropertyOp42
 70
     1
102
RTVSPropertyOp43
 70
     1
102
RTVSPropertyOp44
 70
     1
102
RTVSPropertyOp45
 70
     1
102
RTVSPropertyOp46
 70
     1
102
RTVSPropertyOp47
 70
     1
102
RTVSPropertyOp48
 70
     1
102
RTVSPropertyOp49
 70
     1
102
RTVSPropertyOp50
 70
     1
102
RTVSPropertyOp51
 70
     0
102
RTVSPropertyOp52
 70
     0
102
RTVSPropertyOp53
 70
     1
102
RTVSPropertyOp54
 70
     1
102
RTVSPropertyOp55
 70
     1
102
RTVSPropertyOp56
 70
     1
102
RTVSPropertyOp57
 70
     1
102
RTVSPropertyOp58
 70
     1
102
RTVSPropertyOp59
 70
     1
102
RTVSPropertyOp60
 70
     1
102
RTVSPropertyOp61
 70
     1
102
RTVSPropertyOp62
 70
     1
  0
XRECORD
  5
A71C
102
{ACAD_REACTORS
330
A71B
102
}
330
A71B
100
AcDbXrecord
280
     1
102
RTVSPost2010Prop28
280
     0
102
RTVSPost2010PropOp28
 70
     1
102
RTVSPost2010Prop29
280
     1
102
RTVSPost2010PropOp29
 70
     1
102
RTVSPost2010Prop30
280
     1
102
RTVSPost2010PropOp30
 70
     1
102
RTVSPost2010Prop31
280
     0
102
RTVSPost2010PropOp31
 70
     1
102
RTVSPost2010Prop32
280
     0
102
RTVSPost2010PropOp32
 70
     1
102
RTVSPost2010Prop33
280
     0
102
RTVSPost2010PropOp33
 70
     1
102
RTVSPost2010Prop34
280
     0
102
RTVSPost2010PropOp34
 70
     1
102
RTVSPost2010Prop35
280
     0
102
RTVSPost2010PropOp35
 70
     1
102
RTVSPost2010Prop36
280
     0
102
RTVSPost2010PropOp36
 70
     1
102
RTVSPost2010Prop37
 90
       50
102
RTVSPost2010PropOp37
 70
     1
102
RTVSPost2010Prop38
140
0.0
102
RTVSPost2010PropOp38
 70
     1
102
RTVSPost2010Prop39
140
1.0
102
RTVSPost2010PropOp39
 70
     1
102
RTVSPost2010Prop40
 90
        0
102
RTVSPost2010PropOp40
 70
     1
102
RTVSPost2010Prop41ColorIndex
 90
       18
102
RTVSPost2010Prop41ColorRGB
 90
        0
102
RTVSPost2010PropOp41
 70
     1
102
RTVSPost2010Prop42
 90
       50
102
RTVSPost2010PropOp42
 70
     1
102
RTVSPost2010Prop43
 90
        3
102
RTVSPost2010PropOp43
 70
     1
102
RTVSPost2010Prop44ColorIndex
 90
        5
102
RTVSPost2010Prop44ColorRGB
 90
      255
102
RTVSPost2010PropOp44
 70
     1
102
RTVSPost2010Prop45
280
     0
102
RTVSPost2010PropOp45
 70
     1
102
RTVSPost2010Prop46
 90
       50
102
RTVSPost2010PropOp46
 70
     1
102
RTVSPost2010Prop47
 90
       50
102
RTVSPost2010PropOp47
 70
     1
102
RTVSPost2010Prop48
 90
       50
102
RTVSPost2010PropOp48
 70
     1
102
RTVSPost2010Prop49
280
     0
102
RTVSPost2010PropOp49
 70
     1
102
RTVSPost2010Prop50
 90
       50
102
RTVSPost2010PropOp50
 70
     1
102
RTVSPost2010Prop51ColorIndex
 90
      256
102
RTVSPost2010Prop51ColorRGB
 90
-16777216
102
RTVSPost2010PropOp51
 70
     0
102
RTVSPost2010Prop52
140
1.0
102
RTVSPost2010PropOp52
 70
     0
102
RTVSPost2010Prop53
 90
        2
102
RTVSPost2010PropOp53
 70
     1
102
RTVSPost2010Prop54
  1
strokes_ogs.tif
102
RTVSPost2010PropOp54
 70
     1
102
RTVSPost2010Prop55
280
     0
102
RTVSPost2010PropOp55
 70
     1
102
RTVSPost2010Prop56
140
1.0
102
RTVSPost2010PropOp56
 70
     1
102
RTVSPost2010Prop57
140
1.0
102
RTVSPost2010PropOp57
 70
     1
102
RTVSPropertyOp0
 70
     1
102
RTVSPropertyOp1
 70
     1
102
RTVSPropertyOp2
 70
     1
102
RTVSPropertyOp3
 70
     1
102
RTVSPropertyOp4
 70
     1
102
RTVSPropertyOp5
 70
     1
102
RTVSPropertyOp6
 70
     1
102
RTVSPropertyOp7
 70
     1
102
RTVSPropertyOp8
 70
     1
102
RTVSPropertyOp9
 70
     1
102
RTVSPropertyOp10
 70
     1
102
RTVSPropertyOp11
 70
     1
102
RTVSPropertyOp12
 70
     1
102
RTVSPropertyOp13
 70
     1
102
RTVSPropertyOp14
 70
     1
102
RTVSPropertyOp15
 70
     1
102
RTVSPropertyOp16
 70
     1
102
RTVSPropertyOp17
 70
     1
102
RTVSPropertyOp18
 70
     1
102
RTVSPropertyOp19
 70
     1
102
RTVSPropertyOp20
 70
     1
102
RTVSPropertyOp21
 70
     1
102
RTVSPropertyOp22
 70
     1
102
RTVSPropertyOp23
 70
     1
102
RTVSPropertyOp24
 70
     1
102
RTVSPropertyOp25
 70
     1
102
RTVSPropertyOp26
 70
     1
102
RTVSPropertyOp27
 70
     1
102
RTVSPropertyOp28
 70
     1
102
RTVSPropertyOp29
 70
     1
102
RTVSPropertyOp30
 70
     1
102
RTVSPropertyOp31
 70
     1
102
RTVSPropertyOp32
 70
     1
102
RTVSPropertyOp33
 70
     1
102
RTVSPropertyOp34
 70
     1
102
RTVSPropertyOp35
 70
     1
102
RTVSPropertyOp36
 70
     1
102
RTVSPropertyOp37
 70
     1
102
RTVSPropertyOp38
 70
     1
102
RTVSPropertyOp39
 70
     1
102
RTVSPropertyOp40
 70
     1
102
RTVSPropertyOp41
 70
     1
102
RTVSPropertyOp42
 70
     1
102
RTVSPropertyOp43
 70
     1
102
RTVSPropertyOp44
 70
     1
102
RTVSPropertyOp45
 70
     1
102
RTVSPropertyOp46
 70
     1
102
RTVSPropertyOp47
 70
     1
102
RTVSPropertyOp48
 70
     1
102
RTVSPropertyOp49
 70
     1
102
RTVSPropertyOp50
 70
     1
102
RTVSPropertyOp51
 70
     0
102
RTVSPropertyOp52
 70
     0
102
RTVSPropertyOp53
 70
     1
102
RTVSPropertyOp54
 70
     1
102
RTVSPropertyOp55
 70
     1
102
RTVSPropertyOp56
 70
     1
102
RTVSPropertyOp57
 70
     1
102
RTVSPropertyOp58
 70
     1
102
RTVSPropertyOp59
 70
     1
102
RTVSPropertyOp60
 70
     1
102
RTVSPropertyOp61
 70
     1
102
RTVSPropertyOp62
 70
     1
  0
XRECORD
  5
A71E
102
{ACAD_REACTORS
330
A71D
102
}
330
A71D
100
AcDbXrecord
280
     1
102
RTVSPost2010Prop28
280
     0
102
RTVSPost2010PropOp28
 70
     1
102
RTVSPost2010Prop29
280
     1
102
RTVSPost2010PropOp29
 70
     1
102
RTVSPost2010Prop30
280
     1
102
RTVSPost2010PropOp30
 70
     1
102
RTVSPost2010Prop31
280
     0
102
RTVSPost2010PropOp31
 70
     1
102
RTVSPost2010Prop32
280
     0
102
RTVSPost2010PropOp32
 70
     1
102
RTVSPost2010Prop33
280
     0
102
RTVSPost2010PropOp33
 70
     1
102
RTVSPost2010Prop34
280
     0
102
RTVSPost2010PropOp34
 70
     1
102
RTVSPost2010Prop35
280
     0
102
RTVSPost2010PropOp35
 70
     1
102
RTVSPost2010Prop36
280
     0
102
RTVSPost2010PropOp36
 70
     1
102
RTVSPost2010Prop37
 90
       50
102
RTVSPost2010PropOp37
 70
     1
102
RTVSPost2010Prop38
140
0.0
102
RTVSPost2010PropOp38
 70
     1
102
RTVSPost2010Prop39
140
1.0
102
RTVSPost2010PropOp39
 70
     1
102
RTVSPost2010Prop40
 90
        0
102
RTVSPost2010PropOp40
 70
     1
102
RTVSPost2010Prop41ColorIndex
 90
       18
102
RTVSPost2010Prop41ColorRGB
 90
        0
102
RTVSPost2010PropOp41
 70
     1
102
RTVSPost2010Prop42
 90
       50
102
RTVSPost2010PropOp42
 70
     1
102
RTVSPost2010Prop43
 90
        3
102
RTVSPost2010PropOp43
 70
     1
102
RTVSPost2010Prop44ColorIndex
 90
        5
102
RTVSPost2010Prop44ColorRGB
 90
      255
102
RTVSPost2010PropOp44
 70
     1
102
RTVSPost2010Prop45
280
     0
102
RTVSPost2010PropOp45
 70
     1
102
RTVSPost2010Prop46
 90
       50
102
RTVSPost2010PropOp46
 70
     1
102
RTVSPost2010Prop47
 90
       50
102
RTVSPost2010PropOp47
 70
     1
102
RTVSPost2010Prop48
 90
       50
102
RTVSPost2010PropOp48
 70
     1
102
RTVSPost2010Prop49
280
     0
102
RTVSPost2010PropOp49
 70
     1
102
RTVSPost2010Prop50
 90
       50
102
RTVSPost2010PropOp50
 70
     1
102
RTVSPost2010Prop51ColorIndex
 90
      256
102
RTVSPost2010Prop51ColorRGB
 90
-16777216
102
RTVSPost2010PropOp51
 70
     0
102
RTVSPost2010Prop52
140
1.0
102
RTVSPost2010PropOp52
 70
     0
102
RTVSPost2010Prop53
 90
        2
102
RTVSPost2010PropOp53
 70
     1
102
RTVSPost2010Prop54
  1
strokes_ogs.tif
102
RTVSPost2010PropOp54
 70
     1
102
RTVSPost2010Prop55
280
     0
102
RTVSPost2010PropOp55
 70
     1
102
RTVSPost2010Prop56
140
1.0
102
RTVSPost2010PropOp56
 70
     1
102
RTVSPost2010Prop57
140
1.0
102
RTVSPost2010PropOp57
 70
     1
102
RTVSPropertyOp0
 70
     1
102
RTVSPropertyOp1
 70
     1
102
RTVSPropertyOp2
 70
     1
102
RTVSPropertyOp3
 70
     1
102
RTVSPropertyOp4
 70
     1
102
RTVSPropertyOp5
 70
     1
102
RTVSPropertyOp6
 70
     1
102
RTVSPropertyOp7
 70
     1
102
RTVSPropertyOp8
 70
     1
102
RTVSPropertyOp9
 70
     1
102
RTVSPropertyOp10
 70
     1
102
RTVSPropertyOp11
 70
     1
102
RTVSPropertyOp12
 70
     1
102
RTVSPropertyOp13
 70
     1
102
RTVSPropertyOp14
 70
     1
102
RTVSPropertyOp15
 70
     1
102
RTVSPropertyOp16
 70
     1
102
RTVSPropertyOp17
 70
     1
102
RTVSPropertyOp18
 70
     1
102
RTVSPropertyOp19
 70
     1
102
RTVSPropertyOp20
 70
     1
102
RTVSPropertyOp21
 70
     1
102
RTVSPropertyOp22
 70
     1
102
RTVSPropertyOp23
 70
     1
102
RTVSPropertyOp24
 70
     1
102
RTVSPropertyOp25
 70
     1
102
RTVSPropertyOp26
 70
     1
102
RTVSPropertyOp27
 70
     1
102
RTVSPropertyOp28
 70
     1
102
RTVSPropertyOp29
 70
     1
102
RTVSPropertyOp30
 70
     1
102
RTVSPropertyOp31
 70
     1
102
RTVSPropertyOp32
 70
     1
102
RTVSPropertyOp33
 70
     1
102
RTVSPropertyOp34
 70
     1
102
RTVSPropertyOp35
 70
     1
102
RTVSPropertyOp36
 70
     1
102
RTVSPropertyOp37
 70
     1
102
RTVSPropertyOp38
 70
     1
102
RTVSPropertyOp39
 70
     1
102
RTVSPropertyOp40
 70
     1
102
RTVSPropertyOp41
 70
     1
102
RTVSPropertyOp42
 70
     1
102
RTVSPropertyOp43
 70
     1
102
RTVSPropertyOp44
 70
     1
102
RTVSPropertyOp45
 70
     1
102
RTVSPropertyOp46
 70
     1
102
RTVSPropertyOp47
 70
     1
102
RTVSPropertyOp48
 70
     1
102
RTVSPropertyOp49
 70
     1
102
RTVSPropertyOp50
 70
     1
102
RTVSPropertyOp51
 70
     0
102
RTVSPropertyOp52
 70
     0
102
RTVSPropertyOp53
 70
     1
102
RTVSPropertyOp54
 70
     1
102
RTVSPropertyOp55
 70
     1
102
RTVSPropertyOp56
 70
     1
102
RTVSPropertyOp57
 70
     1
102
RTVSPropertyOp58
 70
     1
102
RTVSPropertyOp59
 70
     1
102
RTVSPropertyOp60
 70
     1
102
RTVSPropertyOp61
 70
     1
102
RTVSPropertyOp62
 70
     1
  0
XRECORD
  5
A720
102
{ACAD_REACTORS
330
A71F
102
}
330
A71F
100
AcDbXrecord
280
     1
102
RTVSPost2010Prop28
280
     0
102
RTVSPost2010PropOp28
 70
     1
102
RTVSPost2010Prop29
280
     1
102
RTVSPost2010PropOp29
 70
     1
102
RTVSPost2010Prop30
280
     1
102
RTVSPost2010PropOp30
 70
     1
102
RTVSPost2010Prop31
280
     0
102
RTVSPost2010PropOp31
 70
     1
102
RTVSPost2010Prop32
280
     0
102
RTVSPost2010PropOp32
 70
     1
102
RTVSPost2010Prop33
280
     0
102
RTVSPost2010PropOp33
 70
     1
102
RTVSPost2010Prop34
280
     0
102
RTVSPost2010PropOp34
 70
     1
102
RTVSPost2010Prop35
280
     0
102
RTVSPost2010PropOp35
 70
     1
102
RTVSPost2010Prop36
280
     0
102
RTVSPost2010PropOp36
 70
     1
102
RTVSPost2010Prop37
 90
       50
102
RTVSPost2010PropOp37
 70
     1
102
RTVSPost2010Prop38
140
0.0
102
RTVSPost2010PropOp38
 70
     1
102
RTVSPost2010Prop39
140
1.0
102
RTVSPost2010PropOp39
 70
     1
102
RTVSPost2010Prop40
 90
        0
102
RTVSPost2010PropOp40
 70
     1
102
RTVSPost2010Prop41ColorIndex
 90
       18
102
RTVSPost2010Prop41ColorRGB
 90
        0
102
RTVSPost2010PropOp41
 70
     1
102
RTVSPost2010Prop42
 90
       50
102
RTVSPost2010PropOp42
 70
     1
102
RTVSPost2010Prop43
 90
        3
102
RTVSPost2010PropOp43
 70
     1
102
RTVSPost2010Prop44ColorIndex
 90
        5
102
RTVSPost2010Prop44ColorRGB
 90
      255
102
RTVSPost2010PropOp44
 70
     1
102
RTVSPost2010Prop45
280
     0
102
RTVSPost2010PropOp45
 70
     1
102
RTVSPost2010Prop46
 90
       50
102
RTVSPost2010PropOp46
 70
     1
102
RTVSPost2010Prop47
 90
       50
102
RTVSPost2010PropOp47
 70
     1
102
RTVSPost2010Prop48
 90
       50
102
RTVSPost2010PropOp48
 70
     1
102
RTVSPost2010Prop49
280
     0
102
RTVSPost2010PropOp49
 70
     1
102
RTVSPost2010Prop50
 90
       50
102
RTVSPost2010PropOp50
 70
     1
102
RTVSPost2010Prop51ColorIndex
 90
      256
102
RTVSPost2010Prop51ColorRGB
 90
-16777216
102
RTVSPost2010PropOp51
 70
     0
102
RTVSPost2010Prop52
140
1.0
102
RTVSPost2010PropOp52
 70
     0
102
RTVSPost2010Prop53
 90
        2
102
RTVSPost2010PropOp53
 70
     1
102
RTVSPost2010Prop54
  1
strokes_ogs.tif
102
RTVSPost2010PropOp54
 70
     1
102
RTVSPost2010Prop55
280
     0
102
RTVSPost2010PropOp55
 70
     1
102
RTVSPost2010Prop56
140
1.0
102
RTVSPost2010PropOp56
 70
     1
102
RTVSPost2010Prop57
140
1.0
102
RTVSPost2010PropOp57
 70
     1
102
RTVSPropertyOp0
 70
     1
102
RTVSPropertyOp1
 70
     1
102
RTVSPropertyOp2
 70
     1
102
RTVSPropertyOp3
 70
     1
102
RTVSPropertyOp4
 70
     1
102
RTVSPropertyOp5
 70
     1
102
RTVSPropertyOp6
 70
     1
102
RTVSPropertyOp7
 70
     1
102
RTVSPropertyOp8
 70
     1
102
RTVSPropertyOp9
 70
     1
102
RTVSPropertyOp10
 70
     1
102
RTVSPropertyOp11
 70
     1
102
RTVSPropertyOp12
 70
     1
102
RTVSPropertyOp13
 70
     1
102
RTVSPropertyOp14
 70
     1
102
RTVSPropertyOp15
 70
     1
102
RTVSPropertyOp16
 70
     1
102
RTVSPropertyOp17
 70
     1
102
RTVSPropertyOp18
 70
     1
102
RTVSPropertyOp19
 70
     1
102
RTVSPropertyOp20
 70
     1
102
RTVSPropertyOp21
 70
     1
102
RTVSPropertyOp22
 70
     1
102
RTVSPropertyOp23
 70
     1
102
RTVSPropertyOp24
 70
     1
102
RTVSPropertyOp25
 70
     1
102
RTVSPropertyOp26
 70
     1
102
RTVSPropertyOp27
 70
     1
102
RTVSPropertyOp28
 70
     1
102
RTVSPropertyOp29
 70
     1
102
RTVSPropertyOp30
 70
     1
102
RTVSPropertyOp31
 70
     1
102
RTVSPropertyOp32
 70
     1
102
RTVSPropertyOp33
 70
     1
102
RTVSPropertyOp34
 70
     1
102
RTVSPropertyOp35
 70
     1
102
RTVSPropertyOp36
 70
     1
102
RTVSPropertyOp37
 70
     1
102
RTVSPropertyOp38
 70
     1
102
RTVSPropertyOp39
 70
     1
102
RTVSPropertyOp40
 70
     1
102
RTVSPropertyOp41
 70
     1
102
RTVSPropertyOp42
 70
     1
102
RTVSPropertyOp43
 70
     1
102
RTVSPropertyOp44
 70
     1
102
RTVSPropertyOp45
 70
     1
102
RTVSPropertyOp46
 70
     1
102
RTVSPropertyOp47
 70
     1
102
RTVSPropertyOp48
 70
     1
102
RTVSPropertyOp49
 70
     1
102
RTVSPropertyOp50
 70
     1
102
RTVSPropertyOp51
 70
     0
102
RTVSPropertyOp52
 70
     0
102
RTVSPropertyOp53
 70
     1
102
RTVSPropertyOp54
 70
     1
102
RTVSPropertyOp55
 70
     1
102
RTVSPropertyOp56
 70
     1
102
RTVSPropertyOp57
 70
     1
102
RTVSPropertyOp58
 70
     1
102
RTVSPropertyOp59
 70
     1
102
RTVSPropertyOp60
 70
     1
102
RTVSPropertyOp61
 70
     1
102
RTVSPropertyOp62
 70
     1
  0
XRECORD
  5
A722
102
{ACAD_REACTORS
330
A721
102
}
330
A721
100
AcDbXrecord
280
     1
102
RTVSPost2010Prop28
280
     0
102
RTVSPost2010PropOp28
 70
     1
102
RTVSPost2010Prop29
280
     1
102
RTVSPost2010PropOp29
 70
     1
102
RTVSPost2010Prop30
280
     1
102
RTVSPost2010PropOp30
 70
     1
102
RTVSPost2010Prop31
280
     0
102
RTVSPost2010PropOp31
 70
     1
102
RTVSPost2010Prop32
280
     0
102
RTVSPost2010PropOp32
 70
     1
102
RTVSPost2010Prop33
280
     0
102
RTVSPost2010PropOp33
 70
     1
102
RTVSPost2010Prop34
280
     0
102
RTVSPost2010PropOp34
 70
     1
102
RTVSPost2010Prop35
280
     0
102
RTVSPost2010PropOp35
 70
     1
102
RTVSPost2010Prop36
280
     0
102
RTVSPost2010PropOp36
 70
     1
102
RTVSPost2010Prop37
 90
       50
102
RTVSPost2010PropOp37
 70
     1
102
RTVSPost2010Prop38
140
0.0
102
RTVSPost2010PropOp38
 70
     1
102
RTVSPost2010Prop39
140
1.0
102
RTVSPost2010PropOp39
 70
     1
102
RTVSPost2010Prop40
 90
        0
102
RTVSPost2010PropOp40
 70
     1
102
RTVSPost2010Prop41ColorIndex
 90
       18
102
RTVSPost2010Prop41ColorRGB
 90
        0
102
RTVSPost2010PropOp41
 70
     1
102
RTVSPost2010Prop42
 90
       50
102
RTVSPost2010PropOp42
 70
     1
102
RTVSPost2010Prop43
 90
        3
102
RTVSPost2010PropOp43
 70
     1
102
RTVSPost2010Prop44ColorIndex
 90
        5
102
RTVSPost2010Prop44ColorRGB
 90
      255
102
RTVSPost2010PropOp44
 70
     1
102
RTVSPost2010Prop45
280
     0
102
RTVSPost2010PropOp45
 70
     1
102
RTVSPost2010Prop46
 90
       50
102
RTVSPost2010PropOp46
 70
     1
102
RTVSPost2010Prop47
 90
       50
102
RTVSPost2010PropOp47
 70
     1
102
RTVSPost2010Prop48
 90
       50
102
RTVSPost2010PropOp48
 70
     1
102
RTVSPost2010Prop49
280
     0
102
RTVSPost2010PropOp49
 70
     1
102
RTVSPost2010Prop50
 90
       50
102
RTVSPost2010PropOp50
 70
     1
102
RTVSPost2010Prop51ColorIndex
 90
      256
102
RTVSPost2010Prop51ColorRGB
 90
-16777216
102
RTVSPost2010PropOp51
 70
     0
102
RTVSPost2010Prop52
140
1.0
102
RTVSPost2010PropOp52
 70
     0
102
RTVSPost2010Prop53
 90
        2
102
RTVSPost2010PropOp53
 70
     1
102
RTVSPost2010Prop54
  1
strokes_ogs.tif
102
RTVSPost2010PropOp54
 70
     1
102
RTVSPost2010Prop55
280
     0
102
RTVSPost2010PropOp55
 70
     1
102
RTVSPost2010Prop56
140
1.0
102
RTVSPost2010PropOp56
 70
     1
102
RTVSPost2010Prop57
140
1.0
102
RTVSPost2010PropOp57
 70
     1
102
RTVSPropertyOp0
 70
     1
102
RTVSPropertyOp1
 70
     1
102
RTVSPropertyOp2
 70
     1
102
RTVSPropertyOp3
 70
     1
102
RTVSPropertyOp4
 70
     1
102
RTVSPropertyOp5
 70
     1
102
RTVSPropertyOp6
 70
     1
102
RTVSPropertyOp7
 70
     1
102
RTVSPropertyOp8
 70
     1
102
RTVSPropertyOp9
 70
     1
102
RTVSPropertyOp10
 70
     1
102
RTVSPropertyOp11
 70
     1
102
RTVSPropertyOp12
 70
     1
102
RTVSPropertyOp13
 70
     1
102
RTVSPropertyOp14
 70
     1
102
RTVSPropertyOp15
 70
     1
102
RTVSPropertyOp16
 70
     1
102
RTVSPropertyOp17
 70
     1
102
RTVSPropertyOp18
 70
     1
102
RTVSPropertyOp19
 70
     1
102
RTVSPropertyOp20
 70
     1
102
RTVSPropertyOp21
 70
     1
102
RTVSPropertyOp22
 70
     1
102
RTVSPropertyOp23
 70
     1
102
RTVSPropertyOp24
 70
     1
102
RTVSPropertyOp25
 70
     1
102
RTVSPropertyOp26
 70
     1
102
RTVSPropertyOp27
 70
     1
102
RTVSPropertyOp28
 70
     1
102
RTVSPropertyOp29
 70
     1
102
RTVSPropertyOp30
 70
     1
102
RTVSPropertyOp31
 70
     1
102
RTVSPropertyOp32
 70
     1
102
RTVSPropertyOp33
 70
     1
102
RTVSPropertyOp34
 70
     1
102
RTVSPropertyOp35
 70
     1
102
RTVSPropertyOp36
 70
     1
102
RTVSPropertyOp37
 70
     1
102
RTVSPropertyOp38
 70
     1
102
RTVSPropertyOp39
 70
     1
102
RTVSPropertyOp40
 70
     1
102
RTVSPropertyOp41
 70
     1
102
RTVSPropertyOp42
 70
     1
102
RTVSPropertyOp43
 70
     1
102
RTVSPropertyOp44
 70
     1
102
RTVSPropertyOp45
 70
     1
102
RTVSPropertyOp46
 70
     1
102
RTVSPropertyOp47
 70
     1
102
RTVSPropertyOp48
 70
     1
102
RTVSPropertyOp49
 70
     1
102
RTVSPropertyOp50
 70
     1
102
RTVSPropertyOp51
 70
     0
102
RTVSPropertyOp52
 70
     0
102
RTVSPropertyOp53
 70
     1
102
RTVSPropertyOp54
 70
     1
102
RTVSPropertyOp55
 70
     1
102
RTVSPropertyOp56
 70
     1
102
RTVSPropertyOp57
 70
     1
102
RTVSPropertyOp58
 70
     1
102
RTVSPropertyOp59
 70
     1
102
RTVSPropertyOp60
 70
     1
102
RTVSPropertyOp61
 70
     1
102
RTVSPropertyOp62
 70
     1
  0
XRECORD
  5
A72A
102
{ACAD_REACTORS
330
A729
102
}
330
A729
100
AcDbXrecord
280
     1
102
RTVSPost2010Prop28
280
     0
102
RTVSPost2010PropOp28
 70
     1
102
RTVSPost2010Prop29
280
     1
102
RTVSPost2010PropOp29
 70
     1
102
RTVSPost2010Prop30
280
     1
102
RTVSPost2010PropOp30
 70
     1
102
RTVSPost2010Prop31
280
     0
102
RTVSPost2010PropOp31
 70
     1
102
RTVSPost2010Prop32
280
     0
102
RTVSPost2010PropOp32
 70
     1
102
RTVSPost2010Prop33
280
     0
102
RTVSPost2010PropOp33
 70
     1
102
RTVSPost2010Prop34
280
     0
102
RTVSPost2010PropOp34
 70
     1
102
RTVSPost2010Prop35
280
     0
102
RTVSPost2010PropOp35
 70
     1
102
RTVSPost2010Prop36
280
     0
102
RTVSPost2010PropOp36
 70
     1
102
RTVSPost2010Prop37
 90
       50
102
RTVSPost2010PropOp37
 70
     1
102
RTVSPost2010Prop38
140
0.0
102
RTVSPost2010PropOp38
 70
     1
102
RTVSPost2010Prop39
140
1.0
102
RTVSPost2010PropOp39
 70
     1
102
RTVSPost2010Prop40
 90
        0
102
RTVSPost2010PropOp40
 70
     1
102
RTVSPost2010Prop41ColorIndex
 90
       18
102
RTVSPost2010Prop41ColorRGB
 90
        0
102
RTVSPost2010PropOp41
 70
     1
102
RTVSPost2010Prop42
 90
       50
102
RTVSPost2010PropOp42
 70
     1
102
RTVSPost2010Prop43
 90
        3
102
RTVSPost2010PropOp43
 70
     1
102
RTVSPost2010Prop44ColorIndex
 90
        5
102
RTVSPost2010Prop44ColorRGB
 90
      255
102
RTVSPost2010PropOp44
 70
     1
102
RTVSPost2010Prop45
280
     0
102
RTVSPost2010PropOp45
 70
     1
102
RTVSPost2010Prop46
 90
       50
102
RTVSPost2010PropOp46
 70
     1
102
RTVSPost2010Prop47
 90
       50
102
RTVSPost2010PropOp47
 70
     1
102
RTVSPost2010Prop48
 90
       50
102
RTVSPost2010PropOp48
 70
     1
102
RTVSPost2010Prop49
280
     0
102
RTVSPost2010PropOp49
 70
     1
102
RTVSPost2010Prop50
 90
       50
102
RTVSPost2010PropOp50
 70
     1
102
RTVSPost2010Prop51ColorIndex
 90
      256
102
RTVSPost2010Prop51ColorRGB
 90
-16777216
102
RTVSPost2010PropOp51
 70
     0
102
RTVSPost2010Prop52
140
1.0
102
RTVSPost2010PropOp52
 70
     0
102
RTVSPost2010Prop53
 90
        2
102
RTVSPost2010PropOp53
 70
     1
102
RTVSPost2010Prop54
  1
strokes_ogs.tif
102
RTVSPost2010PropOp54
 70
     1
102
RTVSPost2010Prop55
280
     0
102
RTVSPost2010PropOp55
 70
     1
102
RTVSPost2010Prop56
140
1.0
102
RTVSPost2010PropOp56
 70
     1
102
RTVSPost2010Prop57
140
1.0
102
RTVSPost2010PropOp57
 70
     1
102
RTVSPropertyOp0
 70
     1
102
RTVSPropertyOp1
 70
     1
102
RTVSPropertyOp2
 70
     1
102
RTVSPropertyOp3
 70
     1
102
RTVSPropertyOp4
 70
     1
102
RTVSPropertyOp5
 70
     1
102
RTVSPropertyOp6
 70
     1
102
RTVSPropertyOp7
 70
     1
102
RTVSPropertyOp8
 70
     1
102
RTVSPropertyOp9
 70
     1
102
RTVSPropertyOp10
 70
     1
102
RTVSPropertyOp11
 70
     1
102
RTVSPropertyOp12
 70
     1
102
RTVSPropertyOp13
 70
     1
102
RTVSPropertyOp14
 70
     1
102
RTVSPropertyOp15
 70
     1
102
RTVSPropertyOp16
 70
     1
102
RTVSPropertyOp17
 70
     1
102
RTVSPropertyOp18
 70
     1
102
RTVSPropertyOp19
 70
     1
102
RTVSPropertyOp20
 70
     1
102
RTVSPropertyOp21
 70
     1
102
RTVSPropertyOp22
 70
     1
102
RTVSPropertyOp23
 70
     1
102
RTVSPropertyOp24
 70
     1
102
RTVSPropertyOp25
 70
     1
102
RTVSPropertyOp26
 70
     1
102
RTVSPropertyOp27
 70
     1
102
RTVSPropertyOp28
 70
     1
102
RTVSPropertyOp29
 70
     1
102
RTVSPropertyOp30
 70
     1
102
RTVSPropertyOp31
 70
     1
102
RTVSPropertyOp32
 70
     1
102
RTVSPropertyOp33
 70
     1
102
RTVSPropertyOp34
 70
     1
102
RTVSPropertyOp35
 70
     1
102
RTVSPropertyOp36
 70
     1
102
RTVSPropertyOp37
 70
     1
102
RTVSPropertyOp38
 70
     1
102
RTVSPropertyOp39
 70
     1
102
RTVSPropertyOp40
 70
     1
102
RTVSPropertyOp41
 70
     1
102
RTVSPropertyOp42
 70
     1
102
RTVSPropertyOp43
 70
     1
102
RTVSPropertyOp44
 70
     1
102
RTVSPropertyOp45
 70
     1
102
RTVSPropertyOp46
 70
     1
102
RTVSPropertyOp47
 70
     1
102
RTVSPropertyOp48
 70
     1
102
RTVSPropertyOp49
 70
     1
102
RTVSPropertyOp50
 70
     1
102
RTVSPropertyOp51
 70
     0
102
RTVSPropertyOp52
 70
     0
102
RTVSPropertyOp53
 70
     1
102
RTVSPropertyOp54
 70
     1
102
RTVSPropertyOp55
 70
     1
102
RTVSPropertyOp56
 70
     1
102
RTVSPropertyOp57
 70
     1
102
RTVSPropertyOp58
 70
     1
102
RTVSPropertyOp59
 70
     1
102
RTVSPropertyOp60
 70
     1
102
RTVSPropertyOp61
 70
     1
102
RTVSPropertyOp62
 70
     1
  0
XRECORD
  5
A746
102
{ACAD_REACTORS
330
A745
102
}
330
A745
100
AcDbXrecord
280
     1
102
RTVSPost2010Prop28
280
     0
102
RTVSPost2010PropOp28
 70
     1
102
RTVSPost2010Prop29
280
     1
102
RTVSPost2010PropOp29
 70
     1
102
RTVSPost2010Prop30
280
     1
102
RTVSPost2010PropOp30
 70
     1
102
RTVSPost2010Prop31
280
     0
102
RTVSPost2010PropOp31
 70
     1
102
RTVSPost2010Prop32
280
     0
102
RTVSPost2010PropOp32
 70
     1
102
RTVSPost2010Prop33
280
     0
102
RTVSPost2010PropOp33
 70
     1
102
RTVSPost2010Prop34
280
     0
102
RTVSPost2010PropOp34
 70
     1
102
RTVSPost2010Prop35
280
     0
102
RTVSPost2010PropOp35
 70
     1
102
RTVSPost2010Prop36
280
     0
102
RTVSPost2010PropOp36
 70
     1
102
RTVSPost2010Prop37
 90
       50
102
RTVSPost2010PropOp37
 70
     0
102
RTVSPost2010Prop38
140
0.0
102
RTVSPost2010PropOp38
 70
     0
102
RTVSPost2010Prop39
140
1.0
102
RTVSPost2010PropOp39
 70
     0
102
RTVSPost2010Prop40
 90
        0
102
RTVSPost2010PropOp40
 70
     0
102
RTVSPost2010Prop41ColorIndex
 90
       18
102
RTVSPost2010Prop41ColorRGB
 90
        0
102
RTVSPost2010PropOp41
 70
     0
102
RTVSPost2010Prop42
 90
       50
102
RTVSPost2010PropOp42
 70
     0
102
RTVSPost2010Prop43
 90
        3
102
RTVSPost2010PropOp43
 70
     0
102
RTVSPost2010Prop44ColorIndex
 90
        5
102
RTVSPost2010Prop44ColorRGB
 90
      255
102
RTVSPost2010PropOp44
 70
     0
102
RTVSPost2010Prop45
280
     0
102
RTVSPost2010PropOp45
 70
     1
102
RTVSPost2010Prop46
 90
       50
102
RTVSPost2010PropOp46
 70
     0
102
RTVSPost2010Prop47
 90
       50
102
RTVSPost2010PropOp47
 70
     0
102
RTVSPost2010Prop48
 90
       50
102
RTVSPost2010PropOp48
 70
     0
102
RTVSPost2010Prop49
280
     0
102
RTVSPost2010PropOp49
 70
     1
102
RTVSPost2010Prop50
 90
       50
102
RTVSPost2010PropOp50
 70
     0
102
RTVSPost2010Prop51ColorIndex
 90
      256
102
RTVSPost2010Prop51ColorRGB
 90
-16777216
102
RTVSPost2010PropOp51
 70
     0
102
RTVSPost2010Prop52
140
1.0
102
RTVSPost2010PropOp52
 70
     0
102
RTVSPost2010Prop53
 90
        2
102
RTVSPost2010PropOp53
 70
     0
102
RTVSPost2010Prop54
  1
strokes_ogs.tif
102
RTVSPost2010PropOp54
 70
     0
102
RTVSPost2010Prop55
280
     0
102
RTVSPost2010PropOp55
 70
     1
102
RTVSPost2010Prop56
140
1.0
102
RTVSPost2010PropOp56
 70
     0
102
RTVSPost2010Prop57
140
1.0
102
RTVSPost2010PropOp57
 70
     0
102
RTVSPropertyOp0
 70
     0
102
RTVSPropertyOp1
 70
     0
102
RTVSPropertyOp2
 70
     0
102
RTVSPropertyOp3
 70
     0
102
RTVSPropertyOp4
 70
     0
102
RTVSPropertyOp5
 70
     0
102
RTVSPropertyOp6
 70
     0
102
RTVSPropertyOp7
 70
     0
102
RTVSPropertyOp8
 70
     0
102
RTVSPropertyOp9
 70
     0
102
RTVSPropertyOp10
 70
     0
102
RTVSPropertyOp11
 70
     0
102
RTVSPropertyOp12
 70
     0
102
RTVSPropertyOp13
 70
     0
102
RTVSPropertyOp14
 70
     2
102
RTVSPropertyOp15
 70
     0
102
RTVSPropertyOp16
 70
     0
102
RTVSPropertyOp17
 70
     0
102
RTVSPropertyOp18
 70
     0
102
RTVSPropertyOp19
 70
     0
102
RTVSPropertyOp20
 70
     0
102
RTVSPropertyOp21
 70
     0
102
RTVSPropertyOp22
 70
     0
102
RTVSPropertyOp23
 70
     0
102
RTVSPropertyOp24
 70
     0
102
RTVSPropertyOp25
 70
     0
102
RTVSPropertyOp26
 70
     0
102
RTVSPropertyOp27
 70
     0
102
RTVSPropertyOp28
 70
     1
102
RTVSPropertyOp29
 70
     1
102
RTVSPropertyOp30
 70
     1
102
RTVSPropertyOp31
 70
     1
102
RTVSPropertyOp32
 70
     1
102
RTVSPropertyOp33
 70
     1
102
RTVSPropertyOp34
 70
     1
102
RTVSPropertyOp35
 70
     1
102
RTVSPropertyOp36
 70
     1
102
RTVSPropertyOp37
 70
     0
102
RTVSPropertyOp38
 70
     0
102
RTVSPropertyOp39
 70
     0
102
RTVSPropertyOp40
 70
     0
102
RTVSPropertyOp41
 70
     0
102
RTVSPropertyOp42
 70
     0
102
RTVSPropertyOp43
 70
     0
102
RTVSPropertyOp44
 70
     0
102
RTVSPropertyOp45
 70
     1
102
RTVSPropertyOp46
 70
     0
102
RTVSPropertyOp47
 70
     0
102
RTVSPropertyOp48
 70
     0
102
RTVSPropertyOp49
 70
     1
102
RTVSPropertyOp50
 70
     0
102
RTVSPropertyOp51
 70
     0
102
RTVSPropertyOp52
 70
     0
102
RTVSPropertyOp53
 70
     0
102
RTVSPropertyOp54
 70
     0
102
RTVSPropertyOp55
 70
     1
102
RTVSPropertyOp56
 70
     0
102
RTVSPropertyOp57
 70
     0
102
RTVSPropertyOp58
 70
     0
102
RTVSPropertyOp59
 70
     0
102
RTVSPropertyOp60
 70
     0
102
RTVSPropertyOp61
 70
     0
102
RTVSPropertyOp62
 70
     0
  0
XRECORD
  5
A736
102
{ACAD_REACTORS
330
A735
102
}
330
A735
100
AcDbXrecord
280
     1
102
RTVSPost2010Prop28
280
     0
102
RTVSPost2010PropOp28
 70
     1
102
RTVSPost2010Prop29
280
     1
102
RTVSPost2010PropOp29
 70
     1
102
RTVSPost2010Prop30
280
     1
102
RTVSPost2010PropOp30
 70
     1
102
RTVSPost2010Prop31
280
     0
102
RTVSPost2010PropOp31
 70
     1
102
RTVSPost2010Prop32
280
     0
102
RTVSPost2010PropOp32
 70
     1
102
RTVSPost2010Prop33
280
     0
102
RTVSPost2010PropOp33
 70
     1
102
RTVSPost2010Prop34
280
     0
102
RTVSPost2010PropOp34
 70
     1
102
RTVSPost2010Prop35
280
     0
102
RTVSPost2010PropOp35
 70
     1
102
RTVSPost2010Prop36
280
     0
102
RTVSPost2010PropOp36
 70
     1
102
RTVSPost2010Prop37
 90
       50
102
RTVSPost2010PropOp37
 70
     1
102
RTVSPost2010Prop38
140
0.0
102
RTVSPost2010PropOp38
 70
     1
102
RTVSPost2010Prop39
140
1.0
102
RTVSPost2010PropOp39
 70
     1
102
RTVSPost2010Prop40
 90
        0
102
RTVSPost2010PropOp40
 70
     1
102
RTVSPost2010Prop41ColorIndex
 90
       18
102
RTVSPost2010Prop41ColorRGB
 90
        0
102
RTVSPost2010PropOp41
 70
     1
102
RTVSPost2010Prop42
 90
       50
102
RTVSPost2010PropOp42
 70
     1
102
RTVSPost2010Prop43
 90
        3
102
RTVSPost2010PropOp43
 70
     1
102
RTVSPost2010Prop44ColorIndex
 90
        5
102
RTVSPost2010Prop44ColorRGB
 90
      255
102
RTVSPost2010PropOp44
 70
     1
102
RTVSPost2010Prop45
280
     0
102
RTVSPost2010PropOp45
 70
     1
102
RTVSPost2010Prop46
 90
       50
102
RTVSPost2010PropOp46
 70
     1
102
RTVSPost2010Prop47
 90
       50
102
RTVSPost2010PropOp47
 70
     1
102
RTVSPost2010Prop48
 90
       50
102
RTVSPost2010PropOp48
 70
     1
102
RTVSPost2010Prop49
280
     0
102
RTVSPost2010PropOp49
 70
     1
102
RTVSPost2010Prop50
 90
       50
102
RTVSPost2010PropOp50
 70
     1
102
RTVSPost2010Prop51ColorIndex
 90
      256
102
RTVSPost2010Prop51ColorRGB
 90
-16777216
102
RTVSPost2010PropOp51
 70
     0
102
RTVSPost2010Prop52
140
1.0
102
RTVSPost2010PropOp52
 70
     0
102
RTVSPost2010Prop53
 90
        2
102
RTVSPost2010PropOp53
 70
     1
102
RTVSPost2010Prop54
  1
strokes_ogs.tif
102
RTVSPost2010PropOp54
 70
     1
102
RTVSPost2010Prop55
280
     0
102
RTVSPost2010PropOp55
 70
     1
102
RTVSPost2010Prop56
140
1.0
102
RTVSPost2010PropOp56
 70
     1
102
RTVSPost2010Prop57
140
1.0
102
RTVSPost2010PropOp57
 70
     1
102
RTVSPropertyOp0
 70
     1
102
RTVSPropertyOp1
 70
     1
102
RTVSPropertyOp2
 70
     1
102
RTVSPropertyOp3
 70
     1
102
RTVSPropertyOp4
 70
     1
102
RTVSPropertyOp5
 70
     1
102
RTVSPropertyOp6
 70
     1
102
RTVSPropertyOp7
 70
     1
102
RTVSPropertyOp8
 70
     1
102
RTVSPropertyOp9
 70
     1
102
RTVSPropertyOp10
 70
     1
102
RTVSPropertyOp11
 70
     1
102
RTVSPropertyOp12
 70
     1
102
RTVSPropertyOp13
 70
     1
102
RTVSPropertyOp14
 70
     1
102
RTVSPropertyOp15
 70
     1
102
RTVSPropertyOp16
 70
     1
102
RTVSPropertyOp17
 70
     1
102
RTVSPropertyOp18
 70
     1
102
RTVSPropertyOp19
 70
     1
102
RTVSPropertyOp20
 70
     1
102
RTVSPropertyOp21
 70
     1
102
RTVSPropertyOp22
 70
     1
102
RTVSPropertyOp23
 70
     1
102
RTVSPropertyOp24
 70
     1
102
RTVSPropertyOp25
 70
     1
102
RTVSPropertyOp26
 70
     1
102
RTVSPropertyOp27
 70
     1
102
RTVSPropertyOp28
 70
     1
102
RTVSPropertyOp29
 70
     1
102
RTVSPropertyOp30
 70
     1
102
RTVSPropertyOp31
 70
     1
102
RTVSPropertyOp32
 70
     1
102
RTVSPropertyOp33
 70
     1
102
RTVSPropertyOp34
 70
     1
102
RTVSPropertyOp35
 70
     1
102
RTVSPropertyOp36
 70
     1
102
RTVSPropertyOp37
 70
     1
102
RTVSPropertyOp38
 70
     1
102
RTVSPropertyOp39
 70
     1
102
RTVSPropertyOp40
 70
     1
102
RTVSPropertyOp41
 70
     1
102
RTVSPropertyOp42
 70
     1
102
RTVSPropertyOp43
 70
     1
102
RTVSPropertyOp44
 70
     1
102
RTVSPropertyOp45
 70
     1
102
RTVSPropertyOp46
 70
     1
102
RTVSPropertyOp47
 70
     1
102
RTVSPropertyOp48
 70
     1
102
RTVSPropertyOp49
 70
     1
102
RTVSPropertyOp50
 70
     1
102
RTVSPropertyOp51
 70
     0
102
RTVSPropertyOp52
 70
     0
102
RTVSPropertyOp53
 70
     1
102
RTVSPropertyOp54
 70
     1
102
RTVSPropertyOp55
 70
     1
102
RTVSPropertyOp56
 70
     1
102
RTVSPropertyOp57
 70
     1
102
RTVSPropertyOp58
 70
     1
102
RTVSPropertyOp59
 70
     1
102
RTVSPropertyOp60
 70
     1
102
RTVSPropertyOp61
 70
     1
102
RTVSPropertyOp62
 70
     1
  0
XRECORD
  5
A748
102
{ACAD_REACTORS
330
A747
102
}
330
A747
100
AcDbXrecord
280
     1
102
RTVSPost2010Prop28
280
     0
102
RTVSPost2010PropOp28
 70
     1
102
RTVSPost2010Prop29
280
     1
102
RTVSPost2010PropOp29
 70
     1
102
RTVSPost2010Prop30
280
     1
102
RTVSPost2010PropOp30
 70
     1
102
RTVSPost2010Prop31
280
     0
102
RTVSPost2010PropOp31
 70
     1
102
RTVSPost2010Prop32
280
     0
102
RTVSPost2010PropOp32
 70
     1
102
RTVSPost2010Prop33
280
     0
102
RTVSPost2010PropOp33
 70
     1
102
RTVSPost2010Prop34
280
     0
102
RTVSPost2010PropOp34
 70
     1
102
RTVSPost2010Prop35
280
     0
102
RTVSPost2010PropOp35
 70
     1
102
RTVSPost2010Prop36
280
     0
102
RTVSPost2010PropOp36
 70
     1
102
RTVSPost2010Prop37
 90
       50
102
RTVSPost2010PropOp37
 70
     0
102
RTVSPost2010Prop38
140
0.0
102
RTVSPost2010PropOp38
 70
     0
102
RTVSPost2010Prop39
140
1.0
102
RTVSPost2010PropOp39
 70
     0
102
RTVSPost2010Prop40
 90
        0
102
RTVSPost2010PropOp40
 70
     0
102
RTVSPost2010Prop41ColorIndex
 90
       18
102
RTVSPost2010Prop41ColorRGB
 90
        0
102
RTVSPost2010PropOp41
 70
     0
102
RTVSPost2010Prop42
 90
       50
102
RTVSPost2010PropOp42
 70
     0
102
RTVSPost2010Prop43
 90
        3
102
RTVSPost2010PropOp43
 70
     0
102
RTVSPost2010Prop44ColorIndex
 90
        5
102
RTVSPost2010Prop44ColorRGB
 90
      255
102
RTVSPost2010PropOp44
 70
     0
102
RTVSPost2010Prop45
280
     0
102
RTVSPost2010PropOp45
 70
     1
102
RTVSPost2010Prop46
 90
       50
102
RTVSPost2010PropOp46
 70
     0
102
RTVSPost2010Prop47
 90
       50
102
RTVSPost2010PropOp47
 70
     0
102
RTVSPost2010Prop48
 90
       50
102
RTVSPost2010PropOp48
 70
     0
102
RTVSPost2010Prop49
280
     0
102
RTVSPost2010PropOp49
 70
     1
102
RTVSPost2010Prop50
 90
       50
102
RTVSPost2010PropOp50
 70
     0
102
RTVSPost2010Prop51ColorIndex
 90
      256
102
RTVSPost2010Prop51ColorRGB
 90
-16777216
102
RTVSPost2010PropOp51
 70
     0
102
RTVSPost2010Prop52
140
1.0
102
RTVSPost2010PropOp52
 70
     0
102
RTVSPost2010Prop53
 90
        2
102
RTVSPost2010PropOp53
 70
     0
102
RTVSPost2010Prop54
  1
strokes_ogs.tif
102
RTVSPost2010PropOp54
 70
     0
102
RTVSPost2010Prop55
280
     0
102
RTVSPost2010PropOp55
 70
     1
102
RTVSPost2010Prop56
140
1.0
102
RTVSPost2010PropOp56
 70
     0
102
RTVSPost2010Prop57
140
1.0
102
RTVSPost2010PropOp57
 70
     0
102
RTVSPropertyOp0
 70
     0
102
RTVSPropertyOp1
 70
     0
102
RTVSPropertyOp2
 70
     0
102
RTVSPropertyOp3
 70
     0
102
RTVSPropertyOp4
 70
     0
102
RTVSPropertyOp5
 70
     0
102
RTVSPropertyOp6
 70
     0
102
RTVSPropertyOp7
 70
     0
102
RTVSPropertyOp8
 70
     0
102
RTVSPropertyOp9
 70
     0
102
RTVSPropertyOp10
 70
     0
102
RTVSPropertyOp11
 70
     0
102
RTVSPropertyOp12
 70
     0
102
RTVSPropertyOp13
 70
     0
102
RTVSPropertyOp14
 70
     2
102
RTVSPropertyOp15
 70
     0
102
RTVSPropertyOp16
 70
     0
102
RTVSPropertyOp17
 70
     0
102
RTVSPropertyOp18
 70
     0
102
RTVSPropertyOp19
 70
     0
102
RTVSPropertyOp20
 70
     0
102
RTVSPropertyOp21
 70
     0
102
RTVSPropertyOp22
 70
     0
102
RTVSPropertyOp23
 70
     0
102
RTVSPropertyOp24
 70
     0
102
RTVSPropertyOp25
 70
     0
102
RTVSPropertyOp26
 70
     0
102
RTVSPropertyOp27
 70
     0
102
RTVSPropertyOp28
 70
     1
102
RTVSPropertyOp29
 70
     1
102
RTVSPropertyOp30
 70
     1
102
RTVSPropertyOp31
 70
     1
102
RTVSPropertyOp32
 70
     1
102
RTVSPropertyOp33
 70
     1
102
RTVSPropertyOp34
 70
     1
102
RTVSPropertyOp35
 70
     1
102
RTVSPropertyOp36
 70
     1
102
RTVSPropertyOp37
 70
     0
102
RTVSPropertyOp38
 70
     0
102
RTVSPropertyOp39
 70
     0
102
RTVSPropertyOp40
 70
     0
102
RTVSPropertyOp41
 70
     0
102
RTVSPropertyOp42
 70
     0
102
RTVSPropertyOp43
 70
     0
102
RTVSPropertyOp44
 70
     0
102
RTVSPropertyOp45
 70
     1
102
RTVSPropertyOp46
 70
     0
102
RTVSPropertyOp47
 70
     0
102
RTVSPropertyOp48
 70
     0
102
RTVSPropertyOp49
 70
     1
102
RTVSPropertyOp50
 70
     0
102
RTVSPropertyOp51
 70
     0
102
RTVSPropertyOp52
 70
     0
102
RTVSPropertyOp53
 70
     0
102
RTVSPropertyOp54
 70
     0
102
RTVSPropertyOp55
 70
     1
102
RTVSPropertyOp56
 70
     0
102
RTVSPropertyOp57
 70
     0
102
RTVSPropertyOp58
 70
     0
102
RTVSPropertyOp59
 70
     0
102
RTVSPropertyOp60
 70
     0
102
RTVSPropertyOp61
 70
     0
102
RTVSPropertyOp62
 70
     0
  0
XRECORD
  5
A72E
102
{ACAD_REACTORS
330
A72D
102
}
330
A72D
100
AcDbXrecord
280
     1
102
RTVSPost2010Prop28
280
     0
102
RTVSPost2010PropOp28
 70
     1
102
RTVSPost2010Prop29
280
     1
102
RTVSPost2010PropOp29
 70
     1
102
RTVSPost2010Prop30
280
     1
102
RTVSPost2010PropOp30
 70
     1
102
RTVSPost2010Prop31
280
     0
102
RTVSPost2010PropOp31
 70
     1
102
RTVSPost2010Prop32
280
     0
102
RTVSPost2010PropOp32
 70
     1
102
RTVSPost2010Prop33
280
     0
102
RTVSPost2010PropOp33
 70
     1
102
RTVSPost2010Prop34
280
     0
102
RTVSPost2010PropOp34
 70
     1
102
RTVSPost2010Prop35
280
     0
102
RTVSPost2010PropOp35
 70
     1
102
RTVSPost2010Prop36
280
     0
102
RTVSPost2010PropOp36
 70
     1
102
RTVSPost2010Prop37
 90
       50
102
RTVSPost2010PropOp37
 70
     1
102
RTVSPost2010Prop38
140
0.0
102
RTVSPost2010PropOp38
 70
     1
102
RTVSPost2010Prop39
140
1.0
102
RTVSPost2010PropOp39
 70
     1
102
RTVSPost2010Prop40
 90
        0
102
RTVSPost2010PropOp40
 70
     1
102
RTVSPost2010Prop41ColorIndex
 90
       18
102
RTVSPost2010Prop41ColorRGB
 90
        0
102
RTVSPost2010PropOp41
 70
     1
102
RTVSPost2010Prop42
 90
       50
102
RTVSPost2010PropOp42
 70
     1
102
RTVSPost2010Prop43
 90
        3
102
RTVSPost2010PropOp43
 70
     1
102
RTVSPost2010Prop44ColorIndex
 90
        5
102
RTVSPost2010Prop44ColorRGB
 90
      255
102
RTVSPost2010PropOp44
 70
     1
102
RTVSPost2010Prop45
280
     0
102
RTVSPost2010PropOp45
 70
     1
102
RTVSPost2010Prop46
 90
       50
102
RTVSPost2010PropOp46
 70
     1
102
RTVSPost2010Prop47
 90
       50
102
RTVSPost2010PropOp47
 70
     1
102
RTVSPost2010Prop48
 90
       50
102
RTVSPost2010PropOp48
 70
     1
102
RTVSPost2010Prop49
280
     0
102
RTVSPost2010PropOp49
 70
     1
102
RTVSPost2010Prop50
 90
       50
102
RTVSPost2010PropOp50
 70
     1
102
RTVSPost2010Prop51ColorIndex
 90
      256
102
RTVSPost2010Prop51ColorRGB
 90
-16777216
102
RTVSPost2010PropOp51
 70
     0
102
RTVSPost2010Prop52
140
1.0
102
RTVSPost2010PropOp52
 70
     0
102
RTVSPost2010Prop53
 90
        2
102
RTVSPost2010PropOp53
 70
     1
102
RTVSPost2010Prop54
  1
strokes_ogs.tif
102
RTVSPost2010PropOp54
 70
     1
102
RTVSPost2010Prop55
280
     0
102
RTVSPost2010PropOp55
 70
     1
102
RTVSPost2010Prop56
140
1.0
102
RTVSPost2010PropOp56
 70
     1
102
RTVSPost2010Prop57
140
1.0
102
RTVSPost2010PropOp57
 70
     1
102
RTVSPropertyOp0
 70
     1
102
RTVSPropertyOp1
 70
     1
102
RTVSPropertyOp2
 70
     1
102
RTVSPropertyOp3
 70
     1
102
RTVSPropertyOp4
 70
     1
102
RTVSPropertyOp5
 70
     1
102
RTVSPropertyOp6
 70
     1
102
RTVSPropertyOp7
 70
     1
102
RTVSPropertyOp8
 70
     1
102
RTVSPropertyOp9
 70
     1
102
RTVSPropertyOp10
 70
     1
102
RTVSPropertyOp11
 70
     1
102
RTVSPropertyOp12
 70
     1
102
RTVSPropertyOp13
 70
     1
102
RTVSPropertyOp14
 70
     1
102
RTVSPropertyOp15
 70
     1
102
RTVSPropertyOp16
 70
     1
102
RTVSPropertyOp17
 70
     1
102
RTVSPropertyOp18
 70
     1
102
RTVSPropertyOp19
 70
     1
102
RTVSPropertyOp20
 70
     1
102
RTVSPropertyOp21
 70
     1
102
RTVSPropertyOp22
 70
     1
102
RTVSPropertyOp23
 70
     1
102
RTVSPropertyOp24
 70
     1
102
RTVSPropertyOp25
 70
     1
102
RTVSPropertyOp26
 70
     1
102
RTVSPropertyOp27
 70
     1
102
RTVSPropertyOp28
 70
     1
102
RTVSPropertyOp29
 70
     1
102
RTVSPropertyOp30
 70
     1
102
RTVSPropertyOp31
 70
     1
102
RTVSPropertyOp32
 70
     1
102
RTVSPropertyOp33
 70
     1
102
RTVSPropertyOp34
 70
     1
102
RTVSPropertyOp35
 70
     1
102
RTVSPropertyOp36
 70
     1
102
RTVSPropertyOp37
 70
     1
102
RTVSPropertyOp38
 70
     1
102
RTVSPropertyOp39
 70
     1
102
RTVSPropertyOp40
 70
     1
102
RTVSPropertyOp41
 70
     1
102
RTVSPropertyOp42
 70
     1
102
RTVSPropertyOp43
 70
     1
102
RTVSPropertyOp44
 70
     1
102
RTVSPropertyOp45
 70
     1
102
RTVSPropertyOp46
 70
     1
102
RTVSPropertyOp47
 70
     1
102
RTVSPropertyOp48
 70
     1
102
RTVSPropertyOp49
 70
     1
102
RTVSPropertyOp50
 70
     1
102
RTVSPropertyOp51
 70
     0
102
RTVSPropertyOp52
 70
     0
102
RTVSPropertyOp53
 70
     1
102
RTVSPropertyOp54
 70
     1
102
RTVSPropertyOp55
 70
     1
102
RTVSPropertyOp56
 70
     1
102
RTVSPropertyOp57
 70
     1
102
RTVSPropertyOp58
 70
     1
102
RTVSPropertyOp59
 70
     1
102
RTVSPropertyOp60
 70
     1
102
RTVSPropertyOp61
 70
     1
102
RTVSPropertyOp62
 70
     1
  0
XRECORD
  5
A744
102
{ACAD_REACTORS
330
A743
102
}
330
A743
100
AcDbXrecord
280
     1
102
RTVSPost2010Prop28
280
     0
102
RTVSPost2010PropOp28
 70
     1
102
RTVSPost2010Prop29
280
     1
102
RTVSPost2010PropOp29
 70
     1
102
RTVSPost2010Prop30
280
     1
102
RTVSPost2010PropOp30
 70
     1
102
RTVSPost2010Prop31
280
     0
102
RTVSPost2010PropOp31
 70
     1
102
RTVSPost2010Prop32
280
     0
102
RTVSPost2010PropOp32
 70
     1
102
RTVSPost2010Prop33
280
     0
102
RTVSPost2010PropOp33
 70
     1
102
RTVSPost2010Prop34
280
     0
102
RTVSPost2010PropOp34
 70
     1
102
RTVSPost2010Prop35
280
     0
102
RTVSPost2010PropOp35
 70
     1
102
RTVSPost2010Prop36
280
     0
102
RTVSPost2010PropOp36
 70
     1
102
RTVSPost2010Prop37
 90
       50
102
RTVSPost2010PropOp37
 70
     1
102
RTVSPost2010Prop38
140
0.0
102
RTVSPost2010PropOp38
 70
     1
102
RTVSPost2010Prop39
140
1.0
102
RTVSPost2010PropOp39
 70
     1
102
RTVSPost2010Prop40
 90
        0
102
RTVSPost2010PropOp40
 70
     1
102
RTVSPost2010Prop41ColorIndex
 90
       18
102
RTVSPost2010Prop41ColorRGB
 90
        0
102
RTVSPost2010PropOp41
 70
     1
102
RTVSPost2010Prop42
 90
       50
102
RTVSPost2010PropOp42
 70
     1
102
RTVSPost2010Prop43
 90
        3
102
RTVSPost2010PropOp43
 70
     1
102
RTVSPost2010Prop44ColorIndex
 90
        5
102
RTVSPost2010Prop44ColorRGB
 90
      255
102
RTVSPost2010PropOp44
 70
     1
102
RTVSPost2010Prop45
280
     0
102
RTVSPost2010PropOp45
 70
     1
102
RTVSPost2010Prop46
 90
       50
102
RTVSPost2010PropOp46
 70
     1
102
RTVSPost2010Prop47
 90
       50
102
RTVSPost2010PropOp47
 70
     1
102
RTVSPost2010Prop48
 90
       50
102
RTVSPost2010PropOp48
 70
     1
102
RTVSPost2010Prop49
280
     0
102
RTVSPost2010PropOp49
 70
     1
102
RTVSPost2010Prop50
 90
       50
102
RTVSPost2010PropOp50
 70
     1
102
RTVSPost2010Prop51ColorIndex
 90
      256
102
RTVSPost2010Prop51ColorRGB
 90
-16777216
102
RTVSPost2010PropOp51
 70
     0
102
RTVSPost2010Prop52
140
1.0
102
RTVSPost2010PropOp52
 70
     0
102
RTVSPost2010Prop53
 90
        2
102
RTVSPost2010PropOp53
 70
     1
102
RTVSPost2010Prop54
  1
strokes_ogs.tif
102
RTVSPost2010PropOp54
 70
     1
102
RTVSPost2010Prop55
280
     0
102
RTVSPost2010PropOp55
 70
     1
102
RTVSPost2010Prop56
140
1.0
102
RTVSPost2010PropOp56
 70
     1
102
RTVSPost2010Prop57
140
1.0
102
RTVSPost2010PropOp57
 70
     1
102
RTVSPropertyOp0
 70
     1
102
RTVSPropertyOp1
 70
     1
102
RTVSPropertyOp2
 70
     1
102
RTVSPropertyOp3
 70
     1
102
RTVSPropertyOp4
 70
     1
102
RTVSPropertyOp5
 70
     1
102
RTVSPropertyOp6
 70
     1
102
RTVSPropertyOp7
 70
     1
102
RTVSPropertyOp8
 70
     1
102
RTVSPropertyOp9
 70
     1
102
RTVSPropertyOp10
 70
     1
102
RTVSPropertyOp11
 70
     1
102
RTVSPropertyOp12
 70
     1
102
RTVSPropertyOp13
 70
     1
102
RTVSPropertyOp14
 70
     1
102
RTVSPropertyOp15
 70
     1
102
RTVSPropertyOp16
 70
     1
102
RTVSPropertyOp17
 70
     1
102
RTVSPropertyOp18
 70
     1
102
RTVSPropertyOp19
 70
     1
102
RTVSPropertyOp20
 70
     1
102
RTVSPropertyOp21
 70
     1
102
RTVSPropertyOp22
 70
     1
102
RTVSPropertyOp23
 70
     1
102
RTVSPropertyOp24
 70
     1
102
RTVSPropertyOp25
 70
     1
102
RTVSPropertyOp26
 70
     1
102
RTVSPropertyOp27
 70
     1
102
RTVSPropertyOp28
 70
     1
102
RTVSPropertyOp29
 70
     1
102
RTVSPropertyOp30
 70
     1
102
RTVSPropertyOp31
 70
     1
102
RTVSPropertyOp32
 70
     1
102
RTVSPropertyOp33
 70
     1
102
RTVSPropertyOp34
 70
     1
102
RTVSPropertyOp35
 70
     1
102
RTVSPropertyOp36
 70
     1
102
RTVSPropertyOp37
 70
     1
102
RTVSPropertyOp38
 70
     1
102
RTVSPropertyOp39
 70
     1
102
RTVSPropertyOp40
 70
     1
102
RTVSPropertyOp41
 70
     1
102
RTVSPropertyOp42
 70
     1
102
RTVSPropertyOp43
 70
     1
102
RTVSPropertyOp44
 70
     1
102
RTVSPropertyOp45
 70
     1
102
RTVSPropertyOp46
 70
     1
102
RTVSPropertyOp47
 70
     1
102
RTVSPropertyOp48
 70
     1
102
RTVSPropertyOp49
 70
     1
102
RTVSPropertyOp50
 70
     1
102
RTVSPropertyOp51
 70
     0
102
RTVSPropertyOp52
 70
     0
102
RTVSPropertyOp53
 70
     1
102
RTVSPropertyOp54
 70
     1
102
RTVSPropertyOp55
 70
     1
102
RTVSPropertyOp56
 70
     1
102
RTVSPropertyOp57
 70
     1
102
RTVSPropertyOp58
 70
     1
102
RTVSPropertyOp59
 70
     1
102
RTVSPropertyOp60
 70
     1
102
RTVSPropertyOp61
 70
     1
102
RTVSPropertyOp62
 70
     1
  0
XRECORD
  5
A742
102
{ACAD_REACTORS
330
A741
102
}
330
A741
100
AcDbXrecord
280
     1
102
RTVSPost2010Prop28
280
     0
102
RTVSPost2010PropOp28
 70
     1
102
RTVSPost2010Prop29
280
     1
102
RTVSPost2010PropOp29
 70
     1
102
RTVSPost2010Prop30
280
     1
102
RTVSPost2010PropOp30
 70
     1
102
RTVSPost2010Prop31
280
     0
102
RTVSPost2010PropOp31
 70
     1
102
RTVSPost2010Prop32
280
     0
102
RTVSPost2010PropOp32
 70
     1
102
RTVSPost2010Prop33
280
     0
102
RTVSPost2010PropOp33
 70
     1
102
RTVSPost2010Prop34
280
     0
102
RTVSPost2010PropOp34
 70
     1
102
RTVSPost2010Prop35
280
     0
102
RTVSPost2010PropOp35
 70
     1
102
RTVSPost2010Prop36
280
     0
102
RTVSPost2010PropOp36
 70
     1
102
RTVSPost2010Prop37
 90
       50
102
RTVSPost2010PropOp37
 70
     1
102
RTVSPost2010Prop38
140
0.0
102
RTVSPost2010PropOp38
 70
     1
102
RTVSPost2010Prop39
140
1.0
102
RTVSPost2010PropOp39
 70
     1
102
RTVSPost2010Prop40
 90
        0
102
RTVSPost2010PropOp40
 70
     1
102
RTVSPost2010Prop41ColorIndex
 90
       18
102
RTVSPost2010Prop41ColorRGB
 90
        0
102
RTVSPost2010PropOp41
 70
     1
102
RTVSPost2010Prop42
 90
       50
102
RTVSPost2010PropOp42
 70
     1
102
RTVSPost2010Prop43
 90
        3
102
RTVSPost2010PropOp43
 70
     1
102
RTVSPost2010Prop44ColorIndex
 90
        5
102
RTVSPost2010Prop44ColorRGB
 90
      255
102
RTVSPost2010PropOp44
 70
     1
102
RTVSPost2010Prop45
280
     0
102
RTVSPost2010PropOp45
 70
     1
102
RTVSPost2010Prop46
 90
       50
102
RTVSPost2010PropOp46
 70
     1
102
RTVSPost2010Prop47
 90
       50
102
RTVSPost2010PropOp47
 70
     1
102
RTVSPost2010Prop48
 90
       50
102
RTVSPost2010PropOp48
 70
     1
102
RTVSPost2010Prop49
280
     0
102
RTVSPost2010PropOp49
 70
     1
102
RTVSPost2010Prop50
 90
       50
102
RTVSPost2010PropOp50
 70
     1
102
RTVSPost2010Prop51ColorIndex
 90
      256
102
RTVSPost2010Prop51ColorRGB
 90
-16777216
102
RTVSPost2010PropOp51
 70
     0
102
RTVSPost2010Prop52
140
1.0
102
RTVSPost2010PropOp52
 70
     0
102
RTVSPost2010Prop53
 90
        2
102
RTVSPost2010PropOp53
 70
     1
102
RTVSPost2010Prop54
  1
strokes_ogs.tif
102
RTVSPost2010PropOp54
 70
     1
102
RTVSPost2010Prop55
280
     0
102
RTVSPost2010PropOp55
 70
     1
102
RTVSPost2010Prop56
140
1.0
102
RTVSPost2010PropOp56
 70
     1
102
RTVSPost2010Prop57
140
1.0
102
RTVSPost2010PropOp57
 70
     1
102
RTVSPropertyOp0
 70
     1
102
RTVSPropertyOp1
 70
     1
102
RTVSPropertyOp2
 70
     1
102
RTVSPropertyOp3
 70
     1
102
RTVSPropertyOp4
 70
     1
102
RTVSPropertyOp5
 70
     1
102
RTVSPropertyOp6
 70
     1
102
RTVSPropertyOp7
 70
     1
102
RTVSPropertyOp8
 70
     1
102
RTVSPropertyOp9
 70
     1
102
RTVSPropertyOp10
 70
     1
102
RTVSPropertyOp11
 70
     1
102
RTVSPropertyOp12
 70
     1
102
RTVSPropertyOp13
 70
     1
102
RTVSPropertyOp14
 70
     1
102
RTVSPropertyOp15
 70
     1
102
RTVSPropertyOp16
 70
     1
102
RTVSPropertyOp17
 70
     1
102
RTVSPropertyOp18
 70
     1
102
RTVSPropertyOp19
 70
     1
102
RTVSPropertyOp20
 70
     1
102
RTVSPropertyOp21
 70
     1
102
RTVSPropertyOp22
 70
     1
102
RTVSPropertyOp23
 70
     1
102
RTVSPropertyOp24
 70
     1
102
RTVSPropertyOp25
 70
     1
102
RTVSPropertyOp26
 70
     1
102
RTVSPropertyOp27
 70
     1
102
RTVSPropertyOp28
 70
     1
102
RTVSPropertyOp29
 70
     1
102
RTVSPropertyOp30
 70
     1
102
RTVSPropertyOp31
 70
     1
102
RTVSPropertyOp32
 70
     1
102
RTVSPropertyOp33
 70
     1
102
RTVSPropertyOp34
 70
     1
102
RTVSPropertyOp35
 70
     1
102
RTVSPropertyOp36
 70
     1
102
RTVSPropertyOp37
 70
     1
102
RTVSPropertyOp38
 70
     1
102
RTVSPropertyOp39
 70
     1
102
RTVSPropertyOp40
 70
     1
102
RTVSPropertyOp41
 70
     1
102
RTVSPropertyOp42
 70
     1
102
RTVSPropertyOp43
 70
     1
102
RTVSPropertyOp44
 70
     1
102
RTVSPropertyOp45
 70
     1
102
RTVSPropertyOp46
 70
     1
102
RTVSPropertyOp47
 70
     1
102
RTVSPropertyOp48
 70
     1
102
RTVSPropertyOp49
 70
     1
102
RTVSPropertyOp50
 70
     1
102
RTVSPropertyOp51
 70
     0
102
RTVSPropertyOp52
 70
     0
102
RTVSPropertyOp53
 70
     1
102
RTVSPropertyOp54
 70
     1
102
RTVSPropertyOp55
 70
     1
102
RTVSPropertyOp56
 70
     1
102
RTVSPropertyOp57
 70
     1
102
RTVSPropertyOp58
 70
     1
102
RTVSPropertyOp59
 70
     1
102
RTVSPropertyOp60
 70
     1
102
RTVSPropertyOp61
 70
     1
102
RTVSPropertyOp62
 70
     1
  0
XRECORD
  5
A73C
102
{ACAD_REACTORS
330
A73B
102
}
330
A73B
100
AcDbXrecord
280
     1
102
RTVSPost2010Prop28
280
     0
102
RTVSPost2010PropOp28
 70
     1
102
RTVSPost2010Prop29
280
     1
102
RTVSPost2010PropOp29
 70
     1
102
RTVSPost2010Prop30
280
     1
102
RTVSPost2010PropOp30
 70
     1
102
RTVSPost2010Prop31
280
     0
102
RTVSPost2010PropOp31
 70
     1
102
RTVSPost2010Prop32
280
     0
102
RTVSPost2010PropOp32
 70
     1
102
RTVSPost2010Prop33
280
     0
102
RTVSPost2010PropOp33
 70
     1
102
RTVSPost2010Prop34
280
     0
102
RTVSPost2010PropOp34
 70
     1
102
RTVSPost2010Prop35
280
     0
102
RTVSPost2010PropOp35
 70
     1
102
RTVSPost2010Prop36
280
     0
102
RTVSPost2010PropOp36
 70
     1
102
RTVSPost2010Prop37
 90
       50
102
RTVSPost2010PropOp37
 70
     1
102
RTVSPost2010Prop38
140
0.0
102
RTVSPost2010PropOp38
 70
     1
102
RTVSPost2010Prop39
140
1.0
102
RTVSPost2010PropOp39
 70
     1
102
RTVSPost2010Prop40
 90
        0
102
RTVSPost2010PropOp40
 70
     1
102
RTVSPost2010Prop41ColorIndex
 90
       18
102
RTVSPost2010Prop41ColorRGB
 90
        0
102
RTVSPost2010PropOp41
 70
     1
102
RTVSPost2010Prop42
 90
       50
102
RTVSPost2010PropOp42
 70
     1
102
RTVSPost2010Prop43
 90
        3
102
RTVSPost2010PropOp43
 70
     1
102
RTVSPost2010Prop44ColorIndex
 90
        5
102
RTVSPost2010Prop44ColorRGB
 90
      255
102
RTVSPost2010PropOp44
 70
     1
102
RTVSPost2010Prop45
280
     0
102
RTVSPost2010PropOp45
 70
     1
102
RTVSPost2010Prop46
 90
       50
102
RTVSPost2010PropOp46
 70
     1
102
RTVSPost2010Prop47
 90
       50
102
RTVSPost2010PropOp47
 70
     1
102
RTVSPost2010Prop48
 90
       50
102
RTVSPost2010PropOp48
 70
     1
102
RTVSPost2010Prop49
280
     0
102
RTVSPost2010PropOp49
 70
     1
102
RTVSPost2010Prop50
 90
       50
102
RTVSPost2010PropOp50
 70
     1
102
RTVSPost2010Prop51ColorIndex
 90
      256
102
RTVSPost2010Prop51ColorRGB
 90
-16777216
102
RTVSPost2010PropOp51
 70
     0
102
RTVSPost2010Prop52
140
1.0
102
RTVSPost2010PropOp52
 70
     0
102
RTVSPost2010Prop53
 90
        2
102
RTVSPost2010PropOp53
 70
     1
102
RTVSPost2010Prop54
  1
strokes_ogs.tif
102
RTVSPost2010PropOp54
 70
     1
102
RTVSPost2010Prop55
280
     0
102
RTVSPost2010PropOp55
 70
     1
102
RTVSPost2010Prop56
140
1.0
102
RTVSPost2010PropOp56
 70
     1
102
RTVSPost2010Prop57
140
1.0
102
RTVSPost2010PropOp57
 70
     1
102
RTVSPropertyOp0
 70
     1
102
RTVSPropertyOp1
 70
     1
102
RTVSPropertyOp2
 70
     1
102
RTVSPropertyOp3
 70
     1
102
RTVSPropertyOp4
 70
     1
102
RTVSPropertyOp5
 70
     1
102
RTVSPropertyOp6
 70
     1
102
RTVSPropertyOp7
 70
     1
102
RTVSPropertyOp8
 70
     1
102
RTVSPropertyOp9
 70
     1
102
RTVSPropertyOp10
 70
     1
102
RTVSPropertyOp11
 70
     1
102
RTVSPropertyOp12
 70
     1
102
RTVSPropertyOp13
 70
     1
102
RTVSPropertyOp14
 70
     1
102
RTVSPropertyOp15
 70
     1
102
RTVSPropertyOp16
 70
     1
102
RTVSPropertyOp17
 70
     1
102
RTVSPropertyOp18
 70
     1
102
RTVSPropertyOp19
 70
     1
102
RTVSPropertyOp20
 70
     1
102
RTVSPropertyOp21
 70
     1
102
RTVSPropertyOp22
 70
     1
102
RTVSPropertyOp23
 70
     1
102
RTVSPropertyOp24
 70
     1
102
RTVSPropertyOp25
 70
     1
102
RTVSPropertyOp26
 70
     1
102
RTVSPropertyOp27
 70
     1
102
RTVSPropertyOp28
 70
     1
102
RTVSPropertyOp29
 70
     1
102
RTVSPropertyOp30
 70
     1
102
RTVSPropertyOp31
 70
     1
102
RTVSPropertyOp32
 70
     1
102
RTVSPropertyOp33
 70
     1
102
RTVSPropertyOp34
 70
     1
102
RTVSPropertyOp35
 70
     1
102
RTVSPropertyOp36
 70
     1
102
RTVSPropertyOp37
 70
     1
102
RTVSPropertyOp38
 70
     1
102
RTVSPropertyOp39
 70
     1
102
RTVSPropertyOp40
 70
     1
102
RTVSPropertyOp41
 70
     1
102
RTVSPropertyOp42
 70
     1
102
RTVSPropertyOp43
 70
     1
102
RTVSPropertyOp44
 70
     1
102
RTVSPropertyOp45
 70
     1
102
RTVSPropertyOp46
 70
     1
102
RTVSPropertyOp47
 70
     1
102
RTVSPropertyOp48
 70
     1
102
RTVSPropertyOp49
 70
     1
102
RTVSPropertyOp50
 70
     1
102
RTVSPropertyOp51
 70
     0
102
RTVSPropertyOp52
 70
     0
102
RTVSPropertyOp53
 70
     1
102
RTVSPropertyOp54
 70
     1
102
RTVSPropertyOp55
 70
     1
102
RTVSPropertyOp56
 70
     1
102
RTVSPropertyOp57
 70
     1
102
RTVSPropertyOp58
 70
     1
102
RTVSPropertyOp59
 70
     1
102
RTVSPropertyOp60
 70
     1
102
RTVSPropertyOp61
 70
     1
102
RTVSPropertyOp62
 70
     1
  0
XRECORD
  5
A73E
102
{ACAD_REACTORS
330
A73D
102
}
330
A73D
100
AcDbXrecord
280
     1
102
RTVSPost2010Prop28
280
     0
102
RTVSPost2010PropOp28
 70
     1
102
RTVSPost2010Prop29
280
     1
102
RTVSPost2010PropOp29
 70
     1
102
RTVSPost2010Prop30
280
     1
102
RTVSPost2010PropOp30
 70
     1
102
RTVSPost2010Prop31
280
     0
102
RTVSPost2010PropOp31
 70
     1
102
RTVSPost2010Prop32
280
     0
102
RTVSPost2010PropOp32
 70
     1
102
RTVSPost2010Prop33
280
     0
102
RTVSPost2010PropOp33
 70
     1
102
RTVSPost2010Prop34
280
     0
102
RTVSPost2010PropOp34
 70
     1
102
RTVSPost2010Prop35
280
     0
102
RTVSPost2010PropOp35
 70
     1
102
RTVSPost2010Prop36
280
     0
102
RTVSPost2010PropOp36
 70
     1
102
RTVSPost2010Prop37
 90
       50
102
RTVSPost2010PropOp37
 70
     1
102
RTVSPost2010Prop38
140
0.0
102
RTVSPost2010PropOp38
 70
     1
102
RTVSPost2010Prop39
140
1.0
102
RTVSPost2010PropOp39
 70
     1
102
RTVSPost2010Prop40
 90
        0
102
RTVSPost2010PropOp40
 70
     1
102
RTVSPost2010Prop41ColorIndex
 90
       18
102
RTVSPost2010Prop41ColorRGB
 90
        0
102
RTVSPost2010PropOp41
 70
     1
102
RTVSPost2010Prop42
 90
       50
102
RTVSPost2010PropOp42
 70
     1
102
RTVSPost2010Prop43
 90
        3
102
RTVSPost2010PropOp43
 70
     1
102
RTVSPost2010Prop44ColorIndex
 90
        5
102
RTVSPost2010Prop44ColorRGB
 90
      255
102
RTVSPost2010PropOp44
 70
     1
102
RTVSPost2010Prop45
280
     0
102
RTVSPost2010PropOp45
 70
     1
102
RTVSPost2010Prop46
 90
       50
102
RTVSPost2010PropOp46
 70
     1
102
RTVSPost2010Prop47
 90
       50
102
RTVSPost2010PropOp47
 70
     1
102
RTVSPost2010Prop48
 90
       50
102
RTVSPost2010PropOp48
 70
     1
102
RTVSPost2010Prop49
280
     0
102
RTVSPost2010PropOp49
 70
     1
102
RTVSPost2010Prop50
 90
       50
102
RTVSPost2010PropOp50
 70
     1
102
RTVSPost2010Prop51ColorIndex
 90
      256
102
RTVSPost2010Prop51ColorRGB
 90
-16777216
102
RTVSPost2010PropOp51
 70
     0
102
RTVSPost2010Prop52
140
1.0
102
RTVSPost2010PropOp52
 70
     0
102
RTVSPost2010Prop53
 90
        2
102
RTVSPost2010PropOp53
 70
     1
102
RTVSPost2010Prop54
  1
strokes_ogs.tif
102
RTVSPost2010PropOp54
 70
     1
102
RTVSPost2010Prop55
280
     0
102
RTVSPost2010PropOp55
 70
     1
102
RTVSPost2010Prop56
140
1.0
102
RTVSPost2010PropOp56
 70
     1
102
RTVSPost2010Prop57
140
1.0
102
RTVSPost2010PropOp57
 70
     1
102
RTVSPropertyOp0
 70
     1
102
RTVSPropertyOp1
 70
     1
102
RTVSPropertyOp2
 70
     1
102
RTVSPropertyOp3
 70
     1
102
RTVSPropertyOp4
 70
     1
102
RTVSPropertyOp5
 70
     1
102
RTVSPropertyOp6
 70
     1
102
RTVSPropertyOp7
 70
     1
102
RTVSPropertyOp8
 70
     1
102
RTVSPropertyOp9
 70
     1
102
RTVSPropertyOp10
 70
     1
102
RTVSPropertyOp11
 70
     1
102
RTVSPropertyOp12
 70
     1
102
RTVSPropertyOp13
 70
     1
102
RTVSPropertyOp14
 70
     1
102
RTVSPropertyOp15
 70
     1
102
RTVSPropertyOp16
 70
     1
102
RTVSPropertyOp17
 70
     1
102
RTVSPropertyOp18
 70
     1
102
RTVSPropertyOp19
 70
     1
102
RTVSPropertyOp20
 70
     1
102
RTVSPropertyOp21
 70
     1
102
RTVSPropertyOp22
 70
     1
102
RTVSPropertyOp23
 70
     1
102
RTVSPropertyOp24
 70
     1
102
RTVSPropertyOp25
 70
     1
102
RTVSPropertyOp26
 70
     1
102
RTVSPropertyOp27
 70
     1
102
RTVSPropertyOp28
 70
     1
102
RTVSPropertyOp29
 70
     1
102
RTVSPropertyOp30
 70
     1
102
RTVSPropertyOp31
 70
     1
102
RTVSPropertyOp32
 70
     1
102
RTVSPropertyOp33
 70
     1
102
RTVSPropertyOp34
 70
     1
102
RTVSPropertyOp35
 70
     1
102
RTVSPropertyOp36
 70
     1
102
RTVSPropertyOp37
 70
     1
102
RTVSPropertyOp38
 70
     1
102
RTVSPropertyOp39
 70
     1
102
RTVSPropertyOp40
 70
     1
102
RTVSPropertyOp41
 70
     1
102
RTVSPropertyOp42
 70
     1
102
RTVSPropertyOp43
 70
     1
102
RTVSPropertyOp44
 70
     1
102
RTVSPropertyOp45
 70
     1
102
RTVSPropertyOp46
 70
     1
102
RTVSPropertyOp47
 70
     1
102
RTVSPropertyOp48
 70
     1
102
RTVSPropertyOp49
 70
     1
102
RTVSPropertyOp50
 70
     1
102
RTVSPropertyOp51
 70
     0
102
RTVSPropertyOp52
 70
     0
102
RTVSPropertyOp53
 70
     1
102
RTVSPropertyOp54
 70
     1
102
RTVSPropertyOp55
 70
     1
102
RTVSPropertyOp56
 70
     1
102
RTVSPropertyOp57
 70
     1
102
RTVSPropertyOp58
 70
     1
102
RTVSPropertyOp59
 70
     1
102
RTVSPropertyOp60
 70
     1
102
RTVSPropertyOp61
 70
     1
102
RTVSPropertyOp62
 70
     1
  0
XRECORD
  5
A734
102
{ACAD_REACTORS
330
A733
102
}
330
A733
100
AcDbXrecord
280
     1
102
RTVSPost2010Prop28
280
     0
102
RTVSPost2010PropOp28
 70
     1
102
RTVSPost2010Prop29
280
     1
102
RTVSPost2010PropOp29
 70
     1
102
RTVSPost2010Prop30
280
     1
102
RTVSPost2010PropOp30
 70
     1
102
RTVSPost2010Prop31
280
     0
102
RTVSPost2010PropOp31
 70
     1
102
RTVSPost2010Prop32
280
     0
102
RTVSPost2010PropOp32
 70
     1
102
RTVSPost2010Prop33
280
     0
102
RTVSPost2010PropOp33
 70
     1
102
RTVSPost2010Prop34
280
     0
102
RTVSPost2010PropOp34
 70
     1
102
RTVSPost2010Prop35
280
     0
102
RTVSPost2010PropOp35
 70
     1
102
RTVSPost2010Prop36
280
     0
102
RTVSPost2010PropOp36
 70
     1
102
RTVSPost2010Prop37
 90
       50
102
RTVSPost2010PropOp37
 70
     1
102
RTVSPost2010Prop38
140
0.0
102
RTVSPost2010PropOp38
 70
     1
102
RTVSPost2010Prop39
140
1.0
102
RTVSPost2010PropOp39
 70
     1
102
RTVSPost2010Prop40
 90
        0
102
RTVSPost2010PropOp40
 70
     1
102
RTVSPost2010Prop41ColorIndex
 90
       18
102
RTVSPost2010Prop41ColorRGB
 90
        0
102
RTVSPost2010PropOp41
 70
     1
102
RTVSPost2010Prop42
 90
       50
102
RTVSPost2010PropOp42
 70
     1
102
RTVSPost2010Prop43
 90
        3
102
RTVSPost2010PropOp43
 70
     1
102
RTVSPost2010Prop44ColorIndex
 90
        5
102
RTVSPost2010Prop44ColorRGB
 90
      255
102
RTVSPost2010PropOp44
 70
     1
102
RTVSPost2010Prop45
280
     0
102
RTVSPost2010PropOp45
 70
     1
102
RTVSPost2010Prop46
 90
       50
102
RTVSPost2010PropOp46
 70
     1
102
RTVSPost2010Prop47
 90
       50
102
RTVSPost2010PropOp47
 70
     1
102
RTVSPost2010Prop48
 90
       50
102
RTVSPost2010PropOp48
 70
     1
102
RTVSPost2010Prop49
280
     0
102
RTVSPost2010PropOp49
 70
     1
102
RTVSPost2010Prop50
 90
       50
102
RTVSPost2010PropOp50
 70
     1
102
RTVSPost2010Prop51ColorIndex
 90
      256
102
RTVSPost2010Prop51ColorRGB
 90
-16777216
102
RTVSPost2010PropOp51
 70
     0
102
RTVSPost2010Prop52
140
1.0
102
RTVSPost2010PropOp52
 70
     0
102
RTVSPost2010Prop53
 90
        2
102
RTVSPost2010PropOp53
 70
     1
102
RTVSPost2010Prop54
  1
strokes_ogs.tif
102
RTVSPost2010PropOp54
 70
     1
102
RTVSPost2010Prop55
280
     0
102
RTVSPost2010PropOp55
 70
     1
102
RTVSPost2010Prop56
140
1.0
102
RTVSPost2010PropOp56
 70
     1
102
RTVSPost2010Prop57
140
1.0
102
RTVSPost2010PropOp57
 70
     1
102
RTVSPropertyOp0
 70
     1
102
RTVSPropertyOp1
 70
     1
102
RTVSPropertyOp2
 70
     1
102
RTVSPropertyOp3
 70
     1
102
RTVSPropertyOp4
 70
     1
102
RTVSPropertyOp5
 70
     1
102
RTVSPropertyOp6
 70
     1
102
RTVSPropertyOp7
 70
     1
102
RTVSPropertyOp8
 70
     1
102
RTVSPropertyOp9
 70
     1
102
RTVSPropertyOp10
 70
     1
102
RTVSPropertyOp11
 70
     1
102
RTVSPropertyOp12
 70
     1
102
RTVSPropertyOp13
 70
     1
102
RTVSPropertyOp14
 70
     1
102
RTVSPropertyOp15
 70
     1
102
RTVSPropertyOp16
 70
     1
102
RTVSPropertyOp17
 70
     1
102
RTVSPropertyOp18
 70
     1
102
RTVSPropertyOp19
 70
     1
102
RTVSPropertyOp20
 70
     1
102
RTVSPropertyOp21
 70
     1
102
RTVSPropertyOp22
 70
     1
102
RTVSPropertyOp23
 70
     1
102
RTVSPropertyOp24
 70
     1
102
RTVSPropertyOp25
 70
     1
102
RTVSPropertyOp26
 70
     1
102
RTVSPropertyOp27
 70
     1
102
RTVSPropertyOp28
 70
     1
102
RTVSPropertyOp29
 70
     1
102
RTVSPropertyOp30
 70
     1
102
RTVSPropertyOp31
 70
     1
102
RTVSPropertyOp32
 70
     1
102
RTVSPropertyOp33
 70
     1
102
RTVSPropertyOp34
 70
     1
102
RTVSPropertyOp35
 70
     1
102
RTVSPropertyOp36
 70
     1
102
RTVSPropertyOp37
 70
     1
102
RTVSPropertyOp38
 70
     1
102
RTVSPropertyOp39
 70
     1
102
RTVSPropertyOp40
 70
     1
102
RTVSPropertyOp41
 70
     1
102
RTVSPropertyOp42
 70
     1
102
RTVSPropertyOp43
 70
     1
102
RTVSPropertyOp44
 70
     1
102
RTVSPropertyOp45
 70
     1
102
RTVSPropertyOp46
 70
     1
102
RTVSPropertyOp47
 70
     1
102
RTVSPropertyOp48
 70
     1
102
RTVSPropertyOp49
 70
     1
102
RTVSPropertyOp50
 70
     1
102
RTVSPropertyOp51
 70
     0
102
RTVSPropertyOp52
 70
     0
102
RTVSPropertyOp53
 70
     1
102
RTVSPropertyOp54
 70
     1
102
RTVSPropertyOp55
 70
     1
102
RTVSPropertyOp56
 70
     1
102
RTVSPropertyOp57
 70
     1
102
RTVSPropertyOp58
 70
     1
102
RTVSPropertyOp59
 70
     1
102
RTVSPropertyOp60
 70
     1
102
RTVSPropertyOp61
 70
     1
102
RTVSPropertyOp62
 70
     1
  0
XRECORD
  5
A728
102
{ACAD_REACTORS
330
A727
102
}
330
A727
100
AcDbXrecord
280
     1
102
RTVSPost2010Prop28
280
     0
102
RTVSPost2010PropOp28
 70
     1
102
RTVSPost2010Prop29
280
     1
102
RTVSPost2010PropOp29
 70
     1
102
RTVSPost2010Prop30
280
     1
102
RTVSPost2010PropOp30
 70
     1
102
RTVSPost2010Prop31
280
     0
102
RTVSPost2010PropOp31
 70
     1
102
RTVSPost2010Prop32
280
     0
102
RTVSPost2010PropOp32
 70
     1
102
RTVSPost2010Prop33
280
     0
102
RTVSPost2010PropOp33
 70
     1
102
RTVSPost2010Prop34
280
     0
102
RTVSPost2010PropOp34
 70
     1
102
RTVSPost2010Prop35
280
     0
102
RTVSPost2010PropOp35
 70
     1
102
RTVSPost2010Prop36
280
     0
102
RTVSPost2010PropOp36
 70
     1
102
RTVSPost2010Prop37
 90
       50
102
RTVSPost2010PropOp37
 70
     1
102
RTVSPost2010Prop38
140
0.0
102
RTVSPost2010PropOp38
 70
     1
102
RTVSPost2010Prop39
140
1.0
102
RTVSPost2010PropOp39
 70
     1
102
RTVSPost2010Prop40
 90
        0
102
RTVSPost2010PropOp40
 70
     1
102
RTVSPost2010Prop41ColorIndex
 90
       18
102
RTVSPost2010Prop41ColorRGB
 90
        0
102
RTVSPost2010PropOp41
 70
     1
102
RTVSPost2010Prop42
 90
       50
102
RTVSPost2010PropOp42
 70
     1
102
RTVSPost2010Prop43
 90
        3
102
RTVSPost2010PropOp43
 70
     1
102
RTVSPost2010Prop44ColorIndex
 90
        5
102
RTVSPost2010Prop44ColorRGB
 90
      255
102
RTVSPost2010PropOp44
 70
     1
102
RTVSPost2010Prop45
280
     0
102
RTVSPost2010PropOp45
 70
     1
102
RTVSPost2010Prop46
 90
       50
102
RTVSPost2010PropOp46
 70
     1
102
RTVSPost2010Prop47
 90
       50
102
RTVSPost2010PropOp47
 70
     1
102
RTVSPost2010Prop48
 90
       50
102
RTVSPost2010PropOp48
 70
     1
102
RTVSPost2010Prop49
280
     0
102
RTVSPost2010PropOp49
 70
     1
102
RTVSPost2010Prop50
 90
       50
102
RTVSPost2010PropOp50
 70
     1
102
RTVSPost2010Prop51ColorIndex
 90
      256
102
RTVSPost2010Prop51ColorRGB
 90
-16777216
102
RTVSPost2010PropOp51
 70
     0
102
RTVSPost2010Prop52
140
1.0
102
RTVSPost2010PropOp52
 70
     0
102
RTVSPost2010Prop53
 90
        2
102
RTVSPost2010PropOp53
 70
     1
102
RTVSPost2010Prop54
  1
strokes_ogs.tif
102
RTVSPost2010PropOp54
 70
     1
102
RTVSPost2010Prop55
280
     0
102
RTVSPost2010PropOp55
 70
     1
102
RTVSPost2010Prop56
140
1.0
102
RTVSPost2010PropOp56
 70
     1
102
RTVSPost2010Prop57
140
1.0
102
RTVSPost2010PropOp57
 70
     1
102
RTVSPropertyOp0
 70
     1
102
RTVSPropertyOp1
 70
     1
102
RTVSPropertyOp2
 70
     1
102
RTVSPropertyOp3
 70
     1
102
RTVSPropertyOp4
 70
     1
102
RTVSPropertyOp5
 70
     1
102
RTVSPropertyOp6
 70
     1
102
RTVSPropertyOp7
 70
     1
102
RTVSPropertyOp8
 70
     1
102
RTVSPropertyOp9
 70
     1
102
RTVSPropertyOp10
 70
     1
102
RTVSPropertyOp11
 70
     1
102
RTVSPropertyOp12
 70
     1
102
RTVSPropertyOp13
 70
     1
102
RTVSPropertyOp14
 70
     1
102
RTVSPropertyOp15
 70
     1
102
RTVSPropertyOp16
 70
     1
102
RTVSPropertyOp17
 70
     1
102
RTVSPropertyOp18
 70
     1
102
RTVSPropertyOp19
 70
     1
102
RTVSPropertyOp20
 70
     1
102
RTVSPropertyOp21
 70
     1
102
RTVSPropertyOp22
 70
     1
102
RTVSPropertyOp23
 70
     1
102
RTVSPropertyOp24
 70
     1
102
RTVSPropertyOp25
 70
     1
102
RTVSPropertyOp26
 70
     1
102
RTVSPropertyOp27
 70
     1
102
RTVSPropertyOp28
 70
     1
102
RTVSPropertyOp29
 70
     1
102
RTVSPropertyOp30
 70
     1
102
RTVSPropertyOp31
 70
     1
102
RTVSPropertyOp32
 70
     1
102
RTVSPropertyOp33
 70
     1
102
RTVSPropertyOp34
 70
     1
102
RTVSPropertyOp35
 70
     1
102
RTVSPropertyOp36
 70
     1
102
RTVSPropertyOp37
 70
     1
102
RTVSPropertyOp38
 70
     1
102
RTVSPropertyOp39
 70
     1
102
RTVSPropertyOp40
 70
     1
102
RTVSPropertyOp41
 70
     1
102
RTVSPropertyOp42
 70
     1
102
RTVSPropertyOp43
 70
     1
102
RTVSPropertyOp44
 70
     1
102
RTVSPropertyOp45
 70
     1
102
RTVSPropertyOp46
 70
     1
102
RTVSPropertyOp47
 70
     1
102
RTVSPropertyOp48
 70
     1
102
RTVSPropertyOp49
 70
     1
102
RTVSPropertyOp50
 70
     1
102
RTVSPropertyOp51
 70
     0
102
RTVSPropertyOp52
 70
     0
102
RTVSPropertyOp53
 70
     1
102
RTVSPropertyOp54
 70
     1
102
RTVSPropertyOp55
 70
     1
102
RTVSPropertyOp56
 70
     1
102
RTVSPropertyOp57
 70
     1
102
RTVSPropertyOp58
 70
     1
102
RTVSPropertyOp59
 70
     1
102
RTVSPropertyOp60
 70
     1
102
RTVSPropertyOp61
 70
     1
102
RTVSPropertyOp62
 70
     1
  0
XRECORD
  5
A740
102
{ACAD_REACTORS
330
A73F
102
}
330
A73F
100
AcDbXrecord
280
     1
102
RTVSPost2010Prop28
280
     0
102
RTVSPost2010PropOp28
 70
     1
102
RTVSPost2010Prop29
280
     1
102
RTVSPost2010PropOp29
 70
     1
102
RTVSPost2010Prop30
280
     1
102
RTVSPost2010PropOp30
 70
     1
102
RTVSPost2010Prop31
280
     0
102
RTVSPost2010PropOp31
 70
     1
102
RTVSPost2010Prop32
280
     0
102
RTVSPost2010PropOp32
 70
     1
102
RTVSPost2010Prop33
280
     0
102
RTVSPost2010PropOp33
 70
     1
102
RTVSPost2010Prop34
280
     0
102
RTVSPost2010PropOp34
 70
     1
102
RTVSPost2010Prop35
280
     0
102
RTVSPost2010PropOp35
 70
     1
102
RTVSPost2010Prop36
280
     0
102
RTVSPost2010PropOp36
 70
     1
102
RTVSPost2010Prop37
 90
       50
102
RTVSPost2010PropOp37
 70
     1
102
RTVSPost2010Prop38
140
0.0
102
RTVSPost2010PropOp38
 70
     1
102
RTVSPost2010Prop39
140
1.0
102
RTVSPost2010PropOp39
 70
     1
102
RTVSPost2010Prop40
 90
        0
102
RTVSPost2010PropOp40
 70
     1
102
RTVSPost2010Prop41ColorIndex
 90
       18
102
RTVSPost2010Prop41ColorRGB
 90
        0
102
RTVSPost2010PropOp41
 70
     1
102
RTVSPost2010Prop42
 90
       50
102
RTVSPost2010PropOp42
 70
     1
102
RTVSPost2010Prop43
 90
        3
102
RTVSPost2010PropOp43
 70
     1
102
RTVSPost2010Prop44ColorIndex
 90
        5
102
RTVSPost2010Prop44ColorRGB
 90
      255
102
RTVSPost2010PropOp44
 70
     1
102
RTVSPost2010Prop45
280
     0
102
RTVSPost2010PropOp45
 70
     1
102
RTVSPost2010Prop46
 90
       50
102
RTVSPost2010PropOp46
 70
     1
102
RTVSPost2010Prop47
 90
       50
102
RTVSPost2010PropOp47
 70
     1
102
RTVSPost2010Prop48
 90
       50
102
RTVSPost2010PropOp48
 70
     1
102
RTVSPost2010Prop49
280
     0
102
RTVSPost2010PropOp49
 70
     1
102
RTVSPost2010Prop50
 90
       50
102
RTVSPost2010PropOp50
 70
     1
102
RTVSPost2010Prop51ColorIndex
 90
      256
102
RTVSPost2010Prop51ColorRGB
 90
-16777216
102
RTVSPost2010PropOp51
 70
     0
102
RTVSPost2010Prop52
140
1.0
102
RTVSPost2010PropOp52
 70
     0
102
RTVSPost2010Prop53
 90
        2
102
RTVSPost2010PropOp53
 70
     1
102
RTVSPost2010Prop54
  1
strokes_ogs.tif
102
RTVSPost2010PropOp54
 70
     1
102
RTVSPost2010Prop55
280
     0
102
RTVSPost2010PropOp55
 70
     1
102
RTVSPost2010Prop56
140
1.0
102
RTVSPost2010PropOp56
 70
     1
102
RTVSPost2010Prop57
140
1.0
102
RTVSPost2010PropOp57
 70
     1
102
RTVSPropertyOp0
 70
     1
102
RTVSPropertyOp1
 70
     1
102
RTVSPropertyOp2
 70
     1
102
RTVSPropertyOp3
 70
     1
102
RTVSPropertyOp4
 70
     1
102
RTVSPropertyOp5
 70
     1
102
RTVSPropertyOp6
 70
     1
102
RTVSPropertyOp7
 70
     1
102
RTVSPropertyOp8
 70
     1
102
RTVSPropertyOp9
 70
     1
102
RTVSPropertyOp10
 70
     1
102
RTVSPropertyOp11
 70
     1
102
RTVSPropertyOp12
 70
     1
102
RTVSPropertyOp13
 70
     1
102
RTVSPropertyOp14
 70
     1
102
RTVSPropertyOp15
 70
     1
102
RTVSPropertyOp16
 70
     1
102
RTVSPropertyOp17
 70
     1
102
RTVSPropertyOp18
 70
     1
102
RTVSPropertyOp19
 70
     1
102
RTVSPropertyOp20
 70
     1
102
RTVSPropertyOp21
 70
     1
102
RTVSPropertyOp22
 70
     1
102
RTVSPropertyOp23
 70
     1
102
RTVSPropertyOp24
 70
     1
102
RTVSPropertyOp25
 70
     1
102
RTVSPropertyOp26
 70
     1
102
RTVSPropertyOp27
 70
     1
102
RTVSPropertyOp28
 70
     1
102
RTVSPropertyOp29
 70
     1
102
RTVSPropertyOp30
 70
     1
102
RTVSPropertyOp31
 70
     1
102
RTVSPropertyOp32
 70
     1
102
RTVSPropertyOp33
 70
     1
102
RTVSPropertyOp34
 70
     1
102
RTVSPropertyOp35
 70
     1
102
RTVSPropertyOp36
 70
     1
102
RTVSPropertyOp37
 70
     1
102
RTVSPropertyOp38
 70
     1
102
RTVSPropertyOp39
 70
     1
102
RTVSPropertyOp40
 70
     1
102
RTVSPropertyOp41
 70
     1
102
RTVSPropertyOp42
 70
     1
102
RTVSPropertyOp43
 70
     1
102
RTVSPropertyOp44
 70
     1
102
RTVSPropertyOp45
 70
     1
102
RTVSPropertyOp46
 70
     1
102
RTVSPropertyOp47
 70
     1
102
RTVSPropertyOp48
 70
     1
102
RTVSPropertyOp49
 70
     1
102
RTVSPropertyOp50
 70
     1
102
RTVSPropertyOp51
 70
     0
102
RTVSPropertyOp52
 70
     0
102
RTVSPropertyOp53
 70
     1
102
RTVSPropertyOp54
 70
     1
102
RTVSPropertyOp55
 70
     1
102
RTVSPropertyOp56
 70
     1
102
RTVSPropertyOp57
 70
     1
102
RTVSPropertyOp58
 70
     1
102
RTVSPropertyOp59
 70
     1
102
RTVSPropertyOp60
 70
     1
102
RTVSPropertyOp61
 70
     1
102
RTVSPropertyOp62
 70
     1
  0
ENDSEC
  0
EOF
