  0
SECTION
  2
HEADER
  9
$ACADVER
  1
AC1015
  9
$ACADMAINTVER
 70
    20
  9
$DWGCODEPAGE
  3
ANSI_932
  9
$INSBASE
 10
0.0
 20
0.0
 30
0.0
  9
$EXTMIN
 10
10.0
 20
9.999999999999998
 30
0.0
  9
$EXTMAX
 10
1234.402674
 20
784.849816
 30
0.0
  9
$LIMMIN
 10
0.0
 20
0.0
  9
$LIMMAX
 10
1306.799999999999
 20
900.9
  9
$ORTHOMODE
 70
     1
  9
$REGENMODE
 70
     1
  9
$FILLMODE
 70
     1
  9
$QTEXTMODE
 70
     0
  9
$MIRRTEXT
 70
     1
  9
$LTSCALE
 40
20.0
  9
$ATTMODE
 70
     1
  9
$TEXTSIZE
 40
5.0
  9
$TRACEWID
 40
1.0
  9
$TEXTSTYLE
  7
STANDARD
  9
$CLAYER
  8
0
  9
$CELTYPE
  6
BYLAYER
  9
$CECOLOR
 62
   256
  9
$CELTSCALE
 40
1.0
  9
$DISPSILH
 70
     0
  9
$DIMSCALE
 40
1.0
  9
$DIMASZ
 40
3.0
  9
$DIMEXO
 40
1.0
  9
$DIMDLI
 40
10.0
  9
$DIMRND
 40
0.0
  9
$DIMDLE
 40
0.0
  9
$DIMEXE
 40
1.0
  9
$DIMTP
 40
0.0
  9
$DIMTM
 40
0.0
  9
$DIMTXT
 40
2.5
  9
$DIMCEN
 40
0.0
  9
$DIMTSZ
 40
0.0
  9
$DIMTOL
 70
     0
  9
$DIMLIM
 70
     0
  9
$DIMTIH
 70
     0
  9
$DIMTOH
 70
     0
  9
$DIMSE1
 70
     1
  9
$DIMSE2
 70
     1
  9
$DIMTAD
 70
     3
  9
$DIMZIN
 70
     8
  9
$DIMBLK
  1

  9
$DIMASO
 70
     1
  9
$DIMSHO
 70
     1
  9
$DIMPOST
  1

  9
$DIMAPOST
  1

  9
$DIMALT
 70
     0
  9
$DIMALTD
 70
     2
  9
$DIMALTF
 40
25.4
  9
$DIMLFAC
 40
1.0
  9
$DIMTOFL
 70
     1
  9
$DIMTVP
 40
0.0
  9
$DIMTIX
 70
     0
  9
$DIMSOXD
 70
     0
  9
$DIMSAH
 70
     1
  9
$DIMBLK1
  1

  9
$DIMBLK2
  1

  9
$DIMSTYLE
  2
STANDARD
  9
$DIMCLRD
 70
     0
  9
$DIMCLRE
 70
     0
  9
$DIMCLRT
 70
     0
  9
$DIMTFAC
 40
1.0
  9
$DIMGAP
 40
1.0
  9
$DIMJUST
 70
     0
  9
$DIMSD1
 70
     0
  9
$DIMSD2
 70
     0
  9
$DIMTOLJ
 70
     1
  9
$DIMTZIN
 70
     0
  9
$DIMALTZ
 70
     0
  9
$DIMALTTZ
 70
     0
  9
$DIMUPT
 70
     0
  9
$DIMDEC
 70
     4
  9
$DIMTDEC
 70
     4
  9
$DIMALTU
 70
     2
  9
$DIMALTTD
 70
     2
  9
$DIMTXSTY
  7
STANDARD
  9
$DIMAUNIT
 70
     0
  9
$DIMADEC
 70
     0
  9
$DIMALTRND
 40
0.0
  9
$DIMAZIN
 70
     0
  9
$DIMDSEP
 70
    46
  9
$DIMATFIT
 70
     3
  9
$DIMFRAC
 70
     0
  9
$DIMLDRBLK
  1

  9
$DIMLUNIT
 70
     2
  9
$DIMLWD
 70
    -2
  9
$DIMLWE
 70
    -2
  9
$DIMTMOVE
 70
     0
  9
$LUNITS
 70
     2
  9
$LUPREC
 70
     4
  9
$SKETCHINC
 40
1.0
  9
$FILLETRAD
 40
0.0
  9
$AUNITS
 70
     0
  9
$AUPREC
 70
     2
  9
$MENU
  1
.
  9
$ELEVATION
 40
0.0
  9
$PELEVATION
 40
0.0
  9
$THICKNESS
 40
0.0
  9
$LIMCHECK
 70
     0
  9
$CHAMFERA
 40
10.0
  9
$CHAMFERB
 40
10.0
  9
$CHAMFERC
 40
0.0
  9
$CHAMFERD
 40
0.0
  9
$SKPOLY
 70
     0
  9
$TDCREATE
 40
2451233.437258334
  9
$TDUCREATE
 40
2451233.062258333
  9
$TDUPDATE
 40
2457192.665338426
  9
$TDUUPDATE
 40
2457192.290338426
  9
$TDINDWG
 40
0.0000127662
  9
$TDUSRTIMER
 40
0.0000124421
  9
$USRTIMER
 70
     1
  9
$ANGBASE
 50
0.0
  9
$ANGDIR
 70
     0
  9
$PDMODE
 70
     0
  9
$PDSIZE
 40
0.0
  9
$PLINEWID
 40
0.0
  9
$SPLFRAME
 70
     0
  9
$SPLINETYPE
 70
     6
  9
$SPLINESEGS
 70
     8
  9
$HANDSEED
  5
114F8
  9
$SURFTAB1
 70
     6
  9
$SURFTAB2
 70
     6
  9
$SURFTYPE
 70
     6
  9
$SURFU
 70
     6
  9
$SURFV
 70
     6
  9
$UCSBASE
  2

  9
$UCSNAME
  2

  9
$UCSORG
 10
0.0
 20
0.0
 30
0.0
  9
$UCSXDIR
 10
1.0
 20
0.0
 30
0.0
  9
$UCSYDIR
 10
0.0
 20
1.0
 30
0.0
  9
$UCSORTHOREF
  2

  9
$UCSORTHOVIEW
 70
     0
  9
$UCSORGTOP
 10
0.0
 20
0.0
 30
0.0
  9
$UCSORGBOTTOM
 10
0.0
 20
0.0
 30
0.0
  9
$UCSORGLEFT
 10
0.0
 20
0.0
 30
0.0
  9
$UCSORGRIGHT
 10
0.0
 20
0.0
 30
0.0
  9
$UCSORGFRONT
 10
0.0
 20
0.0
 30
0.0
  9
$UCSORGBACK
 10
0.0
 20
0.0
 30
0.0
  9
$PUCSBASE
  2

  9
$PUCSNAME
  2

  9
$PUCSORG
 10
0.0
 20
0.0
 30
0.0
  9
$PUCSXDIR
 10
1.0
 20
0.0
 30
0.0
  9
$PUCSYDIR
 10
0.0
 20
1.0
 30
0.0
  9
$PUCSORTHOREF
  2

  9
$PUCSORTHOVIEW
 70
     0
  9
$PUCSORGTOP
 10
0.0
 20
0.0
 30
0.0
  9
$PUCSORGBOTTOM
 10
0.0
 20
0.0
 30
0.0
  9
$PUCSORGLEFT
 10
0.0
 20
0.0
 30
0.0
  9
$PUCSORGRIGHT
 10
0.0
 20
0.0
 30
0.0
  9
$PUCSORGFRONT
 10
0.0
 20
0.0
 30
0.0
  9
$PUCSORGBACK
 10
0.0
 20
0.0
 30
0.0
  9
$USERI1
 70
     0
  9
$USERI2
 70
     0
  9
$USERI3
 70
     0
  9
$USERI4
 70
     0
  9
$USERI5
 70
     0
  9
$USERR1
 40
0.0
  9
$USERR2
 40
0.0
  9
$USERR3
 40
0.0
  9
$USERR4
 40
0.0
  9
$USERR5
 40
0.0
  9
$WORLDVIEW
 70
     1
  9
$SHADEDGE
 70
     3
  9
$SHADEDIF
 70
    70
  9
$TILEMODE
 70
     1
  9
$MAXACTVP
 70
    16
  9
$PINSBASE
 10
0.0
 20
0.0
 30
0.0
  9
$PLIMCHECK
 70
     0
  9
$PEXTMIN
 10
1.000000000000000E+20
 20
1.000000000000000E+20
 30
1.000000000000000E+20
  9
$PEXTMAX
 10
-1.000000000000000E+20
 20
-1.000000000000000E+20
 30
-1.000000000000000E+20
  9
$PLIMMIN
 10
0.0
 20
0.0
  9
$PLIMMAX
 10
420.0
 20
297.0
  9
$UNITMODE
 70
     0
  9
$VISRETAIN
 70
     0
  9
$PLINEGEN
 70
     0
  9
$PSLTSCALE
 70
     0
  9
$TREEDEPTH
 70
  3020
  9
$CMLSTYLE
  2
STANDARD
  9
$CMLJUST
 70
     0
  9
$CMLSCALE
 40
1.0
  9
$PROXYGRAPHICS
 70
     1
  9
$MEASUREMENT
 70
     0
  9
$CELWEIGHT
370
    -1
  9
$ENDCAPS
280
     0
  9
$JOINSTYLE
280
     0
  9
$LWDISPLAY
290
     0
  9
$INSUNITS
 70
     0
  9
$HYPERLINKBASE
  1

  9
$STYLESHEET
  1

  9
$XEDIT
290
     1
  9
$CEPSNTYPE
380
     0
  9
$PSTYLEMODE
290
     1
  9
$FINGERPRINTGUID
  2
{01F22DE4-D7CB-4115-A26C-677EA85F7313}
  9
$VERSIONGUID
  2
{884A5FAB-4739-459E-9074-F7FB6128AB88}
  9
$EXTNAMES
290
     1
  9
$PSVPSCALE
 40
0.0
  9
$OLESTARTUP
290
     0
  0
ENDSEC
  0
SECTION
  2
CLASSES
  0
CLASS
  1
ACDBDICTIONARYWDFLT
  2
AcDbDictionaryWithDefault
  3
ObjectDBX Classes
 90
        0
280
     0
281
     0
  0
CLASS
  1
ACDBPLACEHOLDER
  2
AcDbPlaceHolder
  3
ObjectDBX Classes
 90
        0
280
     0
281
     0
  0
CLASS
  1
LAYOUT
  2
AcDbLayout
  3
ObjectDBX Classes
 90
        0
280
     0
281
     0
  0
CLASS
  1
DICTIONARYVAR
  2
AcDbDictionaryVar
  3
ObjectDBX Classes
 90
        0
280
     0
281
     0
  0
CLASS
  1
MATERIAL
  2
AcDbMaterial
  3
ObjectDBX Classes
 90
     1153
280
     0
281
     0
  0
CLASS
  1
VISUALSTYLE
  2
AcDbVisualStyle
  3
ObjectDBX Classes
 90
     4095
280
     0
281
     0
  0
CLASS
  1
TABLESTYLE
  2
AcDbTableStyle
  3
ObjectDBX Classes
 90
     4095
280
     0
281
     0
  0
CLASS
  1
SCALE
  2
AcDbScale
  3
ObjectDBX Classes
 90
     1153
280
     0
281
     0
  0
CLASS
  1
MLEADERSTYLE
  2
AcDbMLeaderStyle
  3
ACDB_MLEADERSTYLE_CLASS
 90
     4095
280
     0
281
     0
  0
CLASS
  1
ACDBSECTIONVIEWSTYLE
  2
AcDbSectionViewStyle
  3
ObjectDBX Classes
 90
     1025
280
     0
281
     0
  0
CLASS
  1
ACDBDETAILVIEWSTYLE
  2
AcDbDetailViewStyle
  3
ObjectDBX Classes
 90
     1025
280
     0
281
     0
  0
CLASS
  1
CELLSTYLEMAP
  2
AcDbCellStyleMap
  3
ObjectDBX Classes
 90
     1152
280
     0
281
     0
  0
ENDSEC
  0
SECTION
  2
TABLES
  0
TABLE
  2
VPORT
  5
110B3
330
0
100
AcDbSymbolTable
 70
     1
  0
VPORT
  5
11441
330
110B3
100
AcDbSymbolTableRecord
100
AcDbViewportTableRecord
  2
*ACTIVE
 70
     0
 10
0.0
 20
0.0
 11
1.0
 21
1.0
 12
856.9171340870838
 22
397.4223264071769
 13
0.0
 23
0.0
 14
10.0
 24
10.0
 15
10.0
 25
10.0
 16
0.0
 26
0.0
 36
1.0
 17
0.0
 27
0.0
 37
0.0
 40
783.6345573694627
 41
1.899603698811096
 42
50.0
 43
0.0
 44
0.0
 50
0.0
 51
0.0
 71
     0
 72
   100
 73
     1
 74
     0
 75
     0
 76
     0
 77
     0
 78
     0
281
     0
 65
     1
110
0.0
120
0.0
130
0.0
111
1.0
121
0.0
131
0.0
112
0.0
122
1.0
132
0.0
 79
     0
146
0.0
1001
ACAD_NAV_VCDISPLAY
1070
     3
  0
ENDTAB
  0
TABLE
  2
LTYPE
  5
110B0
330
0
100
AcDbSymbolTable
 70
     4
  0
LTYPE
  5
110BE
330
110B0
100
AcDbSymbolTableRecord
100
AcDbLinetypeTableRecord
  2
BYBLOCK
 70
     0
  3

 72
    65
 73
     0
 40
0.0
  0
LTYPE
  5
110BF
330
110B0
100
AcDbSymbolTableRecord
100
AcDbLinetypeTableRecord
  2
BYLAYER
 70
     0
  3

 72
    65
 73
     0
 40
0.0
  0
LTYPE
  5
110C0
330
110B0
100
AcDbSymbolTableRecord
100
AcDbLinetypeTableRecord
  2
CONTINUOUS
 70
     0
  3
Solid line
 72
    65
 73
     0
 40
0.0
  0
LTYPE
  5
110CE
330
110B0
100
AcDbSymbolTableRecord
100
AcDbLinetypeTableRecord
  2
DASHED
 70
     0
  3
__ __ __ __ __ __ __ __ __ __ __ __ __ __ __ __
 72
    65
 73
     2
 40
0.75
 49
0.5
 74
     0
 49
-0.25
 74
     0
  0
LTYPE
  5
110CF
330
110B0
100
AcDbSymbolTableRecord
100
AcDbLinetypeTableRecord
  2
CENTER
 70
     0
  3
____ _ ____ _ ____ _ ____ _ ____ _ ____ _ ____ 
 72
    65
 73
     4
 40
2.0
 49
1.25
 74
     0
 49
-0.25
 74
     0
 49
0.25
 74
     0
 49
-0.25
 74
     0
  0
LTYPE
  5
110D0
330
110B0
100
AcDbSymbolTableRecord
100
AcDbLinetypeTableRecord
  2
PHANTOM
 70
     0
  3
______  __  __  ______  __  __  ______  __  __ 
 72
    65
 73
     6
 40
2.5
 49
1.25
 74
     0
 49
-0.25
 74
     0
 49
0.25
 74
     0
 49
-0.25
 74
     0
 49
0.25
 74
     0
 49
-0.25
 74
     0
  0
ENDTAB
  0
TABLE
  2
LAYER
  5
110AD
330
0
100
AcDbSymbolTable
 70
     8
  0
LAYER
  5
110BB
102
{ACAD_XDICTIONARY
360
1149C
102
}
330
110AD
100
AcDbSymbolTableRecord
100
AcDbLayerTableRecord
  2
0
 70
     0
 62
     7
  6
CONTINUOUS
370
    -3
390
1144A
  0
LAYER
  5
110D1
102
{ACAD_XDICTIONARY
360
1149E
102
}
330
110AD
100
AcDbSymbolTableRecord
100
AcDbLayerTableRecord
  2
4
 70
     0
 62
     1
  6
CENTER
370
    -3
390
1144A
  0
LAYER
  5
110D2
102
{ACAD_XDICTIONARY
360
114A0
102
}
330
110AD
100
AcDbSymbolTableRecord
100
AcDbLayerTableRecord
  2
5
 70
     0
 62
     6
  6
PHANTOM
370
    -3
390
1144A
  0
LAYER
  5
110D3
102
{ACAD_XDICTIONARY
360
114A2
102
}
330
110AD
100
AcDbSymbolTableRecord
100
AcDbLayerTableRecord
  2
1
 70
     0
 62
     7
  6
CONTINUOUS
370
    -3
390
1144A
  0
LAYER
  5
110D4
102
{ACAD_XDICTIONARY
360
114A4
102
}
330
110AD
100
AcDbSymbolTableRecord
100
AcDbLayerTableRecord
  2
2
 70
     0
 62
     4
  6
CONTINUOUS
370
    -3
390
1144A
  0
LAYER
  5
110D5
102
{ACAD_XDICTIONARY
360
114A6
102
}
330
110AD
100
AcDbSymbolTableRecord
100
AcDbLayerTableRecord
  2
3
 70
     0
 62
     2
  6
DASHED
370
    -3
390
1144A
  0
LAYER
  5
110D6
102
{ACAD_XDICTIONARY
360
114A8
102
}
330
110AD
100
AcDbSymbolTableRecord
100
AcDbLayerTableRecord
  2
6
 70
     0
 62
     5
  6
CONTINUOUS
370
    -3
390
1144A
  0
LAYER
  5
110D7
102
{ACAD_XDICTIONARY
360
114AA
102
}
330
110AD
100
AcDbSymbolTableRecord
100
AcDbLayerTableRecord
  2
7
 70
     0
 62
     3
  6
CONTINUOUS
370
    -3
390
1144A
  0
ENDTAB
  0
TABLE
  2
STYLE
  5
110AE
330
0
100
AcDbSymbolTable
 70
     1
  0
STYLE
  5
110BC
330
110AE
100
AcDbSymbolTableRecord
100
AcDbTextStyleTableRecord
  2
STANDARD
 70
     0
 40
0.0
 41
1.0
 50
0.0
 71
     0
 42
5.0
  3
txt
  4

  0
ENDTAB
  0
TABLE
  2
VIEW
  5
110B1
330
0
100
AcDbSymbolTable
 70
     0
  0
ENDTAB
  0
TABLE
  2
UCS
  5
110B2
330
0
100
AcDbSymbolTable
 70
     0
  0
ENDTAB
  0
TABLE
  2
APPID
  5
110B4
330
0
100
AcDbSymbolTable
 70
     3
  0
APPID
  5
110BD
330
110B4
100
AcDbSymbolTableRecord
100
AcDbRegAppTableRecord
  2
ACAD
 70
     0
  0
APPID
  5
114B6
330
110B4
100
AcDbSymbolTableRecord
100
AcDbRegAppTableRecord
  2
ACAD_NAV_VCDISPLAY
 70
     0
  0
APPID
  5
114EF
330
110B4
100
AcDbSymbolTableRecord
100
AcDbRegAppTableRecord
  2
ACAD_MLEADERVER
 70
     0
  0
ENDTAB
  0
TABLE
  2
DIMSTYLE
  5
110B5
330
0
100
AcDbSymbolTable
 70
     1
100
AcDbDimStyleTable
 71
     0
  0
DIMSTYLE
105
110D9
330
110B5
100
AcDbSymbolTableRecord
100
AcDbDimStyleTableRecord
  2
STANDARD
 70
     0
 41
3.0
 42
1.0
 43
10.0
 44
1.0
 73
     0
 74
     0
 77
     3
 78
     8
140
2.5
141
0.0
147
1.0
172
     1
173
     1
284
     8
285
     8
286
     8
340
110BC
  0
ENDTAB
  0
TABLE
  2
BLOCK_RECORD
  5
110AC
330
0
100
AcDbSymbolTable
 70
     0
  0
BLOCK_RECORD
  5
110C9
102
{ACAD_XDICTIONARY
360
11444
102
}
330
110AC
100
AcDbSymbolTableRecord
100
AcDbBlockTableRecord
  2
*MODEL_SPACE
340
11498
  0
BLOCK_RECORD
  5
110C5
102
{ACAD_XDICTIONARY
360
11442
102
}
330
110AC
100
AcDbSymbolTableRecord
100
AcDbBlockTableRecord
  2
*PAPER_SPACE
340
11499
  0
ENDTAB
  0
ENDSEC
  0
SECTION
  2
BLOCKS
  0
BLOCK
  5
110CA
330
110C9
100
AcDbEntity
  8
0
100
AcDbBlockBegin
  2
*MODEL_SPACE
 70
     0
 10
0.0
 20
0.0
 30
0.0
  3
*MODEL_SPACE
  1

  0
ENDBLK
  5
110CB
330
110C9
100
AcDbEntity
  8
0
100
AcDbBlockEnd
  0
BLOCK
  5
110C6
330
110C5
100
AcDbEntity
 67
     1
  8
0
100
AcDbBlockBegin
  2
*PAPER_SPACE
 70
     0
 10
0.0
 20
0.0
 30
0.0
  3
*PAPER_SPACE
  1

  0
ENDBLK
  5
110C7
330
110C5
100
AcDbEntity
 67
     1
  8
0
100
AcDbBlockEnd
  0
ENDSEC
  0
SECTION
  2
ENTITIES
  0
TEXT
  5
110E1
330
110C9
100
AcDbEntity
  8
7
  6
Continuous
100
AcDbText
 10
10.0
 20
18.0
 30
0.0
 40
3.0
  1
TYPE No.TM-84-1
100
AcDbText
  0
TEXT
  5
110E2
330
110C9
100
AcDbEntity
  8
7
  6
Continuous
100
AcDbText
 10
10.0
 20
26.0
 30
0.0
 40
3.0
  1
CODE No.5121
100
AcDbText
  0
TEXT
  5
110E3
330
110C9
100
AcDbEntity
  8
1
  6
Continuous
100
AcDbText
 10
10.0
 20
10.0
 30
0.0
 40
1.399999999999999
  1
LAYER
100
AcDbText
  0
TEXT
  5
110E4
330
110C9
100
AcDbEntity
  8
1
  6
Continuous
100
AcDbText
 10
17.97951099999998
 20
10.04873699999998
 30
0.0
 40
1.399999999999999
  1
1
100
AcDbText
  0
TEXT
  5
110E5
330
110C9
100
AcDbEntity
  8
7
  6
Continuous
100
AcDbText
 10
29.97951099999999
 20
10.04873699999998
 30
0.0
 40
1.399999999999999
  1
7
100
AcDbText
  0
TEXT
  5
110E6
330
110C9
100
AcDbEntity
  8
4
  6
CENTER
100
AcDbText
 10
23.97951099999999
 20
10.04873699999998
 30
0.0
 40
1.399999999999999
  1
4
100
AcDbText
  0
TEXT
  5
110E7
330
110C9
100
AcDbEntity
  8
3
  6
DASHED
100
AcDbText
 10
21.979511
 20
10.04873699999998
 30
0.0
 40
1.399999999999999
  1
3
100
AcDbText
  0
TEXT
  5
110E8
330
110C9
100
AcDbEntity
  8
2
  6
Continuous
100
AcDbText
 10
19.97951099999999
 20
10.04873699999998
 30
0.0
 40
1.399999999999999
  1
2
100
AcDbText
  0
TEXT
  5
110E9
330
110C9
100
AcDbEntity
  8
6
  6
Continuous
100
AcDbText
 10
27.979511
 20
10.04873699999998
 30
0.0
 40
1.399999999999999
  1
6
100
AcDbText
  0
TEXT
  5
110EA
330
110C9
100
AcDbEntity
  8
5
  6
PHANTOM
100
AcDbText
 10
25.97951099999999
 20
10.04873699999998
 30
0.0
 40
1.399999999999999
  1
5
100
AcDbText
  0
LINE
  5
110EB
330
110C9
100
AcDbEntity
  8
1
  6
Continuous
100
AcDbLine
 10
568.8820759999997
 20
554.849816
 30
0.0
 11
587.8820759999999
 21
554.849816
 31
0.0
  0
LINE
  5
110EC
330
110C9
100
AcDbEntity
  8
1
  6
Continuous
100
AcDbLine
 10
568.8820759999997
 20
577.849816
 30
0.0
 11
615.882076
 21
577.849816
 31
0.0
  0
LINE
  5
110ED
330
110C9
100
AcDbEntity
  8
1
  6
Continuous
100
AcDbLine
 10
615.882076
 20
579.4498160000001
 30
0.0
 11
1165.882075999999
 21
579.4498160000001
 31
0.0
  0
LINE
  5
110EE
330
110C9
100
AcDbEntity
  8
1
  6
Continuous
100
AcDbLine
 10
587.8820759999999
 20
553.249816
 30
0.0
 11
1165.882075999999
 21
553.249816
 31
0.0
  0
LINE
  5
110EF
330
110C9
100
AcDbEntity
  8
1
  6
Continuous
100
AcDbLine
 10
1165.882075999999
 20
553.249816
 30
0.0
 11
1165.882075999999
 21
579.4498160000001
 31
0.0
  0
ARC
  5
110F0
330
110C9
100
AcDbEntity
  8
1
  6
Continuous
100
AcDbCircle
 10
568.8820759999997
 20
574.849816
 30
0.0
 40
3.0
100
AcDbArc
 50
90.0
 51
180.0
  0
ARC
  5
110F1
330
110C9
100
AcDbEntity
  8
1
  6
Continuous
100
AcDbCircle
 10
568.8820759999997
 20
557.849816
 30
0.0
 40
3.0
100
AcDbArc
 50
180.0
 51
270.0
  0
LINE
  5
110F2
330
110C9
100
AcDbEntity
  8
1
  6
Continuous
100
AcDbLine
 10
587.8820759999999
 20
553.249816
 30
0.0
 11
587.8820759999999
 21
554.849816
 31
0.0
  0
LINE
  5
110F3
330
110C9
100
AcDbEntity
  8
1
  6
Continuous
100
AcDbLine
 10
615.882076
 20
577.849816
 30
0.0
 11
615.882076
 21
579.4498160000001
 31
0.0
  0
LINE
  5
110F4
330
110C9
100
AcDbEntity
  8
4
  6
CENTER
100
AcDbLine
 10
560.8820759999998
 20
566.349816
 30
0.0
 11
1170.882075999998
 21
566.349816
 31
0.0
  0
ARC
  5
110F5
330
110C9
100
AcDbEntity
  8
1
  6
Continuous
100
AcDbCircle
 10
576.8820759999997
 20
560.849816
 30
0.0
 40
11.0
100
AcDbArc
 50
210.751502
 51
326.944269
  0
LINE
  5
110F6
330
110C9
100
AcDbEntity
  8
4
  6
CENTER
100
AcDbLine
 10
590.882076
 20
560.849816
 30
0.0
 11
562.8820759999999
 21
560.849816
 31
0.0
  0
LINE
  5
110F7
330
110C9
100
AcDbEntity
  8
4
  6
CENTER
100
AcDbLine
 10
576.8820759999997
 20
574.849816
 30
0.0
 11
576.8820759999997
 21
546.849816
 31
0.0
  0
CIRCLE
  5
110F8
330
110C9
100
AcDbEntity
  8
1
  6
Continuous
100
AcDbCircle
 10
585.8820759999997
 20
566.349816
 30
0.0
 40
2.0
  0
ARC
  5
110F9
330
110C9
100
AcDbEntity
  8
1
  6
Continuous
100
AcDbCircle
 10
576.8820759999997
 20
560.849816
 30
0.0
 40
11.0
100
AcDbArc
 50
21.052718
 51
41.806413
  0
LINE
  5
110FA
330
110C9
100
AcDbEntity
  8
4
  6
CENTER
100
AcDbLine
 10
585.8820759999997
 20
570.349816
 30
0.0
 11
585.8820759999997
 21
562.349816
 31
0.0
  0
CIRCLE
  5
110FB
330
110C9
100
AcDbEntity
  8
1
  6
Continuous
100
AcDbCircle
 10
576.8820759999997
 20
560.849816
 30
0.0
 40
3.649999999999999
  0
LINE
  5
110FC
330
110C9
100
AcDbEntity
  8
4
  6
CENTER
100
AcDbLine
 10
597.8820759999997
 20
560.349816
 30
0.0
 11
597.8820759999997
 21
572.349816
 31
0.0
  0
CIRCLE
  5
110FD
330
110C9
100
AcDbEntity
  8
1
  6
Continuous
100
AcDbCircle
 10
597.8820759999997
 20
566.349816
 30
0.0
 40
3.0
  0
LINE
  5
110FE
330
110C9
100
AcDbEntity
  8
4
  6
CENTER
100
AcDbLine
 10
735.882076
 20
560.349816
 30
0.0
 11
735.882076
 21
572.349816
 31
0.0
  0
CIRCLE
  5
110FF
330
110C9
100
AcDbEntity
  8
1
  6
Continuous
100
AcDbCircle
 10
735.882076
 20
566.349816
 30
0.0
 40
3.0
  0
CIRCLE
  5
11100
330
110C9
100
AcDbEntity
  8
1
  6
Continuous
100
AcDbCircle
 10
873.8820759999999
 20
566.349816
 30
0.0
 40
3.0
  0
LINE
  5
11101
330
110C9
100
AcDbEntity
  8
4
  6
CENTER
100
AcDbLine
 10
873.8820759999999
 20
560.349816
 30
0.0
 11
873.8820759999999
 21
572.349816
 31
0.0
  0
LINE
  5
11102
330
110C9
100
AcDbEntity
  8
4
  6
CENTER
100
AcDbLine
 10
1011.882076
 20
560.349816
 30
0.0
 11
1011.882076
 21
572.349816
 31
0.0
  0
CIRCLE
  5
11103
330
110C9
100
AcDbEntity
  8
1
  6
Continuous
100
AcDbCircle
 10
1011.882076
 20
566.349816
 30
0.0
 40
3.0
  0
LINE
  5
11104
330
110C9
100
AcDbEntity
  8
4
  6
CENTER
100
AcDbLine
 10
1149.882075999999
 20
560.349816
 30
0.0
 11
1149.882075999999
 21
572.349816
 31
0.0
  0
CIRCLE
  5
11105
330
110C9
100
AcDbEntity
  8
1
  6
Continuous
100
AcDbCircle
 10
1149.882075999999
 20
566.349816
 30
0.0
 40
3.0
  0
LINE
  5
11106
330
110C9
100
AcDbEntity
  8
4
  6
CENTER
100
AcDbLine
 10
1134.882076
 20
561.849816
 30
0.0
 11
1134.882076
 21
570.849816
 31
0.0
  0
CIRCLE
  5
11107
330
110C9
100
AcDbEntity
  8
1
  6
Continuous
100
AcDbCircle
 10
1134.882076
 20
566.349816
 30
0.0
 40
2.0
  0
LINE
  5
11108
330
110C9
100
AcDbEntity
  8
1
  6
Continuous
100
AcDbLine
 10
35.4
 20
579.4498160000001
 30
0.0
 11
29.0
 21
579.4498160000001
 31
0.0
  0
LINE
  5
11109
330
110C9
100
AcDbEntity
  8
1
  6
Continuous
100
AcDbLine
 10
37.0
 20
577.849816
 30
0.0
 11
29.0
 21
577.849816
 31
0.0
  0
LINE
  5
1110A
330
110C9
100
AcDbEntity
  8
1
  6
Continuous
100
AcDbLine
 10
37.0
 20
577.849816
 30
0.0
 11
37.0
 21
554.849816
 31
0.0
  0
LINE
  5
1110B
330
110C9
100
AcDbEntity
  8
1
  6
Continuous
100
AcDbLine
 10
37.0
 20
554.849816
 30
0.0
 11
34.39999999999999
 21
554.849816
 31
0.0
  0
LINE
  5
1110C
330
110C9
100
AcDbEntity
  8
1
  6
Continuous
100
AcDbLine
 10
35.4
 20
553.249816
 30
0.0
 11
34.39999999999999
 21
553.249816
 31
0.0
  0
LINE
  5
1110D
330
110C9
100
AcDbEntity
  8
1
  6
Continuous
100
AcDbLine
 10
29.0
 20
579.4498160000001
 30
0.0
 11
29.0
 21
577.849816
 31
0.0
  0
LINE
  5
1110E
330
110C9
100
AcDbEntity
  8
1
  6
Continuous
100
AcDbLine
 10
35.4
 20
577.849816
 30
0.0
 11
35.4
 21
554.849816
 31
0.0
  0
ARC
  5
1110F
330
110C9
100
AcDbEntity
  8
1
  6
Continuous
100
AcDbCircle
 10
35.4
 20
577.849816
 30
0.0
 40
1.6
100
AcDbArc
 50
0.0
 51
90.0
  0
ARC
  5
11110
330
110C9
100
AcDbEntity
  8
1
  6
Continuous
100
AcDbCircle
 10
35.4
 20
554.849816
 30
0.0
 40
1.6
100
AcDbArc
 50
270.0
 51
0.0
  0
LINE
  5
11111
330
110C9
100
AcDbEntity
  8
4
  6
CENTER
100
AcDbLine
 10
32.512867
 20
566.349816
 30
0.0
 11
39.43426999999999
 21
566.349816
 31
0.0
  0
LINE
  5
11112
330
110C9
100
AcDbEntity
  8
1
  6
Continuous
100
AcDbLine
 10
34.6
 20
576.349816
 30
0.0
 11
34.6
 21
565.599816
 31
0.0
  0
LINE
  5
11113
330
110C9
100
AcDbEntity
  8
1
  6
Continuous
100
AcDbLine
 10
27.6
 20
576.349816
 30
0.0
 11
27.6
 21
573.4498160000002
 31
0.0
  0
ARC
  5
11114
330
110C9
100
AcDbEntity
  8
1
  6
Continuous
100
AcDbCircle
 10
34.1
 20
555.349816
 30
0.0
 40
0.5
100
AcDbArc
 50
306.8698979999999
 51
0.0
  0
LINE
  5
11115
330
110C9
100
AcDbEntity
  8
1
  6
Continuous
100
AcDbLine
 10
26.6
 20
570.099816
 30
0.0
 11
26.6
 21
561.599816
 31
0.0
  0
LINE
  5
11116
330
110C9
100
AcDbEntity
  8
1
  6
Continuous
100
AcDbLine
 10
27.1
 20
561.099816
 30
0.0
 11
27.1
 21
570.599816
 31
0.0
  0
LINE
  5
11117
330
110C9
100
AcDbEntity
  8
1
  6
Continuous
100
AcDbLine
 10
27.1
 20
561.099816
 30
0.0
 11
26.6
 21
561.599816
 31
0.0
  0
LINE
  5
11118
330
110C9
100
AcDbEntity
  8
1
  6
Continuous
100
AcDbLine
 10
27.1
 20
570.599816
 30
0.0
 11
26.6
 21
570.099816
 31
0.0
  0
LINE
  5
11119
330
110C9
100
AcDbEntity
  8
1
  6
Continuous
100
AcDbLine
 10
27.1
 20
561.099816
 30
0.0
 11
27.4
 21
561.099816
 31
0.0
  0
LINE
  5
1111A
330
110C9
100
AcDbEntity
  8
1
  6
Continuous
100
AcDbLine
 10
27.1
 20
570.599816
 30
0.0
 11
27.4
 21
570.599816
 31
0.0
  0
LINE
  5
1111B
330
110C9
100
AcDbEntity
  8
1
  6
Continuous
100
AcDbLine
 10
34.1
 20
576.849816
 30
0.0
 11
28.1
 21
576.849816
 31
0.0
  0
ARC
  5
1111C
330
110C9
100
AcDbEntity
  8
1
  6
Continuous
100
AcDbCircle
 10
34.1
 20
576.349816
 30
0.0
 40
0.5
100
AcDbArc
 50
0.0
 51
90.0
  0
ARC
  5
1111D
330
110C9
100
AcDbEntity
  8
1
  6
Continuous
100
AcDbCircle
 10
28.1
 20
576.349816
 30
0.0
 40
0.5
100
AcDbArc
 50
90.0
 51
180.0
  0
LINE
  5
1111E
330
110C9
100
AcDbEntity
  8
4
  6
CENTER
100
AcDbLine
 10
39.591998
 20
560.849816
 30
0.0
 11
25.943987
 21
560.849816
 31
0.0
  0
LINE
  5
1111F
330
110C9
100
AcDbEntity
  8
1
  6
Continuous
100
AcDbLine
 10
34.9
 20
556.099816
 30
0.0
 11
34.9
 21
565.599816
 31
0.0
  0
LINE
  5
11120
330
110C9
100
AcDbEntity
  8
1
  6
Continuous
100
AcDbLine
 10
27.4
 20
571.349816
 30
0.0
 11
27.4
 21
550.349816
 31
0.0
  0
LINE
  5
11121
330
110C9
100
AcDbEntity
  8
1
  6
Continuous
100
AcDbLine
 10
34.39999999999999
 20
571.349816
 30
0.0
 11
34.39999999999999
 21
550.349816
 31
0.0
  0
ARC
  5
11122
330
110C9
100
AcDbEntity
  8
1
  6
Continuous
100
AcDbCircle
 10
33.9
 20
550.349816
 30
0.0
 40
0.5
100
AcDbArc
 50
270.0
 51
0.0
  0
LINE
  5
11123
330
110C9
100
AcDbEntity
  8
1
  6
Continuous
100
AcDbLine
 10
34.9
 20
556.099816
 30
0.0
 11
34.39999999999999
 21
556.099816
 31
0.0
  0
LINE
  5
11124
330
110C9
100
AcDbEntity
  8
1
  6
Continuous
100
AcDbLine
 10
27.9
 20
549.849816
 30
0.0
 11
33.9
 21
549.849816
 31
0.0
  0
ARC
  5
11125
330
110C9
100
AcDbEntity
  8
1
  6
Continuous
100
AcDbCircle
 10
27.9
 20
550.349816
 30
0.0
 40
0.5
100
AcDbArc
 50
180.0
 51
270.0
  0
LINE
  5
11126
330
110C9
100
AcDbEntity
  8
1
  6
Continuous
100
AcDbLine
 10
34.9
 20
556.099816
 30
0.0
 11
35.4
 21
556.599816
 31
0.0
  0
ARC
  5
11127
330
110C9
100
AcDbEntity
  8
1
  6
Continuous
100
AcDbCircle
 10
33.9
 20
571.349816
 30
0.0
 40
0.5
100
AcDbArc
 50
0.0
 51
90.0
  0
LINE
  5
11128
330
110C9
100
AcDbEntity
  8
1
  6
Continuous
100
AcDbLine
 10
34.9
 20
565.599816
 30
0.0
 11
34.39999999999999
 21
565.599816
 31
0.0
  0
LINE
  5
11129
330
110C9
100
AcDbEntity
  8
1
  6
Continuous
100
AcDbLine
 10
26.6
 20
571.849816
 30
0.0
 11
33.9
 21
571.849816
 31
0.0
  0
ARC
  5
1112A
330
110C9
100
AcDbEntity
  8
1
  6
Continuous
100
AcDbCircle
 10
27.9
 20
571.349816
 30
0.0
 40
0.5
100
AcDbArc
 50
90.0
 51
180.0
  0
LINE
  5
1112B
330
110C9
100
AcDbEntity
  8
1
  6
Continuous
100
AcDbLine
 10
34.9
 20
565.599816
 30
0.0
 11
35.4
 21
565.099816
 31
0.0
  0
LINE
  5
1112C
330
110C9
100
AcDbEntity
  8
1
  6
Continuous
100
AcDbLine
 10
37.7
 20
564.499816
 30
0.0
 11
37.7
 21
557.199816
 31
0.0
  0
LINE
  5
1112D
330
110C9
100
AcDbEntity
  8
1
  6
Continuous
100
AcDbLine
 10
37.7
 20
564.499816
 30
0.0
 11
37.0
 21
563.7998159999997
 31
0.0
  0
LINE
  5
1112E
330
110C9
100
AcDbEntity
  8
1
  6
Continuous
100
AcDbLine
 10
37.7
 20
557.199816
 30
0.0
 11
37.0
 21
557.899816
 31
0.0
  0
LINE
  5
1112F
330
110C9
100
AcDbEntity
  8
1
  6
Continuous
100
AcDbLine
 10
25.0
 20
551.849816
 30
0.0
 11
26.6
 21
551.849816
 31
0.0
  0
LINE
  5
11130
330
110C9
100
AcDbEntity
  8
1
  6
Continuous
100
AcDbLine
 10
26.6
 20
573.4498160000002
 30
0.0
 11
33.0
 21
573.4498160000002
 31
0.0
  0
LINE
  5
11131
330
110C9
100
AcDbEntity
  8
1
  6
Continuous
100
AcDbLine
 10
25.0
 20
571.849816
 30
0.0
 11
25.0
 21
551.849816
 31
0.0
  0
LINE
  5
11132
330
110C9
100
AcDbEntity
  8
1
  6
Continuous
100
AcDbLine
 10
26.6
 20
571.849816
 30
0.0
 11
26.6
 21
551.849816
 31
0.0
  0
LINE
  5
11133
330
110C9
100
AcDbEntity
  8
4
  6
CENTER
100
AcDbLine
 10
22.36147799999999
 20
561.849816
 30
0.0
 11
29.28288099999999
 21
561.849816
 31
0.0
  0
LINE
  5
11134
330
110C9
100
AcDbEntity
  8
1
  6
Continuous
100
AcDbLine
 10
33.0
 20
573.4498160000002
 30
0.0
 11
33.0
 21
571.849816
 31
0.0
  0
ARC
  5
11135
330
110C9
100
AcDbEntity
  8
1
  6
Continuous
100
AcDbCircle
 10
26.6
 20
571.849816
 30
0.0
 40
1.6
100
AcDbArc
 50
90.0
 51
180.0
  0
LINE
  5
11136
330
110C9
100
AcDbEntity
  8
4
  6
CENTER
100
AcDbLine
 10
22.36147799999999
 20
565.849816
 30
0.0
 11
36.169351
 21
565.849816
 31
0.0
  0
LINE
  5
11137
330
110C9
100
AcDbEntity
  8
1
  6
Continuous
100
AcDbLine
 10
24.3
 20
569.4998159999999
 30
0.0
 11
24.3
 21
562.199816
 31
0.0
  0
LINE
  5
11138
330
110C9
100
AcDbEntity
  8
1
  6
Continuous
100
AcDbLine
 10
24.3
 20
569.4998159999999
 30
0.0
 11
25.0
 21
568.7998159999997
 31
0.0
  0
LINE
  5
11139
330
110C9
100
AcDbEntity
  8
1
  6
Continuous
100
AcDbLine
 10
24.3
 20
562.199816
 30
0.0
 11
25.0
 21
562.899816
 31
0.0
  0
LINE
  5
1113A
330
110C9
100
AcDbEntity
  8
1
  6
Continuous
100
AcDbLine
 10
34.6
 20
556.099816
 30
0.0
 11
34.6
 21
555.349816
 31
0.0
  0
LINE
  5
1113B
330
110C9
100
AcDbEntity
  8
1
  6
Continuous
100
AcDbLine
 10
27.6
 20
571.849816
 30
0.0
 11
27.6
 21
571.7498159999998
 31
0.0
  0
LINE
  5
1113C
330
110C9
100
AcDbEntity
  8
1
  6
Continuous
100
AcDbLine
 10
1219.764151999999
 20
577.849816
 30
0.0
 11
1219.764151999999
 21
554.849816
 31
0.0
  0
LINE
  5
1113D
330
110C9
100
AcDbEntity
  8
1
  6
Continuous
100
AcDbLine
 10
1221.364152
 20
577.849816
 30
0.0
 11
1221.364152
 21
554.849816
 31
0.0
  0
LINE
  5
1113E
330
110C9
100
AcDbEntity
  8
1
  6
Continuous
100
AcDbLine
 10
1229.364152
 20
571.349816
 30
0.0
 11
1229.364152
 21
570.599816
 31
0.0
  0
LINE
  5
1113F
330
110C9
100
AcDbEntity
  8
1
  6
Continuous
100
AcDbLine
 10
1222.364151999999
 20
554.949816
 30
0.0
 11
1222.364151999999
 21
554.849816
 31
0.0
  0
LINE
  5
11140
330
110C9
100
AcDbEntity
  8
1
  6
Continuous
100
AcDbLine
 10
1230.164152
 20
571.849816
 30
0.0
 11
1230.164152
 21
551.849816
 31
0.0
  0
LINE
  5
11141
330
110C9
100
AcDbEntity
  8
1
  6
Continuous
100
AcDbLine
 10
1231.764152
 20
571.849816
 30
0.0
 11
1231.764152
 21
551.849816
 31
0.0
  0
LINE
  5
11142
330
110C9
100
AcDbEntity
  8
1
  6
Continuous
100
AcDbLine
 10
1232.464152
 20
569.4998159999999
 30
0.0
 11
1232.464152
 21
562.199816
 31
0.0
  0
LINE
  5
11143
330
110C9
100
AcDbEntity
  8
1
  6
Continuous
100
AcDbLine
 10
1229.664152
 20
561.099816
 30
0.0
 11
1229.664152
 21
570.599816
 31
0.0
  0
LINE
  5
11144
330
110C9
100
AcDbEntity
  8
1
  6
Continuous
100
AcDbLine
 10
1230.164152
 20
570.099816
 30
0.0
 11
1230.164152
 21
561.599816
 31
0.0
  0
LINE
  5
11145
330
110C9
100
AcDbEntity
  8
1
  6
Continuous
100
AcDbLine
 10
1222.164152
 20
576.349816
 30
0.0
 11
1222.164152
 21
555.349816
 31
0.0
  0
LINE
  5
11146
330
110C9
100
AcDbEntity
  8
4
  6
CENTER
100
AcDbLine
 10
1234.402674
 20
561.849816
 30
0.0
 11
1227.481271
 21
561.849816
 31
0.0
  0
LINE
  5
11147
330
110C9
100
AcDbEntity
  8
1
  6
Continuous
100
AcDbLine
 10
1228.864151999998
 20
549.849816
 30
0.0
 11
1222.864151999998
 21
549.849816
 31
0.0
  0
LINE
  5
11148
330
110C9
100
AcDbEntity
  8
4
  6
CENTER
100
AcDbLine
 10
1234.402674
 20
565.849816
 30
0.0
 11
1220.594801
 21
565.849816
 31
0.0
  0
LINE
  5
11149
330
110C9
100
AcDbEntity
  8
4
  6
CENTER
100
AcDbLine
 10
1217.172154
 20
560.849816
 30
0.0
 11
1230.820165999999
 21
560.849816
 31
0.0
  0
ARC
  5
1114A
330
110C9
100
AcDbEntity
  8
1
  6
Continuous
100
AcDbCircle
 10
1228.864151999998
 20
550.349816
 30
0.0
 40
0.5
100
AcDbArc
 50
270.0
 51
0.0
  0
LINE
  5
1114B
330
110C9
100
AcDbEntity
  8
1
  6
Continuous
100
AcDbLine
 10
1231.764152
 20
551.849816
 30
0.0
 11
1230.164152
 21
551.849816
 31
0.0
  0
LINE
  5
1114C
330
110C9
100
AcDbEntity
  8
1
  6
Continuous
100
AcDbLine
 10
1232.464152
 20
562.199816
 30
0.0
 11
1231.764152
 21
562.899816
 31
0.0
  0
LINE
  5
1114D
330
110C9
100
AcDbEntity
  8
1
  6
Continuous
100
AcDbLine
 10
1229.664152
 20
561.099816
 30
0.0
 11
1230.164152
 21
561.599816
 31
0.0
  0
LINE
  5
1114E
330
110C9
100
AcDbEntity
  8
1
  6
Continuous
100
AcDbLine
 10
1229.664152
 20
561.099816
 30
0.0
 11
1229.164152
 21
561.099816
 31
0.0
  0
ARC
  5
1114F
330
110C9
100
AcDbEntity
  8
1
  6
Continuous
100
AcDbCircle
 10
1221.364152
 20
554.849816
 30
0.0
 40
1.6
100
AcDbArc
 50
180.0
 51
270.0
  0
LINE
  5
11150
330
110C9
100
AcDbEntity
  8
1
  6
Continuous
100
AcDbLine
 10
1221.864151999999
 20
556.099816
 30
0.0
 11
1221.864151999999
 21
565.599816
 31
0.0
  0
ARC
  5
11151
330
110C9
100
AcDbEntity
  8
1
  6
Continuous
100
AcDbCircle
 10
1222.864151999998
 20
550.349816
 30
0.0
 40
0.5
100
AcDbArc
 50
180.0
 51
270.0
  0
LINE
  5
11152
330
110C9
100
AcDbEntity
  8
1
  6
Continuous
100
AcDbLine
 10
1221.864151999999
 20
556.099816
 30
0.0
 11
1222.164152
 21
556.099816
 31
0.0
  0
LINE
  5
11153
330
110C9
100
AcDbEntity
  8
1
  6
Continuous
100
AcDbLine
 10
1221.864151999999
 20
556.099816
 30
0.0
 11
1221.364152
 21
556.599816
 31
0.0
  0
LINE
  5
11154
330
110C9
100
AcDbEntity
  8
1
  6
Continuous
100
AcDbLine
 10
1221.864151999999
 20
565.599816
 30
0.0
 11
1222.164152
 21
565.599816
 31
0.0
  0
LINE
  5
11155
330
110C9
100
AcDbEntity
  8
1
  6
Continuous
100
AcDbLine
 10
1221.864151999999
 20
565.599816
 30
0.0
 11
1221.364152
 21
565.099816
 31
0.0
  0
LINE
  5
11156
330
110C9
100
AcDbEntity
  8
1
  6
Continuous
100
AcDbLine
 10
1221.364152
 20
554.849816
 30
0.0
 11
1228.664152
 21
554.849816
 31
0.0
  0
LINE
  5
11157
330
110C9
100
AcDbEntity
  8
1
  6
Continuous
100
AcDbLine
 10
1221.364152
 20
553.249816
 30
0.0
 11
1227.764151999999
 21
553.249816
 31
0.0
  0
LINE
  5
11158
330
110C9
100
AcDbEntity
  8
1
  6
Continuous
100
AcDbLine
 10
1219.064152
 20
564.499816
 30
0.0
 11
1219.764151999999
 21
563.7998159999997
 31
0.0
  0
LINE
  5
11159
330
110C9
100
AcDbEntity
  8
1
  6
Continuous
100
AcDbLine
 10
1219.064152
 20
557.199816
 30
0.0
 11
1219.764151999999
 21
557.899816
 31
0.0
  0
LINE
  5
1115A
330
110C9
100
AcDbEntity
  8
1
  6
Continuous
100
AcDbLine
 10
1219.064152
 20
564.499816
 30
0.0
 11
1219.064152
 21
557.199816
 31
0.0
  0
LINE
  5
1115B
330
110C9
100
AcDbEntity
  8
1
  6
Continuous
100
AcDbLine
 10
1231.764152
 20
571.849816
 30
0.0
 11
1229.164152
 21
571.849816
 31
0.0
  0
LINE
  5
1115C
330
110C9
100
AcDbEntity
  8
1
  6
Continuous
100
AcDbLine
 10
1230.164152
 20
573.4498160000002
 30
0.0
 11
1229.164152
 21
573.4498160000002
 31
0.0
  0
LINE
  5
1115D
330
110C9
100
AcDbEntity
  8
1
  6
Continuous
100
AcDbLine
 10
1222.664152
 20
576.849816
 30
0.0
 11
1228.664152
 21
576.849816
 31
0.0
  0
ARC
  5
1115E
330
110C9
100
AcDbEntity
  8
1
  6
Continuous
100
AcDbCircle
 10
1228.864151999998
 20
571.349816
 30
0.0
 40
0.5
100
AcDbArc
 50
0.0
 51
53.130102
  0
ARC
  5
1115F
330
110C9
100
AcDbEntity
  8
1
  6
Continuous
100
AcDbCircle
 10
1230.164152
 20
571.849816
 30
0.0
 40
1.6
100
AcDbArc
 50
0.0
 51
90.0
  0
LINE
  5
11160
330
110C9
100
AcDbEntity
  8
1
  6
Continuous
100
AcDbLine
 10
1232.464152
 20
569.4998159999999
 30
0.0
 11
1231.764152
 21
568.7998159999997
 31
0.0
  0
LINE
  5
11161
330
110C9
100
AcDbEntity
  8
1
  6
Continuous
100
AcDbLine
 10
1229.664152
 20
570.599816
 30
0.0
 11
1230.164152
 21
570.099816
 31
0.0
  0
ARC
  5
11162
330
110C9
100
AcDbEntity
  8
1
  6
Continuous
100
AcDbCircle
 10
1228.664152
 20
576.349816
 30
0.0
 40
0.5
100
AcDbArc
 50
0.0
 51
90.0
  0
LINE
  5
11163
330
110C9
100
AcDbEntity
  8
1
  6
Continuous
100
AcDbLine
 10
1229.164152
 20
576.349816
 30
0.0
 11
1229.164152
 21
555.349816
 31
0.0
  0
LINE
  5
11164
330
110C9
100
AcDbEntity
  8
1
  6
Continuous
100
AcDbLine
 10
1229.664152
 20
570.599816
 30
0.0
 11
1229.164152
 21
570.599816
 31
0.0
  0
ARC
  5
11165
330
110C9
100
AcDbEntity
  8
1
  6
Continuous
100
AcDbCircle
 10
1221.364152
 20
577.849816
 30
0.0
 40
1.6
100
AcDbArc
 50
90.0
 51
180.0
  0
ARC
  5
11166
330
110C9
100
AcDbEntity
  8
1
  6
Continuous
100
AcDbCircle
 10
1222.664152
 20
576.349816
 30
0.0
 40
0.5
100
AcDbArc
 50
90.0
 51
180.0
  0
LINE
  5
11167
330
110C9
100
AcDbEntity
  8
4
  6
CENTER
100
AcDbLine
 10
1224.251285
 20
566.349816
 30
0.0
 11
1217.329882
 21
566.349816
 31
0.0
  0
LINE
  5
11168
330
110C9
100
AcDbEntity
  8
1
  6
Continuous
100
AcDbLine
 10
1227.764151999999
 20
579.4498160000001
 30
0.0
 11
1227.764151999999
 21
577.849816
 31
0.0
  0
LINE
  5
11169
330
110C9
100
AcDbEntity
  8
1
  6
Continuous
100
AcDbLine
 10
1221.364152
 20
579.4498160000001
 30
0.0
 11
1227.764151999999
 21
579.4498160000001
 31
0.0
  0
LINE
  5
1116A
330
110C9
100
AcDbEntity
  8
1
  6
Continuous
100
AcDbLine
 10
1221.364152
 20
577.849816
 30
0.0
 11
1227.764151999999
 21
577.849816
 31
0.0
  0
LINE
  5
1116B
330
110C9
100
AcDbEntity
  8
1
  6
Continuous
100
AcDbLine
 10
1227.764151999999
 20
553.249816
 30
0.0
 11
1227.764151999999
 21
554.849816
 31
0.0
  0
ARC
  5
1116C
330
110C9
100
AcDbEntity
  8
1
  6
Continuous
100
AcDbCircle
 10
1222.664152
 20
555.349816
 30
0.0
 40
0.5
100
AcDbArc
 50
180.0
 51
270.0
  0
ARC
  5
1116D
330
110C9
100
AcDbEntity
  8
1
  6
Continuous
100
AcDbCircle
 10
1228.664152
 20
555.349816
 30
0.0
 40
0.5
100
AcDbArc
 50
270.0
 51
0.0
  0
LINE
  5
1116E
330
110C9
100
AcDbEntity
  8
1
  6
Continuous
100
AcDbLine
 10
1222.364151999999
 20
553.249816
 30
0.0
 11
1222.364151999999
 21
550.349816
 31
0.0
  0
LINE
  5
1116F
330
110C9
100
AcDbEntity
  8
1
  6
Continuous
100
AcDbLine
 10
1229.364152
 20
561.099816
 30
0.0
 11
1229.364152
 21
550.349816
 31
0.0
  0
LINE
  5
11170
330
110C9
100
AcDbEntity
  8
1
  6
Continuous
100
AcDbLine
 10
1162.882075999998
 20
667.849816
 30
0.0
 11
618.8820759999997
 21
667.849816
 31
0.0
  0
LINE
  5
11171
330
110C9
100
AcDbEntity
  8
1
  6
Continuous
100
AcDbLine
 10
1165.882075999999
 20
659.849816
 30
0.0
 11
565.882076
 21
659.849816
 31
0.0
  0
LINE
  5
11172
330
110C9
100
AcDbEntity
  8
1
  6
Continuous
100
AcDbLine
 10
565.882076
 20
659.849816
 30
0.0
 11
565.882076
 21
661.4498160000001
 31
0.0
  0
LINE
  5
11173
330
110C9
100
AcDbEntity
  8
1
  6
Continuous
100
AcDbLine
 10
615.882076
 20
659.849816
 30
0.0
 11
615.882076
 21
664.849816
 31
0.0
  0
LINE
  5
11174
330
110C9
100
AcDbEntity
  8
1
  6
Continuous
100
AcDbLine
 10
615.882076
 20
661.4498160000001
 30
0.0
 11
565.882076
 21
661.4498160000001
 31
0.0
  0
ARC
  5
11175
330
110C9
100
AcDbEntity
  8
1
  6
Continuous
100
AcDbCircle
 10
618.8820759999997
 20
664.849816
 30
0.0
 40
3.0
100
AcDbArc
 50
90.0
 51
180.0
  0
LINE
  5
11176
330
110C9
100
AcDbEntity
  8
1
  6
Continuous
100
AcDbLine
 10
1165.882075999999
 20
659.849816
 30
0.0
 11
1165.882075999999
 21
664.849816
 31
0.0
  0
ARC
  5
11177
330
110C9
100
AcDbEntity
  8
1
  6
Continuous
100
AcDbCircle
 10
1162.882075999998
 20
664.849816
 30
0.0
 40
3.0
100
AcDbArc
 50
0.0
 51
90.0
  0
LINE
  5
11178
330
110C9
100
AcDbEntity
  8
1
  6
Continuous
100
AcDbLine
 10
587.8820759999999
 20
661.4498160000001
 30
0.0
 11
587.8820759999999
 21
663.849816
 31
0.0
  0
LINE
  5
11179
330
110C9
100
AcDbEntity
  8
4
  6
CENTER
100
AcDbLine
 10
576.8820759999997
 20
673.2695859999997
 30
0.0
 11
576.8820759999997
 21
655.349816
 31
0.0
  0
ARC
  5
1117A
330
110C9
100
AcDbEntity
  8
1
  6
Continuous
100
AcDbCircle
 10
587.382076
 20
662.9498160000001
 30
0.0
 40
0.5
100
AcDbArc
 50
270.0
 51
0.0
  0
LINE
  5
1117B
330
110C9
100
AcDbEntity
  8
1
  6
Continuous
100
AcDbLine
 10
587.382076
 20
662.4498160000001
 30
0.0
 11
566.382076
 21
662.4498160000001
 31
0.0
  0
ARC
  5
1117C
330
110C9
100
AcDbEntity
  8
1
  6
Continuous
100
AcDbCircle
 10
566.382076
 20
662.9498160000001
 30
0.0
 40
0.5
100
AcDbArc
 50
180.0
 51
270.0
  0
LINE
  5
1117D
330
110C9
100
AcDbEntity
  8
1
  6
Continuous
100
AcDbLine
 10
572.132076
 20
661.9498160000001
 30
0.0
 11
572.632076
 21
661.4498160000001
 31
0.0
  0
LINE
  5
1117E
330
110C9
100
AcDbEntity
  8
1
  6
Continuous
100
AcDbLine
 10
572.132076
 20
661.9498160000001
 30
0.0
 11
572.132076
 21
662.4498160000001
 31
0.0
  0
LINE
  5
1117F
330
110C9
100
AcDbEntity
  8
1
  6
Continuous
100
AcDbLine
 10
581.6320759999999
 20
661.9498160000001
 30
0.0
 11
581.132076
 21
661.4498160000001
 31
0.0
  0
LINE
  5
11180
330
110C9
100
AcDbEntity
  8
1
  6
Continuous
100
AcDbLine
 10
581.6320759999999
 20
661.9498160000001
 30
0.0
 11
581.6320759999999
 21
662.4498160000001
 31
0.0
  0
LINE
  5
11181
330
110C9
100
AcDbEntity
  8
1
  6
Continuous
100
AcDbLine
 10
572.132076
 20
661.9498160000001
 30
0.0
 11
581.6320759999999
 21
661.9498160000001
 31
0.0
  0
LINE
  5
11182
330
110C9
100
AcDbEntity
  8
1
  6
Continuous
100
AcDbLine
 10
580.5320759999997
 20
659.149816
 30
0.0
 11
573.232076
 21
659.149816
 31
0.0
  0
LINE
  5
11183
330
110C9
100
AcDbEntity
  8
1
  6
Continuous
100
AcDbLine
 10
573.232076
 20
659.149816
 30
0.0
 11
573.9320759999999
 21
659.849816
 31
0.0
  0
LINE
  5
11184
330
110C9
100
AcDbEntity
  8
1
  6
Continuous
100
AcDbLine
 10
580.5320759999997
 20
659.149816
 30
0.0
 11
579.832076
 21
659.849816
 31
0.0
  0
LINE
  5
11185
330
110C9
100
AcDbEntity
  8
1
  6
Continuous
100
AcDbLine
 10
565.882076
 20
662.9498160000001
 30
0.0
 11
565.882076
 21
663.849816
 31
0.0
  0
LINE
  5
11186
330
110C9
100
AcDbEntity
  8
4
  6
CENTER
100
AcDbLine
 10
585.8820759999997
 20
664.562335
 30
0.0
 11
585.8820759999997
 21
656.562335
 31
0.0
  0
LINE
  5
11187
330
110C9
100
AcDbEntity
  8
4
  6
CENTER
100
AcDbLine
 10
597.8820759999997
 20
664.562335
 30
0.0
 11
597.8820759999997
 21
656.562335
 31
0.0
  0
LINE
  5
11188
330
110C9
100
AcDbEntity
  8
4
  6
CENTER
100
AcDbLine
 10
735.882076
 20
664.562335
 30
0.0
 11
735.882076
 21
656.562335
 31
0.0
  0
LINE
  5
11189
330
110C9
100
AcDbEntity
  8
4
  6
CENTER
100
AcDbLine
 10
873.8820759999999
 20
664.562335
 30
0.0
 11
873.8820759999999
 21
656.562335
 31
0.0
  0
LINE
  5
1118A
330
110C9
100
AcDbEntity
  8
4
  6
CENTER
100
AcDbLine
 10
1011.882076
 20
664.562335
 30
0.0
 11
1011.882076
 21
656.562335
 31
0.0
  0
LINE
  5
1118B
330
110C9
100
AcDbEntity
  8
4
  6
CENTER
100
AcDbLine
 10
1149.882075999999
 20
664.562335
 30
0.0
 11
1149.882075999999
 21
656.562335
 31
0.0
  0
LINE
  5
1118C
330
110C9
100
AcDbEntity
  8
4
  6
CENTER
100
AcDbLine
 10
1134.882076
 20
664.562335
 30
0.0
 11
1134.882076
 21
656.562335
 31
0.0
  0
LINE
  5
1118D
330
110C9
100
AcDbEntity
  8
1
  6
Continuous
100
AcDbLine
 10
615.882076
 20
752.249816
 30
0.0
 11
1165.882075999999
 21
752.249816
 31
0.0
  0
LINE
  5
1118E
330
110C9
100
AcDbEntity
  8
3
  6
DASHED
100
AcDbLine
 10
587.8820759999999
 20
778.449816
 30
0.0
 11
690.419792
 21
778.449816
 31
0.0
  0
LINE
  5
1118F
330
110C9
100
AcDbEntity
  8
4
  6
CENTER
100
AcDbLine
 10
85.882076
 20
769.849816
 30
0.0
 11
695.882076
 21
769.849816
 31
0.0
  0
LINE
  5
11190
330
110C9
100
AcDbEntity
  8
4
  6
CENTER
100
AcDbLine
 10
560.8820759999998
 20
765.349816
 30
0.0
 11
1170.882075999998
 21
765.349816
 31
0.0
  0
LINE
  5
11191
330
110C9
100
AcDbEntity
  8
3
  6
DASHED
100
AcDbLine
 10
565.882076
 20
776.849816
 30
0.0
 11
565.882076
 21
758.249816
 31
0.0
  0
LINE
  5
11192
330
110C9
100
AcDbEntity
  8
4
  6
CENTER
100
AcDbLine
 10
873.8820759999999
 20
771.349816
 30
0.0
 11
873.8820759999999
 21
759.349816
 31
0.0
  0
LINE
  5
11193
330
110C9
100
AcDbEntity
  8
4
  6
CENTER
100
AcDbLine
 10
735.882076
 20
771.349816
 30
0.0
 11
735.882076
 21
759.349816
 31
0.0
  0
LINE
  5
11194
330
110C9
100
AcDbEntity
  8
4
  6
CENTER
100
AcDbLine
 10
597.8820759999997
 20
771.349816
 30
0.0
 11
597.8820759999997
 21
759.349816
 31
0.0
  0
LINE
  5
11195
330
110C9
100
AcDbEntity
  8
4
  6
CENTER
100
AcDbLine
 10
585.8820759999997
 20
761.349816
 30
0.0
 11
585.8820759999997
 21
769.349816
 31
0.0
  0
LINE
  5
11196
330
110C9
100
AcDbEntity
  8
4
  6
CENTER
100
AcDbLine
 10
576.8820759999997
 20
756.849816
 30
0.0
 11
576.8820759999997
 21
784.849816
 31
0.0
  0
ARC
  5
11197
330
110C9
100
AcDbEntity
  8
1
  6
Continuous
100
AcDbCircle
 10
576.8820759999997
 20
770.849816
 30
0.0
 40
11.0
100
AcDbArc
 50
54.903199
 51
125.096801
  0
LINE
  5
11198
330
110C9
100
AcDbEntity
  8
4
  6
CENTER
100
AcDbLine
 10
590.882076
 20
770.849816
 30
0.0
 11
562.8820759999999
 21
770.849816
 31
0.0
  0
ARC
  5
11199
330
110C9
100
AcDbEntity
  8
1
  6
Continuous
100
AcDbCircle
 10
568.8820759999997
 20
756.849816
 30
0.0
 40
3.0
100
AcDbArc
 50
180.0
 51
270.0
  0
LINE
  5
1119A
330
110C9
100
AcDbEntity
  8
1
  6
Continuous
100
AcDbLine
 10
615.882076
 20
753.849816
 30
0.0
 11
615.882076
 21
752.249816
 31
0.0
  0
LINE
  5
1119B
330
110C9
100
AcDbEntity
  8
1
  6
Continuous
100
AcDbLine
 10
1165.882075999999
 20
778.449816
 30
0.0
 11
1165.882075999999
 21
752.249816
 31
0.0
  0
LINE
  5
1119C
330
110C9
100
AcDbEntity
  8
4
  6
CENTER
100
AcDbLine
 10
1149.882075999999
 20
771.349816
 30
0.0
 11
1149.882075999999
 21
759.349816
 31
0.0
  0
LINE
  5
1119D
330
110C9
100
AcDbEntity
  8
4
  6
CENTER
100
AcDbLine
 10
1134.882076
 20
769.849816
 30
0.0
 11
1134.882076
 21
760.849816
 31
0.0
  0
LINE
  5
1119E
330
110C9
100
AcDbEntity
  8
4
  6
CENTER
100
AcDbLine
 10
1011.882076
 20
771.349816
 30
0.0
 11
1011.882076
 21
759.349816
 31
0.0
  0
LINE
  5
1119F
330
110C9
100
AcDbEntity
  8
1
  6
Continuous
100
AcDbLine
 10
568.8820759999997
 20
753.849816
 30
0.0
 11
1165.882075999999
 21
753.849816
 31
0.0
  0
LINE
  5
111A0
330
110C9
100
AcDbEntity
  8
1
  6
Continuous
100
AcDbLine
 10
93.88207599999999
 20
779.849816
 30
0.0
 11
687.8820759999999
 21
779.849816
 31
0.0
  0
ARC
  5
111A1
330
110C9
100
AcDbEntity
  8
1
  6
Continuous
100
AcDbCircle
 10
93.88207599999999
 20
776.849816
 30
0.0
 40
3.0
100
AcDbArc
 50
90.0
 51
180.0
  0
LINE
  5
111A2
330
110C9
100
AcDbEntity
  8
1
  6
Continuous
100
AcDbLine
 10
90.882076
 20
776.849816
 30
0.0
 11
90.882076
 21
758.249816
 31
0.0
  0
LINE
  5
111A3
330
110C9
100
AcDbEntity
  8
1
  6
Continuous
100
AcDbLine
 10
90.882076
 20
758.249816
 30
0.0
 11
579.8820759999999
 21
758.249816
 31
0.0
  0
LINE
  5
111A4
330
110C9
100
AcDbEntity
  8
1
  6
Continuous
100
AcDbLine
 10
579.8820759999999
 20
760.249816
 30
0.0
 11
593.8820759999997
 21
760.249816
 31
0.0
  0
LINE
  5
111A5
330
110C9
100
AcDbEntity
  8
1
  6
Continuous
100
AcDbLine
 10
579.8820759999999
 20
758.249816
 30
0.0
 11
579.8820759999999
 21
760.249816
 31
0.0
  0
LINE
  5
111A6
330
110C9
100
AcDbEntity
  8
1
  6
Continuous
100
AcDbLine
 10
580.7056059999998
 20
760.249816
 30
0.0
 11
579.8820759999999
 21
759.849816
 31
0.0
  0
LINE
  5
111A7
330
110C9
100
AcDbEntity
  8
1
  6
Continuous
100
AcDbLine
 10
583.999723
 20
760.249816
 30
0.0
 11
579.8820759999999
 21
758.249816
 31
0.0
  0
LINE
  5
111A8
330
110C9
100
AcDbEntity
  8
1
  6
Continuous
100
AcDbLine
 10
593.8820759999997
 20
758.249816
 30
0.0
 11
593.8820759999997
 21
760.249816
 31
0.0
  0
LINE
  5
111A9
330
110C9
100
AcDbEntity
  8
1
  6
Continuous
100
AcDbLine
 10
593.0585469999997
 20
760.249816
 30
0.0
 11
593.8820759999997
 21
759.849816
 31
0.0
  0
LINE
  5
111AA
330
110C9
100
AcDbEntity
  8
1
  6
Continuous
100
AcDbLine
 10
589.7644289999998
 20
760.249816
 30
0.0
 11
593.8820759999997
 21
758.249816
 31
0.0
  0
LINE
  5
111AB
330
110C9
100
AcDbEntity
  8
1
  6
Continuous
100
AcDbLine
 10
593.8820759999997
 20
758.249816
 30
0.0
 11
668.8820759999997
 21
758.249816
 31
0.0
  0
LINE
  5
111AC
330
110C9
100
AcDbEntity
  8
1
  6
Continuous
100
AcDbLine
 10
668.8820759999997
 20
759.849816
 30
0.0
 11
687.8820759999999
 21
759.849816
 31
0.0
  0
LINE
  5
111AD
330
110C9
100
AcDbEntity
  8
1
  6
Continuous
100
AcDbLine
 10
668.8820759999997
 20
759.849816
 30
0.0
 11
668.8820759999997
 21
758.249816
 31
0.0
  0
ARC
  5
111AE
330
110C9
100
AcDbEntity
  8
1
  6
Continuous
100
AcDbCircle
 10
687.8820759999999
 20
762.849816
 30
0.0
 40
3.0
100
AcDbArc
 50
270.0
 51
0.0
  0
ARC
  5
111AF
330
110C9
100
AcDbEntity
  8
1
  6
Continuous
100
AcDbCircle
 10
687.8820759999999
 20
776.849816
 30
0.0
 40
3.0
100
AcDbArc
 50
0.0
 51
90.0
  0
ARC
  5
111B0
330
110C9
100
AcDbEntity
  8
1
  6
Continuous
100
AcDbCircle
 10
679.8820759999999
 20
765.849816
 30
0.0
 40
11.0
100
AcDbArc
 50
213.0557309999999
 51
329.2484979999999
  0
CIRCLE
  5
111B1
330
110C9
100
AcDbEntity
  8
1
  6
Continuous
100
AcDbCircle
 10
679.8820759999999
 20
765.849816
 30
0.0
 40
3.649999999999999
  0
LINE
  5
111B2
330
110C9
100
AcDbEntity
  8
4
  6
CENTER
100
AcDbLine
 10
666.1179279999998
 20
765.849816
 30
0.0
 11
693.8024429999996
 21
765.849816
 31
0.0
  0
LINE
  5
111B3
330
110C9
100
AcDbEntity
  8
4
  6
CENTER
100
AcDbLine
 10
679.8820759999999
 20
775.5502759999997
 30
0.0
 11
679.8820759999999
 21
756.149356
 31
0.0
  0
CIRCLE
  5
111B4
330
110C9
100
AcDbEntity
  8
1
  6
Continuous
100
AcDbCircle
 10
670.882076
 20
769.849816
 30
0.0
 40
2.0
  0
LINE
  5
111B5
330
110C9
100
AcDbEntity
  8
4
  6
CENTER
100
AcDbLine
 10
670.882076
 20
774.349816
 30
0.0
 11
670.882076
 21
765.349816
 31
0.0
  0
LINE
  5
111B6
330
110C9
100
AcDbEntity
  8
4
  6
CENTER
100
AcDbLine
 10
658.8820759999999
 20
775.849816
 30
0.0
 11
658.8820759999999
 21
763.849816
 31
0.0
  0
CIRCLE
  5
111B7
330
110C9
100
AcDbEntity
  8
1
  6
Continuous
100
AcDbCircle
 10
658.8820759999999
 20
769.849816
 30
0.0
 40
3.0
  0
LINE
  5
111B8
330
110C9
100
AcDbEntity
  8
4
  6
CENTER
100
AcDbLine
 10
520.882076
 20
775.849816
 30
0.0
 11
520.882076
 21
763.849816
 31
0.0
  0
CIRCLE
  5
111B9
330
110C9
100
AcDbEntity
  8
1
  6
Continuous
100
AcDbCircle
 10
520.882076
 20
769.849816
 30
0.0
 40
3.0
  0
LINE
  5
111BA
330
110C9
100
AcDbEntity
  8
4
  6
CENTER
100
AcDbLine
 10
382.8820759999999
 20
775.849816
 30
0.0
 11
382.8820759999999
 21
763.849816
 31
0.0
  0
CIRCLE
  5
111BB
330
110C9
100
AcDbEntity
  8
1
  6
Continuous
100
AcDbCircle
 10
382.8820759999999
 20
769.849816
 30
0.0
 40
3.0
  0
CIRCLE
  5
111BC
330
110C9
100
AcDbEntity
  8
1
  6
Continuous
100
AcDbCircle
 10
244.8820759999999
 20
769.849816
 30
0.0
 40
3.0
  0
LINE
  5
111BD
330
110C9
100
AcDbEntity
  8
4
  6
CENTER
100
AcDbLine
 10
244.8820759999999
 20
775.849816
 30
0.0
 11
244.8820759999999
 21
763.849816
 31
0.0
  0
CIRCLE
  5
111BE
330
110C9
100
AcDbEntity
  8
1
  6
Continuous
100
AcDbCircle
 10
106.8820759999999
 20
769.849816
 30
0.0
 40
3.0
  0
LINE
  5
111BF
330
110C9
100
AcDbEntity
  8
4
  6
CENTER
100
AcDbLine
 10
106.8820759999999
 20
775.849816
 30
0.0
 11
106.8820759999999
 21
763.849816
 31
0.0
  0
CIRCLE
  5
111C0
330
110C9
100
AcDbEntity
  8
1
  6
Continuous
100
AcDbCircle
 10
121.882076
 20
769.849816
 30
0.0
 40
2.0
  0
LINE
  5
111C1
330
110C9
100
AcDbEntity
  8
4
  6
CENTER
100
AcDbLine
 10
121.882076
 20
765.849816
 30
0.0
 11
121.882076
 21
773.849816
 31
0.0
  0
LINE
  5
111C2
330
110C9
100
AcDbEntity
  8
1
  6
Continuous
100
AcDbLine
 10
690.882076
 20
776.849816
 30
0.0
 11
690.882076
 21
762.849816
 31
0.0
  0
LINE
  5
111C3
330
110C9
100
AcDbEntity
  8
1
  6
Continuous
100
AcDbLine
 10
90.882076
 20
573.4498160000002
 30
0.0
 11
565.882076
 21
573.4498160000002
 31
0.0
  0
LINE
  5
111C4
330
110C9
100
AcDbEntity
  8
1
  6
Continuous
100
AcDbLine
 10
93.88207599999999
 20
551.849816
 30
0.0
 11
570.5575209999998
 21
551.849816
 31
0.0
  0
CIRCLE
  5
111C5
330
110C9
100
AcDbEntity
  8
1
  6
Continuous
100
AcDbCircle
 10
121.882076
 20
561.849816
 30
0.0
 40
2.0
  0
CIRCLE
  5
111C6
330
110C9
100
AcDbEntity
  8
1
  6
Continuous
100
AcDbCircle
 10
106.8820759999999
 20
561.849816
 30
0.0
 40
3.0
  0
LINE
  5
111C7
330
110C9
100
AcDbEntity
  8
1
  6
Continuous
100
AcDbLine
 10
90.882076
 20
554.849816
 30
0.0
 11
90.882076
 21
573.4498160000002
 31
0.0
  0
LINE
  5
111C8
330
110C9
100
AcDbEntity
  8
4
  6
CENTER
100
AcDbLine
 10
121.882076
 20
565.849816
 30
0.0
 11
121.882076
 21
557.849816
 31
0.0
  0
LINE
  5
111C9
330
110C9
100
AcDbEntity
  8
4
  6
CENTER
100
AcDbLine
 10
106.8820759999999
 20
555.849816
 30
0.0
 11
106.8820759999999
 21
567.849816
 31
0.0
  0
ARC
  5
111CA
330
110C9
100
AcDbEntity
  8
1
  6
Continuous
100
AcDbCircle
 10
93.88207599999999
 20
554.849816
 30
0.0
 40
3.0
100
AcDbArc
 50
180.0
 51
270.0
  0
CIRCLE
  5
111CB
330
110C9
100
AcDbEntity
  8
1
  6
Continuous
100
AcDbCircle
 10
244.8820759999999
 20
561.849816
 30
0.0
 40
3.0
  0
LINE
  5
111CC
330
110C9
100
AcDbEntity
  8
4
  6
CENTER
100
AcDbLine
 10
244.8820759999999
 20
555.849816
 30
0.0
 11
244.8820759999999
 21
567.849816
 31
0.0
  0
CIRCLE
  5
111CD
330
110C9
100
AcDbEntity
  8
1
  6
Continuous
100
AcDbCircle
 10
382.8820759999999
 20
561.849816
 30
0.0
 40
3.0
  0
LINE
  5
111CE
330
110C9
100
AcDbEntity
  8
4
  6
CENTER
100
AcDbLine
 10
382.8820759999999
 20
555.849816
 30
0.0
 11
382.8820759999999
 21
567.849816
 31
0.0
  0
CIRCLE
  5
111CF
330
110C9
100
AcDbEntity
  8
1
  6
Continuous
100
AcDbCircle
 10
520.882076
 20
561.849816
 30
0.0
 40
3.0
  0
LINE
  5
111D0
330
110C9
100
AcDbEntity
  8
4
  6
CENTER
100
AcDbLine
 10
520.882076
 20
555.849816
 30
0.0
 11
520.882076
 21
567.849816
 31
0.0
  0
CIRCLE
  5
111D1
330
110C9
100
AcDbEntity
  8
1
  6
Continuous
100
AcDbCircle
 10
106.8820759999999
 20
561.849816
 30
0.0
 40
4.299999999999998
  0
CIRCLE
  5
111D2
330
110C9
100
AcDbEntity
  8
1
  6
Continuous
100
AcDbCircle
 10
244.8820759999999
 20
561.849816
 30
0.0
 40
4.299999999999998
  0
CIRCLE
  5
111D3
330
110C9
100
AcDbEntity
  8
1
  6
Continuous
100
AcDbCircle
 10
382.8820759999999
 20
561.849816
 30
0.0
 40
4.299999999999998
  0
CIRCLE
  5
111D4
330
110C9
100
AcDbEntity
  8
1
  6
Continuous
100
AcDbCircle
 10
520.882076
 20
561.849816
 30
0.0
 40
4.299999999999998
  0
LINE
  5
111D5
330
110C9
100
AcDbEntity
  8
1
  6
Continuous
100
AcDbLine
 10
90.882076
 20
571.849816
 30
0.0
 11
565.882076
 21
571.849816
 31
0.0
  0
LINE
  5
111D6
330
110C9
100
AcDbEntity
  8
1
  6
Continuous
100
AcDbLine
 10
565.882076
 20
758.249816
 30
0.0
 11
565.882076
 21
756.849816
 31
0.0
  0
LINE
  5
111D7
330
110C9
100
AcDbEntity
  8
3
  6
DASHED
100
AcDbLine
 10
587.8820759999999
 20
778.449816
 30
0.0
 11
587.8820759999999
 21
776.849816
 31
0.0
  0
LINE
  5
111D8
330
110C9
100
AcDbEntity
  8
3
  6
DASHED
100
AcDbLine
 10
565.882076
 20
776.849816
 30
0.0
 11
690.882076
 21
776.849816
 31
0.0
  0
LINE
  5
111D9
330
110C9
100
AcDbEntity
  8
1
  6
Continuous
100
AcDbLine
 10
690.419792
 20
778.449816
 30
0.0
 11
1165.882075999999
 21
778.449816
 31
0.0
  0
LINE
  5
111DA
330
110C9
100
AcDbEntity
  8
1
  6
Continuous
100
AcDbLine
 10
690.882076
 20
776.849816
 30
0.0
 11
1165.882075999999
 21
776.849816
 31
0.0
  0
CIRCLE
  5
111DB
330
110C9
100
AcDbEntity
  8
1
  6
Continuous
100
AcDbCircle
 10
1134.882076
 20
765.349816
 30
0.0
 40
2.0
  0
CIRCLE
  5
111DC
330
110C9
100
AcDbEntity
  8
1
  6
Continuous
100
AcDbCircle
 10
1149.882075999999
 20
765.349816
 30
0.0
 40
4.299999999999998
  0
CIRCLE
  5
111DD
330
110C9
100
AcDbEntity
  8
1
  6
Continuous
100
AcDbCircle
 10
1149.882075999999
 20
765.349816
 30
0.0
 40
3.0
  0
CIRCLE
  5
111DE
330
110C9
100
AcDbEntity
  8
1
  6
Continuous
100
AcDbCircle
 10
1011.882076
 20
765.349816
 30
0.0
 40
3.0
  0
CIRCLE
  5
111DF
330
110C9
100
AcDbEntity
  8
1
  6
Continuous
100
AcDbCircle
 10
1011.882076
 20
765.349816
 30
0.0
 40
4.299999999999998
  0
CIRCLE
  5
111E0
330
110C9
100
AcDbEntity
  8
1
  6
Continuous
100
AcDbCircle
 10
873.8820759999999
 20
765.349816
 30
0.0
 40
4.299999999999998
  0
CIRCLE
  5
111E1
330
110C9
100
AcDbEntity
  8
1
  6
Continuous
100
AcDbCircle
 10
873.8820759999999
 20
765.349816
 30
0.0
 40
3.0
  0
CIRCLE
  5
111E2
330
110C9
100
AcDbEntity
  8
1
  6
Continuous
100
AcDbCircle
 10
735.882076
 20
765.349816
 30
0.0
 40
3.0
  0
CIRCLE
  5
111E3
330
110C9
100
AcDbEntity
  8
1
  6
Continuous
100
AcDbCircle
 10
735.882076
 20
765.349816
 30
0.0
 40
4.299999999999998
  0
LINE
  5
111E4
330
110C9
100
AcDbEntity
  8
1
  6
Continuous
100
AcDbLine
 10
690.882076
 20
671.849816
 30
0.0
 11
90.882076
 21
671.849816
 31
0.0
  0
LINE
  5
111E5
330
110C9
100
AcDbEntity
  8
1
  6
Continuous
100
AcDbLine
 10
690.882076
 20
670.249816
 30
0.0
 11
668.8820759999997
 21
670.249816
 31
0.0
  0
LINE
  5
111E6
330
110C9
100
AcDbEntity
  8
1
  6
Continuous
100
AcDbLine
 10
690.882076
 20
670.249816
 30
0.0
 11
690.882076
 21
671.849816
 31
0.0
  0
LINE
  5
111E7
330
110C9
100
AcDbEntity
  8
1
  6
Continuous
100
AcDbLine
 10
690.382076
 20
669.249816
 30
0.0
 11
669.382076
 21
669.249816
 31
0.0
  0
ARC
  5
111E8
330
110C9
100
AcDbEntity
  8
1
  6
Continuous
100
AcDbCircle
 10
690.382076
 20
668.749816
 30
0.0
 40
0.5
100
AcDbArc
 50
0.0
 51
90.0
  0
LINE
  5
111E9
330
110C9
100
AcDbEntity
  8
1
  6
Continuous
100
AcDbLine
 10
690.882076
 20
667.849816
 30
0.0
 11
690.882076
 21
668.749816
 31
0.0
  0
LINE
  5
111EA
330
110C9
100
AcDbEntity
  8
3
  6
DASHED
100
AcDbLine
 10
668.8820759999997
 20
666.849816
 30
0.0
 11
668.8820759999997
 21
667.849816
 31
0.0
  0
ARC
  5
111EB
330
110C9
100
AcDbEntity
  8
1
  6
Continuous
100
AcDbCircle
 10
669.382076
 20
668.749816
 30
0.0
 40
0.5
100
AcDbArc
 50
90.0
 51
180.0
  0
LINE
  5
111EC
330
110C9
100
AcDbEntity
  8
4
  6
CENTER
100
AcDbLine
 10
670.882076
 20
675.046399
 30
0.0
 11
670.882076
 21
667.046399
 31
0.0
  0
LINE
  5
111ED
330
110C9
100
AcDbEntity
  8
4
  6
CENTER
100
AcDbLine
 10
658.8820759999999
 20
675.046399
 30
0.0
 11
658.8820759999999
 21
667.046399
 31
0.0
  0
LINE
  5
111EE
330
110C9
100
AcDbEntity
  8
4
  6
CENTER
100
AcDbLine
 10
679.8820759999999
 20
658.395608
 30
0.0
 11
679.8820759999999
 21
676.349816
 31
0.0
  0
LINE
  5
111EF
330
110C9
100
AcDbEntity
  8
1
  6
Continuous
100
AcDbLine
 10
675.1320759999997
 20
669.749816
 30
0.0
 11
675.1320759999997
 21
669.249816
 31
0.0
  0
LINE
  5
111F0
330
110C9
100
AcDbEntity
  8
1
  6
Continuous
100
AcDbLine
 10
684.632076
 20
669.749816
 30
0.0
 11
684.632076
 21
669.249816
 31
0.0
  0
LINE
  5
111F1
330
110C9
100
AcDbEntity
  8
1
  6
Continuous
100
AcDbLine
 10
683.532076
 20
672.5498159999999
 30
0.0
 11
682.832076
 21
671.849816
 31
0.0
  0
LINE
  5
111F2
330
110C9
100
AcDbEntity
  8
1
  6
Continuous
100
AcDbLine
 10
676.232076
 20
672.5498159999999
 30
0.0
 11
676.9320759999999
 21
671.849816
 31
0.0
  0
LINE
  5
111F3
330
110C9
100
AcDbEntity
  8
1
  6
Continuous
100
AcDbLine
 10
683.532076
 20
672.5498159999999
 30
0.0
 11
676.232076
 21
672.5498159999999
 31
0.0
  0
LINE
  5
111F4
330
110C9
100
AcDbEntity
  8
1
  6
Continuous
100
AcDbLine
 10
675.1320759999997
 20
669.749816
 30
0.0
 11
684.632076
 21
669.749816
 31
0.0
  0
LINE
  5
111F5
330
110C9
100
AcDbEntity
  8
1
  6
Continuous
100
AcDbLine
 10
675.1320759999997
 20
669.749816
 30
0.0
 11
675.632076
 21
670.249816
 31
0.0
  0
LINE
  5
111F6
330
110C9
100
AcDbEntity
  8
1
  6
Continuous
100
AcDbLine
 10
684.632076
 20
669.749816
 30
0.0
 11
684.132076
 21
670.249816
 31
0.0
  0
LINE
  5
111F7
330
110C9
100
AcDbEntity
  8
1
  6
Continuous
100
AcDbLine
 10
586.882076
 20
669.849816
 30
0.0
 11
586.882076
 21
663.849816
 31
0.0
  0
LINE
  5
111F8
330
110C9
100
AcDbEntity
  8
1
  6
Continuous
100
AcDbLine
 10
579.8820759999999
 20
663.849816
 30
0.0
 11
579.8820759999999
 21
671.849816
 31
0.0
  0
LINE
  5
111F9
330
110C9
100
AcDbEntity
  8
1
  6
Continuous
100
AcDbLine
 10
593.8820759999997
 20
663.849816
 30
0.0
 11
593.8820759999997
 21
671.849816
 31
0.0
  0
LINE
  5
111FA
330
110C9
100
AcDbEntity
  8
4
  6
CENTER
100
AcDbLine
 10
586.882076
 20
663.296925
 30
0.0
 11
586.882076
 21
674.8831199999997
 31
0.0
  0
LINE
  5
111FB
330
110C9
100
AcDbEntity
  8
1
  6
Continuous
100
AcDbLine
 10
593.8820759999997
 20
669.849816
 30
0.0
 11
579.8820759999999
 21
669.849816
 31
0.0
  0
LINE
  5
111FC
330
110C9
100
AcDbEntity
  8
1
  6
Continuous
100
AcDbLine
 10
593.8820759999997
 20
670.249816
 30
0.0
 11
579.8820759999999
 21
670.249816
 31
0.0
  0
LINE
  5
111FD
330
110C9
100
AcDbEntity
  8
4
  6
CENTER
100
AcDbLine
 10
520.882076
 20
675.046399
 30
0.0
 11
520.882076
 21
667.046399
 31
0.0
  0
LINE
  5
111FE
330
110C9
100
AcDbEntity
  8
4
  6
CENTER
100
AcDbLine
 10
382.8820759999999
 20
675.046399
 30
0.0
 11
382.8820759999999
 21
667.046399
 31
0.0
  0
LINE
  5
111FF
330
110C9
100
AcDbEntity
  8
4
  6
CENTER
100
AcDbLine
 10
244.8820759999999
 20
675.046399
 30
0.0
 11
244.8820759999999
 21
667.046399
 31
0.0
  0
LINE
  5
11200
330
110C9
100
AcDbEntity
  8
4
  6
CENTER
100
AcDbLine
 10
121.882076
 20
675.046399
 30
0.0
 11
121.882076
 21
667.046399
 31
0.0
  0
LINE
  5
11201
330
110C9
100
AcDbEntity
  8
4
  6
CENTER
100
AcDbLine
 10
106.8820759999999
 20
675.046399
 30
0.0
 11
106.8820759999999
 21
667.046399
 31
0.0
  0
LINE
  5
11202
330
110C9
100
AcDbEntity
  8
3
  6
DASHED
100
AcDbLine
 10
665.882076
 20
663.849816
 30
0.0
 11
615.882076
 21
663.849816
 31
0.0
  0
ARC
  5
11203
330
110C9
100
AcDbEntity
  8
1
  6
Continuous
100
AcDbCircle
 10
93.88207599999999
 20
666.849816
 30
0.0
 40
3.0
100
AcDbArc
 50
180.0
 51
270.0
  0
LINE
  5
11204
330
110C9
100
AcDbEntity
  8
1
  6
Continuous
100
AcDbLine
 10
90.882076
 20
666.849816
 30
0.0
 11
90.882076
 21
671.849816
 31
0.0
  0
ARC
  5
11205
330
110C9
100
AcDbEntity
  8
3
  6
DASHED
100
AcDbCircle
 10
665.882076
 20
666.849816
 30
0.0
 40
3.0
100
AcDbArc
 50
270.0
 51
0.0
  0
LINE
  5
11206
330
110C9
100
AcDbEntity
  8
1
  6
Continuous
100
AcDbLine
 10
668.8820759999997
 20
667.849816
 30
0.0
 11
668.8820759999997
 21
671.849816
 31
0.0
  0
LINE
  5
11207
330
110C9
100
AcDbEntity
  8
1
  6
Continuous
100
AcDbLine
 10
615.882076
 20
663.849816
 30
0.0
 11
93.88207599999999
 21
663.849816
 31
0.0
  0
LINE
  5
11208
330
110C9
100
AcDbEntity
  8
4
  6
CENTER
100
AcDbLine
 10
586.882076
 20
755.430289
 30
0.0
 11
586.882076
 21
764.095005
 31
0.0
  0
LINE
  5
11209
330
110C9
100
AcDbEntity
  8
1
  6
Continuous
100
AcDbLine
 10
565.882076
 20
557.849816
 30
0.0
 11
565.882076
 21
574.849816
 31
0.0
  0
LINE
  5
1120A
330
110C9
100
AcDbEntity
  8
3
  6
DASHED
100
AcDbLine
 10
593.8820759999997
 20
573.4498160000002
 30
0.0
 11
668.8820759999997
 21
573.4498160000002
 31
0.0
  0
LINE
  5
1120B
330
110C9
100
AcDbEntity
  8
3
  6
DASHED
100
AcDbLine
 10
579.8820759999999
 20
571.4498160000001
 30
0.0
 11
580.7056059999998
 21
571.4498160000001
 31
0.0
  0
LINE
  5
1120C
330
110C9
100
AcDbEntity
  8
3
  6
DASHED
100
AcDbLine
 10
579.8820759999999
 20
571.849816
 30
0.0
 11
579.8820759999999
 21
571.4498160000001
 31
0.0
  0
LINE
  5
1120D
330
110C9
100
AcDbEntity
  8
3
  6
DASHED
100
AcDbLine
 10
586.882076
 20
568.4498160000003
 30
0.0
 11
579.8820759999999
 21
571.849816
 31
0.0
  0
LINE
  5
1120E
330
110C9
100
AcDbEntity
  8
3
  6
DASHED
100
AcDbLine
 10
586.882076
 20
570.0498159999997
 30
0.0
 11
579.8820759999999
 21
573.4498160000002
 31
0.0
  0
LINE
  5
1120F
330
110C9
100
AcDbEntity
  8
3
  6
DASHED
100
AcDbLine
 10
593.8820759999997
 20
571.849816
 30
0.0
 11
593.8820759999997
 21
571.4498160000001
 31
0.0
  0
LINE
  5
11210
330
110C9
100
AcDbEntity
  8
3
  6
DASHED
100
AcDbLine
 10
586.882076
 20
568.4498160000003
 30
0.0
 11
593.8820759999997
 21
571.849816
 31
0.0
  0
LINE
  5
11211
330
110C9
100
AcDbEntity
  8
3
  6
DASHED
100
AcDbLine
 10
586.882076
 20
570.0498159999997
 30
0.0
 11
593.8820759999997
 21
573.4498160000002
 31
0.0
  0
LINE
  5
11212
330
110C9
100
AcDbEntity
  8
3
  6
DASHED
100
AcDbLine
 10
668.8820759999997
 20
571.849816
 30
0.0
 11
668.8820759999997
 21
573.4498160000002
 31
0.0
  0
ARC
  5
11213
330
110C9
100
AcDbEntity
  8
3
  6
DASHED
100
AcDbCircle
 10
687.8820759999999
 20
568.849816
 30
0.0
 40
3.0
100
AcDbArc
 50
0.0
 51
61.024143
  0
LINE
  5
11214
330
110C9
100
AcDbEntity
  8
3
  6
DASHED
100
AcDbLine
 10
690.882076
 20
554.849816
 30
0.0
 11
690.882076
 21
568.849816
 31
0.0
  0
LINE
  5
11215
330
110C9
100
AcDbEntity
  8
1
  6
Continuous
100
AcDbLine
 10
583.206631
 20
551.849816
 30
0.0
 11
687.8820759999999
 21
551.849816
 31
0.0
  0
ARC
  5
11216
330
110C9
100
AcDbEntity
  8
1
  6
Continuous
100
AcDbCircle
 10
687.8820759999999
 20
554.849816
 30
0.0
 40
3.0
100
AcDbArc
 50
270.0
 51
327.769047
  0
ARC
  5
11217
330
110C9
100
AcDbEntity
  8
3
  6
DASHED
100
AcDbCircle
 10
687.8820759999999
 20
554.849816
 30
0.0
 40
3.0
100
AcDbArc
 50
327.769047
 51
0.0
  0
CIRCLE
  5
11218
330
110C9
100
AcDbEntity
  8
3
  6
DASHED
100
AcDbCircle
 10
679.8820759999999
 20
565.849816
 30
0.0
 40
11.0
  0
LINE
  5
11219
330
110C9
100
AcDbEntity
  8
3
  6
DASHED
100
AcDbLine
 10
565.882076
 20
573.4498160000002
 30
0.0
 11
579.8820759999999
 21
573.4498160000002
 31
0.0
  0
LINE
  5
1121A
330
110C9
100
AcDbEntity
  8
3
  6
DASHED
100
AcDbLine
 10
593.0585469999997
 20
571.4498160000001
 30
0.0
 11
593.8820759999997
 21
571.4498160000001
 31
0.0
  0
LINE
  5
1121B
330
110C9
100
AcDbEntity
  8
3
  6
DASHED
100
AcDbLine
 10
583.999723
 20
571.4498160000001
 30
0.0
 11
589.7644289999998
 21
571.4498160000001
 31
0.0
  0
LINE
  5
1121C
330
110C9
100
AcDbEntity
  8
3
  6
DASHED
100
AcDbLine
 10
565.882076
 20
571.849816
 30
0.0
 11
579.8820759999999
 21
571.849816
 31
0.0
  0
LINE
  5
1121D
330
110C9
100
AcDbEntity
  8
3
  6
DASHED
100
AcDbLine
 10
593.8820759999997
 20
571.849816
 30
0.0
 11
670.6625320000001
 21
571.849816
 31
0.0
  0
LINE
  5
1121E
330
110C9
100
AcDbEntity
  8
4
  6
CENTER
100
AcDbLine
 10
679.8820759999999
 20
551.849816
 30
0.0
 11
679.8820759999999
 21
579.849816
 31
0.0
  0
LINE
  5
1121F
330
110C9
100
AcDbEntity
  8
1
  6
Continuous
100
AcDbLine
 10
1165.882075999999
 20
471.4498159999997
 30
0.0
 11
565.882076
 21
471.4498159999997
 31
0.0
  0
LINE
  5
11220
330
110C9
100
AcDbEntity
  8
1
  6
Continuous
100
AcDbLine
 10
1162.882075999998
 20
463.4498159999998
 30
0.0
 11
590.882076
 21
463.4498159999998
 31
0.0
  0
LINE
  5
11221
330
110C9
100
AcDbEntity
  8
1
  6
Continuous
100
AcDbLine
 10
565.882076
 20
467.4498159999997
 30
0.0
 11
93.88207599999999
 21
467.4498159999997
 31
0.0
  0
LINE
  5
11222
330
110C9
100
AcDbEntity
  8
1
  6
Continuous
100
AcDbLine
 10
690.882076
 20
459.4498159999998
 30
0.0
 11
90.882076
 21
459.4498159999998
 31
0.0
  0
LINE
  5
11223
330
110C9
100
AcDbEntity
  8
1
  6
Continuous
100
AcDbLine
 10
90.882076
 20
464.449816
 30
0.0
 11
90.882076
 21
459.4498159999998
 31
0.0
  0
ARC
  5
11224
330
110C9
100
AcDbEntity
  8
1
  6
Continuous
100
AcDbCircle
 10
93.88207599999999
 20
464.449816
 30
0.0
 40
3.0
100
AcDbArc
 50
90.0
 51
180.0
  0
LINE
  5
11225
330
110C9
100
AcDbEntity
  8
4
  6
CENTER
100
AcDbLine
 10
106.8820759999999
 20
456.253233
 30
0.0
 11
106.8820759999999
 21
464.253233
 31
0.0
  0
LINE
  5
11226
330
110C9
100
AcDbEntity
  8
4
  6
CENTER
100
AcDbLine
 10
121.882076
 20
456.253233
 30
0.0
 11
121.882076
 21
464.253233
 31
0.0
  0
LINE
  5
11227
330
110C9
100
AcDbEntity
  8
4
  6
CENTER
100
AcDbLine
 10
244.8820759999999
 20
456.253233
 30
0.0
 11
244.8820759999999
 21
464.253233
 31
0.0
  0
LINE
  5
11228
330
110C9
100
AcDbEntity
  8
4
  6
CENTER
100
AcDbLine
 10
382.8820759999999
 20
456.253233
 30
0.0
 11
382.8820759999999
 21
464.253233
 31
0.0
  0
LINE
  5
11229
330
110C9
100
AcDbEntity
  8
3
  6
DASHED
100
AcDbLine
 10
665.882076
 20
467.4498159999997
 30
0.0
 11
565.882076
 21
467.4498159999997
 31
0.0
  0
LINE
  5
1122A
330
110C9
100
AcDbEntity
  8
1
  6
Continuous
100
AcDbLine
 10
587.382076
 20
468.8498159999999
 30
0.0
 11
566.382076
 21
468.8498159999999
 31
0.0
  0
LINE
  5
1122B
330
110C9
100
AcDbEntity
  8
1
  6
Continuous
100
AcDbLine
 10
587.8820759999999
 20
469.8498159999998
 30
0.0
 11
565.882076
 21
469.8498159999998
 31
0.0
  0
LINE
  5
1122C
330
110C9
100
AcDbEntity
  8
4
  6
CENTER
100
AcDbLine
 10
520.882076
 20
456.253233
 30
0.0
 11
520.882076
 21
464.253233
 31
0.0
  0
LINE
  5
1122D
330
110C9
100
AcDbEntity
  8
1
  6
Continuous
100
AcDbLine
 10
565.882076
 20
468.349816
 30
0.0
 11
565.882076
 21
462.3498159999998
 31
0.0
  0
ARC
  5
1122E
330
110C9
100
AcDbEntity
  8
1
  6
Continuous
100
AcDbCircle
 10
566.382076
 20
468.349816
 30
0.0
 40
0.5
100
AcDbArc
 50
90.0
 51
180.0
  0
LINE
  5
1122F
330
110C9
100
AcDbEntity
  8
1
  6
Continuous
100
AcDbLine
 10
565.882076
 20
471.4498159999997
 30
0.0
 11
565.882076
 21
469.8498159999998
 31
0.0
  0
LINE
  5
11230
330
110C9
100
AcDbEntity
  8
1
  6
Continuous
100
AcDbLine
 10
586.882076
 20
461.449816
 30
0.0
 11
586.882076
 21
461.8498159999998
 31
0.0
  0
LINE
  5
11231
330
110C9
100
AcDbEntity
  8
1
  6
Continuous
100
AcDbLine
 10
579.8820759999999
 20
461.8498159999998
 30
0.0
 11
579.8820759999999
 21
461.049816
 31
0.0
  0
LINE
  5
11232
330
110C9
100
AcDbEntity
  8
3
  6
DASHED
100
AcDbLine
 10
593.8820759999997
 20
467.4498159999997
 30
0.0
 11
593.8820759999997
 21
463.4498159999998
 31
0.0
  0
LINE
  5
11233
330
110C9
100
AcDbEntity
  8
4
  6
CENTER
100
AcDbLine
 10
586.882076
 20
468.002707
 30
0.0
 11
586.882076
 21
456.416512
 31
0.0
  0
LINE
  5
11234
330
110C9
100
AcDbEntity
  8
4
  6
CENTER
100
AcDbLine
 10
596.8820759999998
 20
456.253233
 30
0.0
 11
596.8820759999998
 21
464.253233
 31
0.0
  0
LINE
  5
11235
330
110C9
100
AcDbEntity
  8
4
  6
CENTER
100
AcDbLine
 10
581.882076
 20
456.253233
 30
0.0
 11
581.882076
 21
464.253233
 31
0.0
  0
LINE
  5
11236
330
110C9
100
AcDbEntity
  8
4
  6
CENTER
100
AcDbLine
 10
576.8820759999997
 20
458.030046
 30
0.0
 11
576.8820759999997
 21
475.9498159999998
 31
0.0
  0
LINE
  5
11237
330
110C9
100
AcDbEntity
  8
4
  6
CENTER
100
AcDbLine
 10
585.8820759999997
 20
466.737296
 30
0.0
 11
585.8820759999997
 21
474.7372959999998
 31
0.0
  0
LINE
  5
11238
330
110C9
100
AcDbEntity
  8
1
  6
Continuous
100
AcDbLine
 10
580.5320759999997
 20
472.149816
 30
0.0
 11
579.832076
 21
471.4498159999997
 31
0.0
  0
LINE
  5
11239
330
110C9
100
AcDbEntity
  8
1
  6
Continuous
100
AcDbLine
 10
573.232076
 20
472.149816
 30
0.0
 11
573.9320759999999
 21
471.4498159999997
 31
0.0
  0
LINE
  5
1123A
330
110C9
100
AcDbEntity
  8
1
  6
Continuous
100
AcDbLine
 10
580.5320759999997
 20
472.149816
 30
0.0
 11
573.232076
 21
472.149816
 31
0.0
  0
LINE
  5
1123B
330
110C9
100
AcDbEntity
  8
1
  6
Continuous
100
AcDbLine
 10
572.132076
 20
469.3498159999998
 30
0.0
 11
581.6320759999999
 21
469.3498159999998
 31
0.0
  0
LINE
  5
1123C
330
110C9
100
AcDbEntity
  8
1
  6
Continuous
100
AcDbLine
 10
581.6320759999999
 20
469.3498159999998
 30
0.0
 11
581.6320759999999
 21
468.8498159999999
 31
0.0
  0
LINE
  5
1123D
330
110C9
100
AcDbEntity
  8
1
  6
Continuous
100
AcDbLine
 10
581.6320759999999
 20
469.3498159999998
 30
0.0
 11
581.132076
 21
469.8498159999998
 31
0.0
  0
LINE
  5
1123E
330
110C9
100
AcDbEntity
  8
1
  6
Continuous
100
AcDbLine
 10
572.132076
 20
469.3498159999998
 30
0.0
 11
572.132076
 21
468.8498159999999
 31
0.0
  0
LINE
  5
1123F
330
110C9
100
AcDbEntity
  8
1
  6
Continuous
100
AcDbLine
 10
572.132076
 20
469.3498159999998
 30
0.0
 11
572.632076
 21
469.8498159999998
 31
0.0
  0
ARC
  5
11240
330
110C9
100
AcDbEntity
  8
1
  6
Continuous
100
AcDbCircle
 10
587.382076
 20
468.349816
 30
0.0
 40
0.5
100
AcDbArc
 50
0.0
 51
90.0
  0
LINE
  5
11241
330
110C9
100
AcDbEntity
  8
1
  6
Continuous
100
AcDbLine
 10
587.8820759999999
 20
471.4498159999997
 30
0.0
 11
587.8820759999999
 21
462.3498159999998
 31
0.0
  0
LINE
  5
11242
330
110C9
100
AcDbEntity
  8
4
  6
CENTER
100
AcDbLine
 10
597.8820759999997
 20
466.737296
 30
0.0
 11
597.8820759999997
 21
474.7372959999998
 31
0.0
  0
LINE
  5
11243
330
110C9
100
AcDbEntity
  8
1
  6
Continuous
100
AcDbLine
 10
593.8820759999997
 20
461.049816
 30
0.0
 11
579.8820759999999
 21
461.049816
 31
0.0
  0
LINE
  5
11244
330
110C9
100
AcDbEntity
  8
1
  6
Continuous
100
AcDbLine
 10
593.8820759999997
 20
461.449816
 30
0.0
 11
579.8820759999999
 21
461.449816
 31
0.0
  0
LINE
  5
11245
330
110C9
100
AcDbEntity
  8
1
  6
Continuous
100
AcDbLine
 10
690.882076
 20
461.049816
 30
0.0
 11
90.882076
 21
461.049816
 31
0.0
  0
LINE
  5
11246
330
110C9
100
AcDbEntity
  8
1
  6
Continuous
100
AcDbLine
 10
690.382076
 20
462.049816
 30
0.0
 11
669.382076
 21
462.049816
 31
0.0
  0
LINE
  5
11247
330
110C9
100
AcDbEntity
  8
1
  6
Continuous
100
AcDbLine
 10
668.8820759999997
 20
463.4498159999998
 30
0.0
 11
668.8820759999997
 21
461.049816
 31
0.0
  0
LINE
  5
11248
330
110C9
100
AcDbEntity
  8
4
  6
CENTER
100
AcDbLine
 10
658.8820759999999
 20
456.253233
 30
0.0
 11
658.8820759999999
 21
464.253233
 31
0.0
  0
LINE
  5
11249
330
110C9
100
AcDbEntity
  8
4
  6
CENTER
100
AcDbLine
 10
670.882076
 20
456.253233
 30
0.0
 11
670.882076
 21
464.253233
 31
0.0
  0
LINE
  5
1124A
330
110C9
100
AcDbEntity
  8
3
  6
DASHED
100
AcDbLine
 10
668.8820759999997
 20
464.449816
 30
0.0
 11
668.8820759999997
 21
463.4498159999998
 31
0.0
  0
ARC
  5
1124B
330
110C9
100
AcDbEntity
  8
3
  6
DASHED
100
AcDbCircle
 10
665.882076
 20
464.449816
 30
0.0
 40
3.0
100
AcDbArc
 50
0.0
 51
90.0
  0
ARC
  5
1124C
330
110C9
100
AcDbEntity
  8
1
  6
Continuous
100
AcDbCircle
 10
669.382076
 20
462.549816
 30
0.0
 40
0.5
100
AcDbArc
 50
180.0
 51
270.0
  0
LINE
  5
1124D
330
110C9
100
AcDbEntity
  8
1
  6
Continuous
100
AcDbLine
 10
684.632076
 20
461.549816
 30
0.0
 11
684.632076
 21
462.049816
 31
0.0
  0
LINE
  5
1124E
330
110C9
100
AcDbEntity
  8
1
  6
Continuous
100
AcDbLine
 10
675.1320759999997
 20
461.549816
 30
0.0
 11
675.1320759999997
 21
462.049816
 31
0.0
  0
LINE
  5
1124F
330
110C9
100
AcDbEntity
  8
4
  6
CENTER
100
AcDbLine
 10
679.8820759999999
 20
472.904023
 30
0.0
 11
679.8820759999999
 21
454.9498159999997
 31
0.0
  0
LINE
  5
11250
330
110C9
100
AcDbEntity
  8
1
  6
Continuous
100
AcDbLine
 10
690.882076
 20
463.4498159999998
 30
0.0
 11
690.882076
 21
462.549816
 31
0.0
  0
ARC
  5
11251
330
110C9
100
AcDbEntity
  8
1
  6
Continuous
100
AcDbCircle
 10
690.382076
 20
462.549816
 30
0.0
 40
0.5
100
AcDbArc
 50
270.0
 51
0.0
  0
LINE
  5
11252
330
110C9
100
AcDbEntity
  8
1
  6
Continuous
100
AcDbLine
 10
684.632076
 20
461.549816
 30
0.0
 11
684.132076
 21
461.049816
 31
0.0
  0
LINE
  5
11253
330
110C9
100
AcDbEntity
  8
1
  6
Continuous
100
AcDbLine
 10
675.1320759999997
 20
461.549816
 30
0.0
 11
675.632076
 21
461.049816
 31
0.0
  0
LINE
  5
11254
330
110C9
100
AcDbEntity
  8
1
  6
Continuous
100
AcDbLine
 10
675.1320759999997
 20
461.549816
 30
0.0
 11
684.632076
 21
461.549816
 31
0.0
  0
LINE
  5
11255
330
110C9
100
AcDbEntity
  8
1
  6
Continuous
100
AcDbLine
 10
683.532076
 20
458.7498159999998
 30
0.0
 11
676.232076
 21
458.7498159999998
 31
0.0
  0
LINE
  5
11256
330
110C9
100
AcDbEntity
  8
1
  6
Continuous
100
AcDbLine
 10
676.232076
 20
458.7498159999998
 30
0.0
 11
676.9320759999999
 21
459.4498159999998
 31
0.0
  0
LINE
  5
11257
330
110C9
100
AcDbEntity
  8
1
  6
Continuous
100
AcDbLine
 10
683.532076
 20
458.7498159999998
 30
0.0
 11
682.832076
 21
459.4498159999998
 31
0.0
  0
LINE
  5
11258
330
110C9
100
AcDbEntity
  8
1
  6
Continuous
100
AcDbLine
 10
690.882076
 20
461.049816
 30
0.0
 11
690.882076
 21
459.4498159999998
 31
0.0
  0
LINE
  5
11259
330
110C9
100
AcDbEntity
  8
4
  6
CENTER
100
AcDbLine
 10
735.882076
 20
466.737296
 30
0.0
 11
735.882076
 21
474.7372959999998
 31
0.0
  0
LINE
  5
1125A
330
110C9
100
AcDbEntity
  8
4
  6
CENTER
100
AcDbLine
 10
873.8820759999999
 20
466.737296
 30
0.0
 11
873.8820759999999
 21
474.7372959999998
 31
0.0
  0
LINE
  5
1125B
330
110C9
100
AcDbEntity
  8
4
  6
CENTER
100
AcDbLine
 10
1011.882076
 20
466.737296
 30
0.0
 11
1011.882076
 21
474.7372959999998
 31
0.0
  0
LINE
  5
1125C
330
110C9
100
AcDbEntity
  8
4
  6
CENTER
100
AcDbLine
 10
1134.882076
 20
466.737296
 30
0.0
 11
1134.882076
 21
474.7372959999998
 31
0.0
  0
LINE
  5
1125D
330
110C9
100
AcDbEntity
  8
1
  6
Continuous
100
AcDbLine
 10
1165.882075999999
 20
471.4498159999997
 30
0.0
 11
1165.882075999999
 21
466.4498159999998
 31
0.0
  0
LINE
  5
1125E
330
110C9
100
AcDbEntity
  8
4
  6
CENTER
100
AcDbLine
 10
1149.882075999999
 20
466.737296
 30
0.0
 11
1149.882075999999
 21
474.7372959999998
 31
0.0
  0
ARC
  5
1125F
330
110C9
100
AcDbEntity
  8
1
  6
Continuous
100
AcDbCircle
 10
1162.882075999998
 20
466.4498159999998
 30
0.0
 40
3.0
100
AcDbArc
 50
270.0
 51
0.0
  0
ARC
  5
11260
330
110C9
100
AcDbEntity
  8
1
  6
Continuous
100
AcDbCircle
 10
590.882076
 20
466.4498159999998
 30
0.0
 40
3.0
100
AcDbArc
 50
180.0
 51
270.0
  0
LINE
  5
11261
330
110C9
100
AcDbEntity
  8
1
  6
Continuous
100
AcDbLine
 10
593.8820759999997
 20
463.4498159999998
 30
0.0
 11
593.8820759999997
 21
461.049816
 31
0.0
  0
LINE
  5
11262
330
110C9
100
AcDbEntity
  8
1
  6
Continuous
100
AcDbLine
 10
587.382076
 20
461.8498159999998
 30
0.0
 11
566.382076
 21
461.8498159999998
 31
0.0
  0
ARC
  5
11263
330
110C9
100
AcDbEntity
  8
1
  6
Continuous
100
AcDbCircle
 10
587.382076
 20
462.3498159999998
 30
0.0
 40
0.5
100
AcDbArc
 50
270.0
 51
0.0
  0
ARC
  5
11264
330
110C9
100
AcDbEntity
  8
1
  6
Continuous
100
AcDbCircle
 10
566.382076
 20
462.3498159999998
 30
0.0
 40
0.5
100
AcDbArc
 50
180.0
 51
270.0
  0
ARC
  5
11265
330
110C9
100
AcDbEntity
  8
3
  6
DASHED
100
AcDbCircle
 10
576.8820759999997
 20
770.849816
 30
0.0
 40
11.0
100
AcDbArc
 50
125.096801
 51
54.903199
  0
ARC
  5
11266
330
110C9
100
AcDbEntity
  8
3
  6
DASHED
100
AcDbCircle
 10
679.8820759999999
 20
765.849816
 30
0.0
 40
11.0
100
AcDbArc
 50
329.2484979999999
 51
213.0557309999999
  0
ARC
  5
11267
330
110C9
100
AcDbEntity
  8
3
  6
DASHED
100
AcDbCircle
 10
576.8820759999997
 20
560.849816
 30
0.0
 40
11.0
100
AcDbArc
 50
326.944269
 51
21.052718
  0
ARC
  5
11268
330
110C9
100
AcDbEntity
  8
3
  6
DASHED
100
AcDbCircle
 10
576.8820759999997
 20
560.849816
 30
0.0
 40
11.0
100
AcDbArc
 50
41.806413
 51
210.751502
  0
LINE
  5
11269
330
110C9
100
AcDbEntity
  8
4
  6
CENTER
100
AcDbLine
 10
670.882076
 20
566.349816
 30
0.0
 11
670.882076
 21
557.349816
 31
0.0
  0
LINE
  5
1126A
330
110C9
100
AcDbEntity
  8
4
  6
CENTER
100
AcDbLine
 10
658.8820759999999
 20
567.849816
 30
0.0
 11
658.8820759999999
 21
555.849816
 31
0.0
  0
LINE
  5
1126B
330
110C9
100
AcDbEntity
  8
4
  6
CENTER
100
AcDbLine
 10
693.7849700000001
 20
565.849816
 30
0.0
 11
665.78497
 21
565.849816
 31
0.0
  0
LINE
  5
1126C
330
110C9
100
AcDbEntity
  8
5
  6
PHANTOM
100
AcDbLine
 10
583.1761939999998
 20
571.849816
 30
0.0
 11
590.5879579999997
 21
571.849816
 31
0.0
  0
LINE
  5
1126D
330
110C9
100
AcDbEntity
  8
5
  6
PHANTOM
100
AcDbLine
 10
579.8820759999999
 20
573.4498160000002
 30
0.0
 11
593.8820759999997
 21
573.4498160000002
 31
0.0
  0
LINE
  5
1126E
330
110C9
100
AcDbEntity
  8
5
  6
PHANTOM
100
AcDbLine
 10
687.8820759999999
 20
551.849816
 30
0.0
 11
1162.882075999998
 21
551.849816
 31
0.0
  0
LINE
  5
1126F
330
110C9
100
AcDbEntity
  8
4
  6
CENTER
100
AcDbLine
 10
84.17394899999996
 20
561.849816
 30
0.0
 11
1173.354645999999
 21
561.849816
 31
0.0
  0
ARC
  5
11270
330
110C9
100
AcDbEntity
  8
5
  6
PHANTOM
100
AcDbCircle
 10
568.8820759999997
 20
554.849816
 30
0.0
 40
3.0
100
AcDbArc
 50
180.0
 51
270.0
  0
LINE
  5
11271
330
110C9
100
AcDbEntity
  8
5
  6
PHANTOM
100
AcDbLine
 10
565.882076
 20
554.849816
 30
0.0
 11
565.882076
 21
557.849816
 31
0.0
  0
CIRCLE
  5
11272
330
110C9
100
AcDbEntity
  8
5
  6
PHANTOM
100
AcDbCircle
 10
596.8820759999998
 20
561.849816
 30
0.0
 40
2.0
  0
CIRCLE
  5
11273
330
110C9
100
AcDbEntity
  8
5
  6
PHANTOM
100
AcDbCircle
 10
581.882076
 20
561.849816
 30
0.0
 40
4.299999999999998
  0
CIRCLE
  5
11274
330
110C9
100
AcDbEntity
  8
5
  6
PHANTOM
100
AcDbCircle
 10
581.882076
 20
561.849816
 30
0.0
 40
3.0
  0
LINE
  5
11275
330
110C9
100
AcDbEntity
  8
4
  6
CENTER
100
AcDbLine
 10
581.882076
 20
555.849816
 30
0.0
 11
581.882076
 21
567.849816
 31
0.0
  0
LINE
  5
11276
330
110C9
100
AcDbEntity
  8
4
  6
CENTER
100
AcDbLine
 10
596.8820759999998
 20
565.849816
 30
0.0
 11
596.8820759999998
 21
557.849816
 31
0.0
  0
CIRCLE
  5
11277
330
110C9
100
AcDbEntity
  8
5
  6
PHANTOM
100
AcDbCircle
 10
719.882076
 20
561.849816
 30
0.0
 40
4.299999999999998
  0
CIRCLE
  5
11278
330
110C9
100
AcDbEntity
  8
5
  6
PHANTOM
100
AcDbCircle
 10
719.882076
 20
561.849816
 30
0.0
 40
3.0
  0
LINE
  5
11279
330
110C9
100
AcDbEntity
  8
4
  6
CENTER
100
AcDbLine
 10
719.882076
 20
555.849816
 30
0.0
 11
719.882076
 21
567.849816
 31
0.0
  0
CIRCLE
  5
1127A
330
110C9
100
AcDbEntity
  8
5
  6
PHANTOM
100
AcDbCircle
 10
857.8820759999999
 20
561.849816
 30
0.0
 40
3.0
  0
CIRCLE
  5
1127B
330
110C9
100
AcDbEntity
  8
5
  6
PHANTOM
100
AcDbCircle
 10
857.8820759999999
 20
561.849816
 30
0.0
 40
4.299999999999998
  0
LINE
  5
1127C
330
110C9
100
AcDbEntity
  8
4
  6
CENTER
100
AcDbLine
 10
857.8820759999999
 20
555.849816
 30
0.0
 11
857.8820759999999
 21
567.849816
 31
0.0
  0
LINE
  5
1127D
330
110C9
100
AcDbEntity
  8
5
  6
PHANTOM
100
AcDbLine
 10
1068.882075999999
 20
571.849816
 30
0.0
 11
1145.662532
 21
571.849816
 31
0.0
  0
LINE
  5
1127E
330
110C9
100
AcDbEntity
  8
5
  6
PHANTOM
100
AcDbLine
 10
1068.882075999999
 20
573.4498160000002
 30
0.0
 11
1143.882075999999
 21
573.4498160000002
 31
0.0
  0
CIRCLE
  5
1127F
330
110C9
100
AcDbEntity
  8
5
  6
PHANTOM
100
AcDbCircle
 10
995.882076
 20
561.849816
 30
0.0
 40
4.299999999999998
  0
CIRCLE
  5
11280
330
110C9
100
AcDbEntity
  8
5
  6
PHANTOM
100
AcDbCircle
 10
995.882076
 20
561.849816
 30
0.0
 40
3.0
  0
LINE
  5
11281
330
110C9
100
AcDbEntity
  8
4
  6
CENTER
100
AcDbLine
 10
995.882076
 20
555.849816
 30
0.0
 11
995.882076
 21
567.849816
 31
0.0
  0
LINE
  5
11282
330
110C9
100
AcDbEntity
  8
5
  6
PHANTOM
100
AcDbLine
 10
1058.999723
 20
571.4498160000001
 30
0.0
 11
1064.764429
 21
571.4498160000001
 31
0.0
  0
LINE
  5
11283
330
110C9
100
AcDbEntity
  8
5
  6
PHANTOM
100
AcDbLine
 10
1068.058547
 20
571.4498160000001
 30
0.0
 11
1068.882075999999
 21
571.4498160000001
 31
0.0
  0
LINE
  5
11284
330
110C9
100
AcDbEntity
  8
5
  6
PHANTOM
100
AcDbLine
 10
1061.882075999998
 20
570.0498159999997
 30
0.0
 11
1068.882075999999
 21
573.4498160000002
 31
0.0
  0
LINE
  5
11285
330
110C9
100
AcDbEntity
  8
5
  6
PHANTOM
100
AcDbLine
 10
1061.882075999998
 20
568.4498160000003
 30
0.0
 11
1068.882075999999
 21
571.849816
 31
0.0
  0
LINE
  5
11286
330
110C9
100
AcDbEntity
  8
5
  6
PHANTOM
100
AcDbLine
 10
1068.882075999999
 20
571.849816
 30
0.0
 11
1068.882075999999
 21
571.4498160000001
 31
0.0
  0
LINE
  5
11287
330
110C9
100
AcDbEntity
  8
5
  6
PHANTOM
100
AcDbLine
 10
1061.882075999998
 20
570.0498159999997
 30
0.0
 11
1054.882075999999
 21
573.4498160000002
 31
0.0
  0
LINE
  5
11288
330
110C9
100
AcDbEntity
  8
5
  6
PHANTOM
100
AcDbLine
 10
1061.882075999998
 20
568.4498160000003
 30
0.0
 11
1054.882075999999
 21
571.849816
 31
0.0
  0
LINE
  5
11289
330
110C9
100
AcDbEntity
  8
5
  6
PHANTOM
100
AcDbLine
 10
1054.882075999999
 20
571.849816
 30
0.0
 11
1054.882075999999
 21
571.4498160000001
 31
0.0
  0
LINE
  5
1128A
330
110C9
100
AcDbEntity
  8
5
  6
PHANTOM
100
AcDbLine
 10
1054.882075999999
 20
571.4498160000001
 30
0.0
 11
1055.705606
 21
571.4498160000001
 31
0.0
  0
CIRCLE
  5
1128B
330
110C9
100
AcDbEntity
  8
5
  6
PHANTOM
100
AcDbCircle
 10
1154.882075999998
 20
565.849816
 30
0.0
 40
11.0
  0
LINE
  5
1128C
330
110C9
100
AcDbEntity
  8
4
  6
CENTER
100
AcDbLine
 10
1168.784969999999
 20
565.849816
 30
0.0
 11
1140.78497
 21
565.849816
 31
0.0
  0
ARC
  5
1128D
330
110C9
100
AcDbEntity
  8
5
  6
PHANTOM
100
AcDbCircle
 10
1145.882075999999
 20
561.849816
 30
0.0
 40
2.0
100
AcDbArc
 50
144.471448
 51
263.45353
  0
CIRCLE
  5
1128E
330
110C9
100
AcDbEntity
  8
5
  6
PHANTOM
100
AcDbCircle
 10
1133.882075999999
 20
561.849816
 30
0.0
 40
3.0
  0
CIRCLE
  5
1128F
330
110C9
100
AcDbEntity
  8
5
  6
PHANTOM
100
AcDbCircle
 10
1133.882075999999
 20
561.849816
 30
0.0
 40
4.299999999999998
  0
LINE
  5
11290
330
110C9
100
AcDbEntity
  8
5
  6
PHANTOM
100
AcDbLine
 10
1143.882075999999
 20
571.849816
 30
0.0
 11
1143.882075999999
 21
573.4498160000002
 31
0.0
  0
LINE
  5
11291
330
110C9
100
AcDbEntity
  8
4
  6
CENTER
100
AcDbLine
 10
1145.882075999999
 20
566.349816
 30
0.0
 11
1145.882075999999
 21
557.349816
 31
0.0
  0
LINE
  5
11292
330
110C9
100
AcDbEntity
  8
4
  6
CENTER
100
AcDbLine
 10
1133.882075999999
 20
567.849816
 30
0.0
 11
1133.882075999999
 21
555.849816
 31
0.0
  0
ARC
  5
11293
330
110C9
100
AcDbEntity
  8
5
  6
PHANTOM
100
AcDbCircle
 10
1162.882075999998
 20
554.849816
 30
0.0
 40
3.0
100
AcDbArc
 50
270.0
 51
0.0
  0
ARC
  5
11294
330
110C9
100
AcDbEntity
  8
5
  6
PHANTOM
100
AcDbCircle
 10
1162.882075999998
 20
568.849816
 30
0.0
 40
3.0
100
AcDbArc
 50
0.0
 51
61.024143
  0
LINE
  5
11295
330
110C9
100
AcDbEntity
  8
4
  6
CENTER
100
AcDbLine
 10
1154.882075999998
 20
551.849816
 30
0.0
 11
1154.882075999998
 21
579.849816
 31
0.0
  0
LINE
  5
11296
330
110C9
100
AcDbEntity
  8
5
  6
PHANTOM
100
AcDbLine
 10
670.6625320000001
 20
571.849816
 30
0.0
 11
1054.882075999999
 21
571.849816
 31
0.0
  0
LINE
  5
11297
330
110C9
100
AcDbEntity
  8
5
  6
PHANTOM
100
AcDbLine
 10
668.8820759999997
 20
573.4498160000002
 30
0.0
 11
1054.882075999999
 21
573.4498160000002
 31
0.0
  0
LINE
  5
11298
330
110C9
100
AcDbEntity
  8
1
  6
Continuous
100
AcDbLine
 10
615.882076
 20
334.2999999999999
 30
0.0
 11
1165.882075999999
 21
334.2999999999999
 31
0.0
  0
LINE
  5
11299
330
110C9
100
AcDbEntity
  8
1
  6
Continuous
100
AcDbLine
 10
587.8820759999999
 20
360.4999999999998
 30
0.0
 11
1165.882075999999
 21
360.4999999999998
 31
0.0
  0
LINE
  5
1129A
330
110C9
100
AcDbEntity
  8
4
  6
CENTER
100
AcDbLine
 10
560.8820759999998
 20
347.3999999999999
 30
0.0
 11
1170.882075999998
 21
347.3999999999999
 31
0.0
  0
LINE
  5
1129B
330
110C9
100
AcDbEntity
  8
4
  6
CENTER
100
AcDbLine
 10
84.17394899999996
 20
351.8999999999999
 30
0.0
 11
696.477576
 21
351.8999999999999
 31
0.0
  0
LINE
  5
1129C
330
110C9
100
AcDbEntity
  8
1
  6
Continuous
100
AcDbLine
 10
690.882076
 20
136.8999999999997
 30
0.0
 11
1165.882075999999
 21
136.8999999999997
 31
0.0
  0
LINE
  5
1129D
330
110C9
100
AcDbEntity
  8
1
  6
Continuous
100
AcDbLine
 10
690.419792
 20
135.3
 30
0.0
 11
1165.882075999999
 21
135.3
 31
0.0
  0
LINE
  5
1129E
330
110C9
100
AcDbEntity
  8
1
  6
Continuous
100
AcDbLine
 10
568.8820759999997
 20
159.9
 30
0.0
 11
1165.882075999999
 21
159.9
 31
0.0
  0
LINE
  5
1129F
330
110C9
100
AcDbEntity
  8
4
  6
CENTER
100
AcDbLine
 10
560.8820759999998
 20
148.3999999999998
 30
0.0
 11
1170.882075999998
 21
148.3999999999998
 31
0.0
  0
LINE
  5
112A0
330
110C9
100
AcDbEntity
  8
1
  6
Continuous
100
AcDbLine
 10
615.882076
 20
161.5
 30
0.0
 11
1165.882075999999
 21
161.5
 31
0.0
  0
LINE
  5
112A1
330
110C9
100
AcDbEntity
  8
1
  6
Continuous
100
AcDbLine
 10
1165.882075999999
 20
253.9
 30
0.0
 11
565.882076
 21
253.9
 31
0.0
  0
LINE
  5
112A2
330
110C9
100
AcDbEntity
  8
1
  6
Continuous
100
AcDbLine
 10
1162.882075999998
 20
245.9
 30
0.0
 11
618.8820759999997
 21
245.9
 31
0.0
  0
LINE
  5
112A3
330
110C9
100
AcDbEntity
  8
1
  6
Continuous
100
AcDbLine
 10
1162.882075999998
 20
49.5
 30
0.0
 11
590.882076
 21
49.5
 31
0.0
  0
LINE
  5
112A4
330
110C9
100
AcDbEntity
  8
1
  6
Continuous
100
AcDbLine
 10
1165.882075999999
 20
41.5
 30
0.0
 11
565.882076
 21
41.5
 31
0.0
  0
LINE
  5
112A5
330
110C9
100
AcDbEntity
  8
1
  6
Continuous
100
AcDbLine
 10
90.882076
 20
340.3
 30
0.0
 11
565.882076
 21
340.3
 31
0.0
  0
LINE
  5
112A6
330
110C9
100
AcDbEntity
  8
1
  6
Continuous
100
AcDbLine
 10
90.882076
 20
341.9
 30
0.0
 11
565.882076
 21
341.9
 31
0.0
  0
LINE
  5
112A7
330
110C9
100
AcDbEntity
  8
1
  6
Continuous
100
AcDbLine
 10
93.88207599999999
 20
361.8999999999999
 30
0.0
 11
570.5575209999998
 21
361.8999999999999
 31
0.0
  0
LINE
  5
112A8
330
110C9
100
AcDbEntity
  8
1
  6
Continuous
100
AcDbLine
 10
690.882076
 20
51.9
 30
0.0
 11
90.882076
 21
51.9
 31
0.0
  0
LINE
  5
112A9
330
110C9
100
AcDbEntity
  8
1
  6
Continuous
100
AcDbLine
 10
690.882076
 20
53.5
 30
0.0
 11
90.882076
 21
53.5
 31
0.0
  0
LINE
  5
112AA
330
110C9
100
AcDbEntity
  8
1
  6
Continuous
100
AcDbLine
 10
565.882076
 20
45.49999999999999
 30
0.0
 11
93.88207599999999
 21
45.49999999999999
 31
0.0
  0
ARC
  5
112AB
330
110C9
100
AcDbEntity
  8
1
  6
Continuous
100
AcDbCircle
 10
93.88207599999999
 20
48.5
 30
0.0
 40
3.0
100
AcDbArc
 50
180.0
 51
270.0
  0
LINE
  5
112AC
330
110C9
100
AcDbEntity
  8
1
  6
Continuous
100
AcDbLine
 10
90.882076
 20
48.5
 30
0.0
 11
90.882076
 21
53.5
 31
0.0
  0
LINE
  5
112AD
330
110C9
100
AcDbEntity
  8
4
  6
CENTER
100
AcDbLine
 10
106.8820759999999
 20
56.696583
 30
0.0
 11
106.8820759999999
 21
48.69658300000001
 31
0.0
  0
LINE
  5
112AE
330
110C9
100
AcDbEntity
  8
4
  6
CENTER
100
AcDbLine
 10
121.882076
 20
56.696583
 30
0.0
 11
121.882076
 21
48.69658300000001
 31
0.0
  0
LINE
  5
112AF
330
110C9
100
AcDbEntity
  8
1
  6
Continuous
100
AcDbLine
 10
25.0
 20
159.9
 30
0.0
 11
25.0
 21
136.8999999999997
 31
0.0
  0
LINE
  5
112B0
330
110C9
100
AcDbEntity
  8
1
  6
Continuous
100
AcDbLine
 10
26.6
 20
159.9
 30
0.0
 11
26.6
 21
136.8999999999997
 31
0.0
  0
ARC
  5
112B1
330
110C9
100
AcDbEntity
  8
1
  6
Continuous
100
AcDbCircle
 10
27.9
 20
158.4
 30
0.0
 40
0.5
100
AcDbArc
 50
90.0
 51
180.0
  0
ARC
  5
112B2
330
110C9
100
AcDbEntity
  8
1
  6
Continuous
100
AcDbCircle
 10
33.9
 20
158.4
 30
0.0
 40
0.5
100
AcDbArc
 50
0.0
 51
90.0
  0
LINE
  5
112B3
330
110C9
100
AcDbEntity
  8
1
  6
Continuous
100
AcDbLine
 10
25.0
 20
136.8999999999997
 30
0.0
 11
27.6
 21
136.8999999999997
 31
0.0
  0
LINE
  5
112B4
330
110C9
100
AcDbEntity
  8
1
  6
Continuous
100
AcDbLine
 10
26.6
 20
135.3
 30
0.0
 11
27.6
 21
135.3
 31
0.0
  0
ARC
  5
112B5
330
110C9
100
AcDbEntity
  8
1
  6
Continuous
100
AcDbCircle
 10
26.6
 20
136.8999999999997
 30
0.0
 40
1.6
100
AcDbArc
 50
180.0
 51
270.0
  0
LINE
  5
112B6
330
110C9
100
AcDbEntity
  8
4
  6
CENTER
100
AcDbLine
 10
29.487133
 20
148.3999999999998
 30
0.0
 11
22.56572999999999
 21
148.3999999999998
 31
0.0
  0
LINE
  5
112B7
330
110C9
100
AcDbEntity
  8
1
  6
Continuous
100
AcDbLine
 10
27.4
 20
158.4
 30
0.0
 11
27.4
 21
147.65
 31
0.0
  0
LINE
  5
112B8
330
110C9
100
AcDbEntity
  8
1
  6
Continuous
100
AcDbLine
 10
34.39999999999999
 20
158.4
 30
0.0
 11
34.39999999999999
 21
155.4999999999998
 31
0.0
  0
ARC
  5
112B9
330
110C9
100
AcDbEntity
  8
1
  6
Continuous
100
AcDbCircle
 10
27.9
 20
137.4
 30
0.0
 40
0.5
100
AcDbArc
 50
180.0
 51
233.130102
  0
LINE
  5
112BA
330
110C9
100
AcDbEntity
  8
1
  6
Continuous
100
AcDbLine
 10
35.4
 20
152.15
 30
0.0
 11
35.4
 21
143.65
 31
0.0
  0
LINE
  5
112BB
330
110C9
100
AcDbEntity
  8
1
  6
Continuous
100
AcDbLine
 10
34.9
 20
143.1499999999998
 30
0.0
 11
34.9
 21
152.65
 31
0.0
  0
LINE
  5
112BC
330
110C9
100
AcDbEntity
  8
1
  6
Continuous
100
AcDbLine
 10
34.9
 20
143.1499999999998
 30
0.0
 11
35.4
 21
143.65
 31
0.0
  0
LINE
  5
112BD
330
110C9
100
AcDbEntity
  8
1
  6
Continuous
100
AcDbLine
 10
34.9
 20
152.65
 30
0.0
 11
35.4
 21
152.15
 31
0.0
  0
LINE
  5
112BE
330
110C9
100
AcDbEntity
  8
1
  6
Continuous
100
AcDbLine
 10
34.9
 20
143.1499999999998
 30
0.0
 11
34.6
 21
143.1499999999998
 31
0.0
  0
LINE
  5
112BF
330
110C9
100
AcDbEntity
  8
1
  6
Continuous
100
AcDbLine
 10
34.9
 20
152.65
 30
0.0
 11
34.6
 21
152.65
 31
0.0
  0
LINE
  5
112C0
330
110C9
100
AcDbEntity
  8
1
  6
Continuous
100
AcDbLine
 10
27.9
 20
158.9
 30
0.0
 11
33.9
 21
158.9
 31
0.0
  0
LINE
  5
112C1
330
110C9
100
AcDbEntity
  8
4
  6
CENTER
100
AcDbLine
 10
22.408002
 20
142.9
 30
0.0
 11
36.056013
 21
142.9
 31
0.0
  0
LINE
  5
112C2
330
110C9
100
AcDbEntity
  8
1
  6
Continuous
100
AcDbLine
 10
27.1
 20
138.15
 30
0.0
 11
27.1
 21
147.65
 31
0.0
  0
LINE
  5
112C3
330
110C9
100
AcDbEntity
  8
1
  6
Continuous
100
AcDbLine
 10
27.1
 20
138.15
 30
0.0
 11
27.6
 21
138.15
 31
0.0
  0
LINE
  5
112C4
330
110C9
100
AcDbEntity
  8
1
  6
Continuous
100
AcDbLine
 10
27.1
 20
138.15
 30
0.0
 11
26.6
 21
138.65
 31
0.0
  0
ARC
  5
112C5
330
110C9
100
AcDbEntity
  8
1
  6
Continuous
100
AcDbCircle
 10
28.1
 20
153.3999999999998
 30
0.0
 40
0.5
100
AcDbArc
 50
90.0
 51
180.0
  0
LINE
  5
112C6
330
110C9
100
AcDbEntity
  8
1
  6
Continuous
100
AcDbLine
 10
27.1
 20
147.65
 30
0.0
 11
27.6
 21
147.65
 31
0.0
  0
LINE
  5
112C7
330
110C9
100
AcDbEntity
  8
1
  6
Continuous
100
AcDbLine
 10
35.4
 20
153.9
 30
0.0
 11
28.1
 21
153.9
 31
0.0
  0
ARC
  5
112C8
330
110C9
100
AcDbEntity
  8
1
  6
Continuous
100
AcDbCircle
 10
34.1
 20
153.3999999999998
 30
0.0
 40
0.5
100
AcDbArc
 50
0.0
 51
90.0
  0
LINE
  5
112C9
330
110C9
100
AcDbEntity
  8
1
  6
Continuous
100
AcDbLine
 10
27.1
 20
147.65
 30
0.0
 11
26.6
 21
147.1499999999998
 31
0.0
  0
LINE
  5
112CA
330
110C9
100
AcDbEntity
  8
1
  6
Continuous
100
AcDbLine
 10
24.3
 20
146.55
 30
0.0
 11
24.3
 21
139.25
 31
0.0
  0
LINE
  5
112CB
330
110C9
100
AcDbEntity
  8
1
  6
Continuous
100
AcDbLine
 10
24.3
 20
146.55
 30
0.0
 11
25.0
 21
145.8499999999999
 31
0.0
  0
LINE
  5
112CC
330
110C9
100
AcDbEntity
  8
1
  6
Continuous
100
AcDbLine
 10
24.3
 20
139.25
 30
0.0
 11
25.0
 21
139.9499999999999
 31
0.0
  0
LINE
  5
112CD
330
110C9
100
AcDbEntity
  8
1
  6
Continuous
100
AcDbLine
 10
37.0
 20
133.9
 30
0.0
 11
35.4
 21
133.9
 31
0.0
  0
LINE
  5
112CE
330
110C9
100
AcDbEntity
  8
1
  6
Continuous
100
AcDbLine
 10
35.4
 20
155.4999999999998
 30
0.0
 11
29.0
 21
155.4999999999998
 31
0.0
  0
LINE
  5
112CF
330
110C9
100
AcDbEntity
  8
1
  6
Continuous
100
AcDbLine
 10
37.0
 20
153.9
 30
0.0
 11
37.0
 21
133.9
 31
0.0
  0
LINE
  5
112D0
330
110C9
100
AcDbEntity
  8
1
  6
Continuous
100
AcDbLine
 10
35.4
 20
153.9
 30
0.0
 11
35.4
 21
133.9
 31
0.0
  0
LINE
  5
112D1
330
110C9
100
AcDbEntity
  8
4
  6
CENTER
100
AcDbLine
 10
39.63852199999998
 20
143.9
 30
0.0
 11
32.71711899999999
 21
143.9
 31
0.0
  0
LINE
  5
112D2
330
110C9
100
AcDbEntity
  8
1
  6
Continuous
100
AcDbLine
 10
29.0
 20
155.4999999999998
 30
0.0
 11
29.0
 21
153.9
 31
0.0
  0
ARC
  5
112D3
330
110C9
100
AcDbEntity
  8
1
  6
Continuous
100
AcDbCircle
 10
35.4
 20
153.9
 30
0.0
 40
1.6
100
AcDbArc
 50
0.0
 51
90.0
  0
LINE
  5
112D4
330
110C9
100
AcDbEntity
  8
4
  6
CENTER
100
AcDbLine
 10
39.63852199999998
 20
147.9
 30
0.0
 11
25.830649
 21
147.9
 31
0.0
  0
LINE
  5
112D5
330
110C9
100
AcDbEntity
  8
1
  6
Continuous
100
AcDbLine
 10
37.7
 20
151.55
 30
0.0
 11
37.7
 21
144.25
 31
0.0
  0
LINE
  5
112D6
330
110C9
100
AcDbEntity
  8
1
  6
Continuous
100
AcDbLine
 10
37.7
 20
151.55
 30
0.0
 11
37.0
 21
150.8499999999999
 31
0.0
  0
LINE
  5
112D7
330
110C9
100
AcDbEntity
  8
1
  6
Continuous
100
AcDbLine
 10
37.7
 20
144.25
 30
0.0
 11
37.0
 21
144.95
 31
0.0
  0
LINE
  5
112D8
330
110C9
100
AcDbEntity
  8
1
  6
Continuous
100
AcDbLine
 10
27.4
 20
138.15
 30
0.0
 11
27.4
 21
137.4
 31
0.0
  0
LINE
  5
112D9
330
110C9
100
AcDbEntity
  8
1
  6
Continuous
100
AcDbLine
 10
34.39999999999999
 20
153.9
 30
0.0
 11
34.39999999999999
 21
153.8
 31
0.0
  0
ARC
  5
112DA
330
110C9
100
AcDbEntity
  8
1
  6
Continuous
100
AcDbCircle
 10
28.1
 20
132.4
 30
0.0
 40
0.5
100
AcDbArc
 50
180.0
 51
270.0
  0
LINE
  5
112DB
330
110C9
100
AcDbEntity
  8
1
  6
Continuous
100
AcDbLine
 10
34.1
 20
131.9
 30
0.0
 11
28.1
 21
131.9
 31
0.0
  0
ARC
  5
112DC
330
110C9
100
AcDbEntity
  8
1
  6
Continuous
100
AcDbCircle
 10
34.1
 20
132.4
 30
0.0
 40
0.5
100
AcDbArc
 50
270.0
 51
0.0
  0
LINE
  5
112DD
330
110C9
100
AcDbEntity
  8
1
  6
Continuous
100
AcDbLine
 10
34.6
 20
153.3999999999998
 30
0.0
 11
34.6
 21
132.4
 31
0.0
  0
LINE
  5
112DE
330
110C9
100
AcDbEntity
  8
1
  6
Continuous
100
AcDbLine
 10
27.6
 20
153.3999999999998
 30
0.0
 11
27.6
 21
132.4
 31
0.0
  0
LINE
  5
112DF
330
110C9
100
AcDbEntity
  8
1
  6
Continuous
100
AcDbLine
 10
26.6
 20
161.5
 30
0.0
 11
33.0
 21
161.5
 31
0.0
  0
LINE
  5
112E0
330
110C9
100
AcDbEntity
  8
1
  6
Continuous
100
AcDbLine
 10
25.0
 20
159.9
 30
0.0
 11
33.0
 21
159.9
 31
0.0
  0
LINE
  5
112E1
330
110C9
100
AcDbEntity
  8
1
  6
Continuous
100
AcDbLine
 10
33.0
 20
161.5
 30
0.0
 11
33.0
 21
159.9
 31
0.0
  0
ARC
  5
112E2
330
110C9
100
AcDbEntity
  8
1
  6
Continuous
100
AcDbCircle
 10
26.6
 20
159.9
 30
0.0
 40
1.6
100
AcDbArc
 50
90.0
 51
180.0
  0
LINE
  5
112E3
330
110C9
100
AcDbEntity
  8
1
  6
Continuous
100
AcDbLine
 10
90.882076
 20
358.8999999999999
 30
0.0
 11
90.882076
 21
340.3
 31
0.0
  0
ARC
  5
112E4
330
110C9
100
AcDbEntity
  8
1
  6
Continuous
100
AcDbCircle
 10
93.88207599999999
 20
358.8999999999999
 30
0.0
 40
3.0
100
AcDbArc
 50
90.0
 51
180.0
  0
CIRCLE
  5
112E5
330
110C9
100
AcDbEntity
  8
1
  6
Continuous
100
AcDbCircle
 10
121.882076
 20
351.8999999999999
 30
0.0
 40
2.0
  0
CIRCLE
  5
112E6
330
110C9
100
AcDbEntity
  8
1
  6
Continuous
100
AcDbCircle
 10
106.8820759999999
 20
351.8999999999999
 30
0.0
 40
3.0
  0
LINE
  5
112E7
330
110C9
100
AcDbEntity
  8
4
  6
CENTER
100
AcDbLine
 10
106.8820759999999
 20
357.8999999999999
 30
0.0
 11
106.8820759999999
 21
345.8999999999999
 31
0.0
  0
CIRCLE
  5
112E8
330
110C9
100
AcDbEntity
  8
1
  6
Continuous
100
AcDbCircle
 10
106.8820759999999
 20
351.8999999999999
 30
0.0
 40
4.299999999999998
  0
LINE
  5
112E9
330
110C9
100
AcDbEntity
  8
4
  6
CENTER
100
AcDbLine
 10
121.882076
 20
347.8999999999999
 30
0.0
 11
121.882076
 21
355.8999999999999
 31
0.0
  0
LINE
  5
112EA
330
110C9
100
AcDbEntity
  8
4
  6
CENTER
100
AcDbLine
 10
244.8820759999999
 20
56.696583
 30
0.0
 11
244.8820759999999
 21
48.69658300000001
 31
0.0
  0
LINE
  5
112EB
330
110C9
100
AcDbEntity
  8
4
  6
CENTER
100
AcDbLine
 10
382.8820759999999
 20
56.696583
 30
0.0
 11
382.8820759999999
 21
48.69658300000001
 31
0.0
  0
CIRCLE
  5
112EC
330
110C9
100
AcDbEntity
  8
1
  6
Continuous
100
AcDbCircle
 10
244.8820759999999
 20
351.8999999999999
 30
0.0
 40
3.0
  0
LINE
  5
112ED
330
110C9
100
AcDbEntity
  8
4
  6
CENTER
100
AcDbLine
 10
244.8820759999999
 20
357.8999999999999
 30
0.0
 11
244.8820759999999
 21
345.8999999999999
 31
0.0
  0
CIRCLE
  5
112EE
330
110C9
100
AcDbEntity
  8
1
  6
Continuous
100
AcDbCircle
 10
244.8820759999999
 20
351.8999999999999
 30
0.0
 40
4.299999999999998
  0
CIRCLE
  5
112EF
330
110C9
100
AcDbEntity
  8
1
  6
Continuous
100
AcDbCircle
 10
382.8820759999999
 20
351.8999999999999
 30
0.0
 40
3.0
  0
CIRCLE
  5
112F0
330
110C9
100
AcDbEntity
  8
1
  6
Continuous
100
AcDbCircle
 10
382.8820759999999
 20
351.8999999999999
 30
0.0
 40
4.299999999999998
  0
LINE
  5
112F1
330
110C9
100
AcDbEntity
  8
4
  6
CENTER
100
AcDbLine
 10
382.8820759999999
 20
357.8999999999999
 30
0.0
 11
382.8820759999999
 21
345.8999999999999
 31
0.0
  0
LINE
  5
112F2
330
110C9
100
AcDbEntity
  8
3
  6
DASHED
100
AcDbLine
 10
593.8820759999997
 20
340.3
 30
0.0
 11
668.8820759999997
 21
340.3
 31
0.0
  0
LINE
  5
112F3
330
110C9
100
AcDbEntity
  8
1
  6
Continuous
100
AcDbLine
 10
583.206631
 20
361.8999999999999
 30
0.0
 11
687.8820759999999
 21
361.8999999999999
 31
0.0
  0
LINE
  5
112F4
330
110C9
100
AcDbEntity
  8
3
  6
DASHED
100
AcDbLine
 10
593.8820759999997
 20
341.9
 30
0.0
 11
670.6625320000001
 21
341.9
 31
0.0
  0
LINE
  5
112F5
330
110C9
100
AcDbEntity
  8
3
  6
DASHED
100
AcDbLine
 10
665.882076
 20
45.49999999999999
 30
0.0
 11
565.882076
 21
45.49999999999999
 31
0.0
  0
LINE
  5
112F6
330
110C9
100
AcDbEntity
  8
4
  6
CENTER
100
AcDbLine
 10
597.8820759999997
 20
46.21251899999999
 30
0.0
 11
597.8820759999997
 21
38.212519
 31
0.0
  0
LINE
  5
112F7
330
110C9
100
AcDbEntity
  8
1
  6
Continuous
100
AcDbLine
 10
587.8820759999999
 20
41.5
 30
0.0
 11
587.8820759999999
 21
50.6
 31
0.0
  0
LINE
  5
112F8
330
110C9
100
AcDbEntity
  8
4
  6
CENTER
100
AcDbLine
 10
585.8820759999997
 20
46.21251899999999
 30
0.0
 11
585.8820759999997
 21
38.212519
 31
0.0
  0
LINE
  5
112F9
330
110C9
100
AcDbEntity
  8
4
  6
CENTER
100
AcDbLine
 10
576.8820759999997
 20
54.91976999999999
 30
0.0
 11
576.8820759999997
 21
37.0
 31
0.0
  0
LINE
  5
112FA
330
110C9
100
AcDbEntity
  8
1
  6
Continuous
100
AcDbLine
 10
565.882076
 20
44.59999999999999
 30
0.0
 11
565.882076
 21
50.6
 31
0.0
  0
LINE
  5
112FB
330
110C9
100
AcDbEntity
  8
1
  6
Continuous
100
AcDbLine
 10
587.382076
 20
51.1
 30
0.0
 11
566.382076
 21
51.1
 31
0.0
  0
LINE
  5
112FC
330
110C9
100
AcDbEntity
  8
4
  6
CENTER
100
AcDbLine
 10
520.882076
 20
56.696583
 30
0.0
 11
520.882076
 21
48.69658300000001
 31
0.0
  0
ARC
  5
112FD
330
110C9
100
AcDbEntity
  8
1
  6
Continuous
100
AcDbCircle
 10
566.382076
 20
50.6
 30
0.0
 40
0.5
100
AcDbArc
 50
90.0
 51
180.0
  0
ARC
  5
112FE
330
110C9
100
AcDbEntity
  8
1
  6
Continuous
100
AcDbCircle
 10
587.382076
 20
50.6
 30
0.0
 40
0.5
100
AcDbArc
 50
0.0
 51
90.0
  0
LINE
  5
112FF
330
110C9
100
AcDbEntity
  8
1
  6
Continuous
100
AcDbLine
 10
593.8820759999997
 20
49.5
 30
0.0
 11
593.8820759999997
 21
51.9
 31
0.0
  0
ARC
  5
11300
330
110C9
100
AcDbEntity
  8
1
  6
Continuous
100
AcDbCircle
 10
590.882076
 20
46.5
 30
0.0
 40
3.0
100
AcDbArc
 50
90.0
 51
180.0
  0
LINE
  5
11301
330
110C9
100
AcDbEntity
  8
1
  6
Continuous
100
AcDbLine
 10
593.8820759999997
 20
51.5
 30
0.0
 11
579.8820759999999
 21
51.5
 31
0.0
  0
LINE
  5
11302
330
110C9
100
AcDbEntity
  8
1
  6
Continuous
100
AcDbLine
 10
593.8820759999997
 20
51.9
 30
0.0
 11
579.8820759999999
 21
51.9
 31
0.0
  0
LINE
  5
11303
330
110C9
100
AcDbEntity
  8
4
  6
CENTER
100
AcDbLine
 10
581.882076
 20
56.696583
 30
0.0
 11
581.882076
 21
48.69658300000001
 31
0.0
  0
LINE
  5
11304
330
110C9
100
AcDbEntity
  8
4
  6
CENTER
100
AcDbLine
 10
586.882076
 20
44.947109
 30
0.0
 11
586.882076
 21
56.533304
 31
0.0
  0
LINE
  5
11305
330
110C9
100
AcDbEntity
  8
3
  6
DASHED
100
AcDbLine
 10
593.8820759999997
 20
45.49999999999999
 30
0.0
 11
593.8820759999997
 21
49.5
 31
0.0
  0
LINE
  5
11306
330
110C9
100
AcDbEntity
  8
1
  6
Continuous
100
AcDbLine
 10
579.8820759999999
 20
51.1
 30
0.0
 11
579.8820759999999
 21
51.9
 31
0.0
  0
LINE
  5
11307
330
110C9
100
AcDbEntity
  8
1
  6
Continuous
100
AcDbLine
 10
586.882076
 20
51.5
 30
0.0
 11
586.882076
 21
51.1
 31
0.0
  0
LINE
  5
11308
330
110C9
100
AcDbEntity
  8
4
  6
CENTER
100
AcDbLine
 10
596.8820759999998
 20
56.696583
 30
0.0
 11
596.8820759999998
 21
48.69658300000001
 31
0.0
  0
LINE
  5
11309
330
110C9
100
AcDbEntity
  8
1
  6
Continuous
100
AcDbLine
 10
587.8820759999999
 20
43.1
 30
0.0
 11
565.882076
 21
43.1
 31
0.0
  0
LINE
  5
1130A
330
110C9
100
AcDbEntity
  8
1
  6
Continuous
100
AcDbLine
 10
587.382076
 20
44.1
 30
0.0
 11
566.382076
 21
44.1
 31
0.0
  0
LINE
  5
1130B
330
110C9
100
AcDbEntity
  8
1
  6
Continuous
100
AcDbLine
 10
565.882076
 20
41.5
 30
0.0
 11
565.882076
 21
43.1
 31
0.0
  0
ARC
  5
1130C
330
110C9
100
AcDbEntity
  8
1
  6
Continuous
100
AcDbCircle
 10
566.382076
 20
44.59999999999999
 30
0.0
 40
0.5
100
AcDbArc
 50
180.0
 51
270.0
  0
ARC
  5
1130D
330
110C9
100
AcDbEntity
  8
1
  6
Continuous
100
AcDbCircle
 10
587.382076
 20
44.59999999999999
 30
0.0
 40
0.5
100
AcDbArc
 50
270.0
 51
0.0
  0
LINE
  5
1130E
330
110C9
100
AcDbEntity
  8
1
  6
Continuous
100
AcDbLine
 10
572.132076
 20
43.6
 30
0.0
 11
572.632076
 21
43.1
 31
0.0
  0
LINE
  5
1130F
330
110C9
100
AcDbEntity
  8
1
  6
Continuous
100
AcDbLine
 10
572.132076
 20
43.6
 30
0.0
 11
572.132076
 21
44.1
 31
0.0
  0
LINE
  5
11310
330
110C9
100
AcDbEntity
  8
1
  6
Continuous
100
AcDbLine
 10
581.6320759999999
 20
43.6
 30
0.0
 11
581.132076
 21
43.1
 31
0.0
  0
LINE
  5
11311
330
110C9
100
AcDbEntity
  8
1
  6
Continuous
100
AcDbLine
 10
581.6320759999999
 20
43.6
 30
0.0
 11
581.6320759999999
 21
44.1
 31
0.0
  0
LINE
  5
11312
330
110C9
100
AcDbEntity
  8
1
  6
Continuous
100
AcDbLine
 10
572.132076
 20
43.6
 30
0.0
 11
581.6320759999999
 21
43.6
 31
0.0
  0
LINE
  5
11313
330
110C9
100
AcDbEntity
  8
1
  6
Continuous
100
AcDbLine
 10
580.5320759999997
 20
40.8
 30
0.0
 11
573.232076
 21
40.8
 31
0.0
  0
LINE
  5
11314
330
110C9
100
AcDbEntity
  8
1
  6
Continuous
100
AcDbLine
 10
573.232076
 20
40.8
 30
0.0
 11
573.9320759999999
 21
41.5
 31
0.0
  0
LINE
  5
11315
330
110C9
100
AcDbEntity
  8
1
  6
Continuous
100
AcDbLine
 10
580.5320759999997
 20
40.8
 30
0.0
 11
579.832076
 21
41.5
 31
0.0
  0
ARC
  5
11316
330
110C9
100
AcDbEntity
  8
1
  6
Continuous
100
AcDbCircle
 10
568.8820759999997
 20
338.8999999999999
 30
0.0
 40
3.0
100
AcDbArc
 50
180.0
 51
270.0
  0
ARC
  5
11317
330
110C9
100
AcDbEntity
  8
1
  6
Continuous
100
AcDbCircle
 10
568.8820759999997
 20
355.8999999999999
 30
0.0
 40
3.0
100
AcDbArc
 50
90.0
 51
180.0
  0
LINE
  5
11318
330
110C9
100
AcDbEntity
  8
4
  6
CENTER
100
AcDbLine
 10
590.882076
 20
352.8999999999999
 30
0.0
 11
562.8820759999999
 21
352.8999999999999
 31
0.0
  0
LINE
  5
11319
330
110C9
100
AcDbEntity
  8
3
  6
DASHED
100
AcDbLine
 10
565.882076
 20
340.3
 30
0.0
 11
579.8820759999999
 21
340.3
 31
0.0
  0
LINE
  5
1131A
330
110C9
100
AcDbEntity
  8
3
  6
DASHED
100
AcDbLine
 10
565.882076
 20
341.9
 30
0.0
 11
579.8820759999999
 21
341.9
 31
0.0
  0
ARC
  5
1131B
330
110C9
100
AcDbEntity
  8
3
  6
DASHED
100
AcDbCircle
 10
576.8820759999997
 20
352.8999999999999
 30
0.0
 40
11.0
100
AcDbArc
 50
149.248498
 51
318.1935870000001
  0
ARC
  5
1131C
330
110C9
100
AcDbEntity
  8
1
  6
Continuous
100
AcDbCircle
 10
576.8820759999997
 20
352.8999999999999
 30
0.0
 40
11.0
100
AcDbArc
 50
33.055731
 51
149.248498
  0
CIRCLE
  5
1131D
330
110C9
100
AcDbEntity
  8
1
  6
Continuous
100
AcDbCircle
 10
520.882076
 20
351.8999999999999
 30
0.0
 40
3.0
  0
LINE
  5
1131E
330
110C9
100
AcDbEntity
  8
4
  6
CENTER
100
AcDbLine
 10
520.882076
 20
357.8999999999999
 30
0.0
 11
520.882076
 21
345.8999999999999
 31
0.0
  0
CIRCLE
  5
1131F
330
110C9
100
AcDbEntity
  8
1
  6
Continuous
100
AcDbCircle
 10
520.882076
 20
351.8999999999999
 30
0.0
 40
4.299999999999998
  0
LINE
  5
11320
330
110C9
100
AcDbEntity
  8
1
  6
Continuous
100
AcDbLine
 10
565.882076
 20
355.8999999999999
 30
0.0
 11
565.882076
 21
338.8999999999999
 31
0.0
  0
CIRCLE
  5
11321
330
110C9
100
AcDbEntity
  8
1
  6
Continuous
100
AcDbCircle
 10
597.8820759999997
 20
347.3999999999999
 30
0.0
 40
3.0
  0
LINE
  5
11322
330
110C9
100
AcDbEntity
  8
1
  6
Continuous
100
AcDbLine
 10
568.8820759999997
 20
358.8999999999999
 30
0.0
 11
587.8820759999999
 21
358.8999999999999
 31
0.0
  0
LINE
  5
11323
330
110C9
100
AcDbEntity
  8
1
  6
Continuous
100
AcDbLine
 10
587.8820759999999
 20
360.4999999999998
 30
0.0
 11
587.8820759999999
 21
358.8999999999999
 31
0.0
  0
CIRCLE
  5
11324
330
110C9
100
AcDbEntity
  8
1
  6
Continuous
100
AcDbCircle
 10
585.8820759999997
 20
347.3999999999999
 30
0.0
 40
2.0
  0
ARC
  5
11325
330
110C9
100
AcDbEntity
  8
1
  6
Continuous
100
AcDbCircle
 10
576.8820759999997
 20
352.8999999999999
 30
0.0
 40
11.0
100
AcDbArc
 50
318.1935870000001
 51
338.9472819999999
  0
LINE
  5
11326
330
110C9
100
AcDbEntity
  8
4
  6
CENTER
100
AcDbLine
 10
585.8820759999997
 20
343.3999999999999
 30
0.0
 11
585.8820759999997
 21
351.3999999999999
 31
0.0
  0
CIRCLE
  5
11327
330
110C9
100
AcDbEntity
  8
1
  6
Continuous
100
AcDbCircle
 10
576.8820759999997
 20
352.8999999999999
 30
0.0
 40
3.649999999999999
  0
LINE
  5
11328
330
110C9
100
AcDbEntity
  8
3
  6
DASHED
100
AcDbLine
 10
579.8820759999999
 20
342.3
 30
0.0
 11
580.7056059999998
 21
342.3
 31
0.0
  0
LINE
  5
11329
330
110C9
100
AcDbEntity
  8
3
  6
DASHED
100
AcDbLine
 10
579.8820759999999
 20
341.9
 30
0.0
 11
579.8820759999999
 21
342.3
 31
0.0
  0
LINE
  5
1132A
330
110C9
100
AcDbEntity
  8
3
  6
DASHED
100
AcDbLine
 10
586.882076
 20
345.3
 30
0.0
 11
579.8820759999999
 21
341.9
 31
0.0
  0
LINE
  5
1132B
330
110C9
100
AcDbEntity
  8
3
  6
DASHED
100
AcDbLine
 10
586.882076
 20
343.6999999999999
 30
0.0
 11
579.8820759999999
 21
340.3
 31
0.0
  0
LINE
  5
1132C
330
110C9
100
AcDbEntity
  8
3
  6
DASHED
100
AcDbLine
 10
593.8820759999997
 20
341.9
 30
0.0
 11
593.8820759999997
 21
342.3
 31
0.0
  0
LINE
  5
1132D
330
110C9
100
AcDbEntity
  8
3
  6
DASHED
100
AcDbLine
 10
586.882076
 20
345.3
 30
0.0
 11
593.8820759999997
 21
341.9
 31
0.0
  0
LINE
  5
1132E
330
110C9
100
AcDbEntity
  8
3
  6
DASHED
100
AcDbLine
 10
586.882076
 20
343.6999999999999
 30
0.0
 11
593.8820759999997
 21
340.3
 31
0.0
  0
LINE
  5
1132F
330
110C9
100
AcDbEntity
  8
3
  6
DASHED
100
AcDbLine
 10
593.0585469999997
 20
342.3
 30
0.0
 11
593.8820759999997
 21
342.3
 31
0.0
  0
LINE
  5
11330
330
110C9
100
AcDbEntity
  8
3
  6
DASHED
100
AcDbLine
 10
583.999723
 20
342.3
 30
0.0
 11
589.7644289999998
 21
342.3
 31
0.0
  0
ARC
  5
11331
330
110C9
100
AcDbEntity
  8
3
  6
DASHED
100
AcDbCircle
 10
576.8820759999997
 20
352.8999999999999
 30
0.0
 40
11.0
100
AcDbArc
 50
338.9472819999999
 51
33.055731
  0
LINE
  5
11332
330
110C9
100
AcDbEntity
  8
4
  6
CENTER
100
AcDbLine
 10
576.8820759999997
 20
338.8999999999999
 30
0.0
 11
576.8820759999997
 21
366.9
 31
0.0
  0
LINE
  5
11333
330
110C9
100
AcDbEntity
  8
4
  6
CENTER
100
AcDbLine
 10
597.8820759999997
 20
353.3999999999999
 30
0.0
 11
597.8820759999997
 21
341.3999999999999
 31
0.0
  0
LINE
  5
11334
330
110C9
100
AcDbEntity
  8
1
  6
Continuous
100
AcDbLine
 10
568.8820759999997
 20
335.8999999999999
 30
0.0
 11
615.882076
 21
335.8999999999999
 31
0.0
  0
LINE
  5
11335
330
110C9
100
AcDbEntity
  8
1
  6
Continuous
100
AcDbLine
 10
615.882076
 20
335.8999999999999
 30
0.0
 11
615.882076
 21
334.2999999999999
 31
0.0
  0
LINE
  5
11336
330
110C9
100
AcDbEntity
  8
4
  6
CENTER
100
AcDbLine
 10
735.882076
 20
46.21251899999999
 30
0.0
 11
735.882076
 21
38.212519
 31
0.0
  0
LINE
  5
11337
330
110C9
100
AcDbEntity
  8
4
  6
CENTER
100
AcDbLine
 10
679.8820759999999
 20
40.04579299999997
 30
0.0
 11
679.8820759999999
 21
58.0
 31
0.0
  0
ARC
  5
11338
330
110C9
100
AcDbEntity
  8
3
  6
DASHED
100
AcDbCircle
 10
665.882076
 20
48.5
 30
0.0
 40
3.0
100
AcDbArc
 50
270.0
 51
0.0
  0
LINE
  5
11339
330
110C9
100
AcDbEntity
  8
1
  6
Continuous
100
AcDbLine
 10
690.382076
 20
50.89999999999999
 30
0.0
 11
669.382076
 21
50.89999999999999
 31
0.0
  0
LINE
  5
1133A
330
110C9
100
AcDbEntity
  8
1
  6
Continuous
100
AcDbLine
 10
668.8820759999997
 20
49.5
 30
0.0
 11
668.8820759999997
 21
51.9
 31
0.0
  0
ARC
  5
1133B
330
110C9
100
AcDbEntity
  8
1
  6
Continuous
100
AcDbCircle
 10
669.382076
 20
50.4
 30
0.0
 40
0.5
100
AcDbArc
 50
90.0
 51
180.0
  0
LINE
  5
1133C
330
110C9
100
AcDbEntity
  8
3
  6
DASHED
100
AcDbLine
 10
668.8820759999997
 20
48.5
 30
0.0
 11
668.8820759999997
 21
49.5
 31
0.0
  0
LINE
  5
1133D
330
110C9
100
AcDbEntity
  8
4
  6
CENTER
100
AcDbLine
 10
670.882076
 20
56.696583
 30
0.0
 11
670.882076
 21
48.69658300000001
 31
0.0
  0
LINE
  5
1133E
330
110C9
100
AcDbEntity
  8
4
  6
CENTER
100
AcDbLine
 10
658.8820759999999
 20
56.696583
 30
0.0
 11
658.8820759999999
 21
48.69658300000001
 31
0.0
  0
LINE
  5
1133F
330
110C9
100
AcDbEntity
  8
1
  6
Continuous
100
AcDbLine
 10
690.882076
 20
51.9
 30
0.0
 11
690.882076
 21
53.5
 31
0.0
  0
LINE
  5
11340
330
110C9
100
AcDbEntity
  8
1
  6
Continuous
100
AcDbLine
 10
683.532076
 20
54.2
 30
0.0
 11
682.832076
 21
53.5
 31
0.0
  0
LINE
  5
11341
330
110C9
100
AcDbEntity
  8
1
  6
Continuous
100
AcDbLine
 10
676.232076
 20
54.2
 30
0.0
 11
676.9320759999999
 21
53.5
 31
0.0
  0
LINE
  5
11342
330
110C9
100
AcDbEntity
  8
1
  6
Continuous
100
AcDbLine
 10
683.532076
 20
54.2
 30
0.0
 11
676.232076
 21
54.2
 31
0.0
  0
LINE
  5
11343
330
110C9
100
AcDbEntity
  8
1
  6
Continuous
100
AcDbLine
 10
675.1320759999997
 20
51.4
 30
0.0
 11
684.632076
 21
51.4
 31
0.0
  0
LINE
  5
11344
330
110C9
100
AcDbEntity
  8
1
  6
Continuous
100
AcDbLine
 10
675.1320759999997
 20
51.4
 30
0.0
 11
675.632076
 21
51.9
 31
0.0
  0
LINE
  5
11345
330
110C9
100
AcDbEntity
  8
1
  6
Continuous
100
AcDbLine
 10
684.632076
 20
51.4
 30
0.0
 11
684.132076
 21
51.9
 31
0.0
  0
ARC
  5
11346
330
110C9
100
AcDbEntity
  8
1
  6
Continuous
100
AcDbCircle
 10
690.382076
 20
50.4
 30
0.0
 40
0.5
100
AcDbArc
 50
0.0
 51
90.0
  0
LINE
  5
11347
330
110C9
100
AcDbEntity
  8
1
  6
Continuous
100
AcDbLine
 10
690.882076
 20
49.5
 30
0.0
 11
690.882076
 21
50.4
 31
0.0
  0
LINE
  5
11348
330
110C9
100
AcDbEntity
  8
1
  6
Continuous
100
AcDbLine
 10
675.1320759999997
 20
51.4
 30
0.0
 11
675.1320759999997
 21
50.89999999999999
 31
0.0
  0
LINE
  5
11349
330
110C9
100
AcDbEntity
  8
1
  6
Continuous
100
AcDbLine
 10
684.632076
 20
51.4
 30
0.0
 11
684.632076
 21
50.89999999999999
 31
0.0
  0
CIRCLE
  5
1134A
330
110C9
100
AcDbEntity
  8
3
  6
DASHED
100
AcDbCircle
 10
679.8820759999999
 20
347.8999999999999
 30
0.0
 40
11.0
  0
LINE
  5
1134B
330
110C9
100
AcDbEntity
  8
4
  6
CENTER
100
AcDbLine
 10
693.7849700000001
 20
347.8999999999999
 30
0.0
 11
665.78497
 21
347.8999999999999
 31
0.0
  0
LINE
  5
1134C
330
110C9
100
AcDbEntity
  8
3
  6
DASHED
100
AcDbLine
 10
668.8820759999997
 20
341.9
 30
0.0
 11
668.8820759999997
 21
340.3
 31
0.0
  0
LINE
  5
1134D
330
110C9
100
AcDbEntity
  8
4
  6
CENTER
100
AcDbLine
 10
670.882076
 20
347.3999999999999
 30
0.0
 11
670.882076
 21
356.4
 31
0.0
  0
LINE
  5
1134E
330
110C9
100
AcDbEntity
  8
4
  6
CENTER
100
AcDbLine
 10
658.8820759999999
 20
345.8999999999999
 30
0.0
 11
658.8820759999999
 21
357.8999999999999
 31
0.0
  0
LINE
  5
1134F
330
110C9
100
AcDbEntity
  8
4
  6
CENTER
100
AcDbLine
 10
679.8820759999999
 20
361.8999999999999
 30
0.0
 11
679.8820759999999
 21
333.8999999999999
 31
0.0
  0
ARC
  5
11350
330
110C9
100
AcDbEntity
  8
3
  6
DASHED
100
AcDbCircle
 10
687.8820759999999
 20
344.8999999999998
 30
0.0
 40
3.0
100
AcDbArc
 50
298.9758569999999
 51
0.0
  0
LINE
  5
11351
330
110C9
100
AcDbEntity
  8
3
  6
DASHED
100
AcDbLine
 10
690.882076
 20
358.8999999999999
 30
0.0
 11
690.882076
 21
344.8999999999998
 31
0.0
  0
ARC
  5
11352
330
110C9
100
AcDbEntity
  8
1
  6
Continuous
100
AcDbCircle
 10
687.8820759999999
 20
358.8999999999999
 30
0.0
 40
3.0
100
AcDbArc
 50
32.230953
 51
90.0
  0
ARC
  5
11353
330
110C9
100
AcDbEntity
  8
3
  6
DASHED
100
AcDbCircle
 10
687.8820759999999
 20
358.8999999999999
 30
0.0
 40
3.0
100
AcDbArc
 50
0.0
 51
32.230953
  0
LINE
  5
11354
330
110C9
100
AcDbEntity
  8
4
  6
CENTER
100
AcDbLine
 10
735.882076
 20
353.3999999999999
 30
0.0
 11
735.882076
 21
341.3999999999999
 31
0.0
  0
CIRCLE
  5
11355
330
110C9
100
AcDbEntity
  8
1
  6
Continuous
100
AcDbCircle
 10
735.882076
 20
347.3999999999999
 30
0.0
 40
3.0
  0
LINE
  5
11356
330
110C9
100
AcDbEntity
  8
4
  6
CENTER
100
AcDbLine
 10
85.882076
 20
143.9
 30
0.0
 11
1170.959097999998
 21
143.9
 31
0.0
  0
LINE
  5
11357
330
110C9
100
AcDbEntity
  8
1
  6
Continuous
100
AcDbLine
 10
90.882076
 20
155.4999999999998
 30
0.0
 11
579.8820759999999
 21
155.4999999999998
 31
0.0
  0
LINE
  5
11358
330
110C9
100
AcDbEntity
  8
1
  6
Continuous
100
AcDbLine
 10
93.88207599999999
 20
133.9
 30
0.0
 11
687.8820759999999
 21
133.9
 31
0.0
  0
LINE
  5
11359
330
110C9
100
AcDbEntity
  8
1
  6
Continuous
100
AcDbLine
 10
615.882076
 20
249.9
 30
0.0
 11
93.88207599999999
 21
249.9
 31
0.0
  0
LINE
  5
1135A
330
110C9
100
AcDbEntity
  8
1
  6
Continuous
100
AcDbLine
 10
690.882076
 20
241.9
 30
0.0
 11
90.882076
 21
241.9
 31
0.0
  0
LINE
  5
1135B
330
110C9
100
AcDbEntity
  8
1
  6
Continuous
100
AcDbLine
 10
90.882076
 20
136.8999999999997
 30
0.0
 11
90.882076
 21
155.4999999999998
 31
0.0
  0
LINE
  5
1135C
330
110C9
100
AcDbEntity
  8
1
  6
Continuous
100
AcDbLine
 10
90.882076
 20
246.9
 30
0.0
 11
90.882076
 21
241.9
 31
0.0
  0
ARC
  5
1135D
330
110C9
100
AcDbEntity
  8
1
  6
Continuous
100
AcDbCircle
 10
93.88207599999999
 20
246.9
 30
0.0
 40
3.0
100
AcDbArc
 50
90.0
 51
180.0
  0
LINE
  5
1135E
330
110C9
100
AcDbEntity
  8
4
  6
CENTER
100
AcDbLine
 10
106.8820759999999
 20
238.703417
 30
0.0
 11
106.8820759999999
 21
246.703417
 31
0.0
  0
LINE
  5
1135F
330
110C9
100
AcDbEntity
  8
4
  6
CENTER
100
AcDbLine
 10
121.882076
 20
238.703417
 30
0.0
 11
121.882076
 21
246.703417
 31
0.0
  0
ARC
  5
11360
330
110C9
100
AcDbEntity
  8
1
  6
Continuous
100
AcDbCircle
 10
93.88207599999999
 20
136.8999999999997
 30
0.0
 40
3.0
100
AcDbArc
 50
180.0
 51
270.0
  0
CIRCLE
  5
11361
330
110C9
100
AcDbEntity
  8
1
  6
Continuous
100
AcDbCircle
 10
121.882076
 20
143.9
 30
0.0
 40
2.0
  0
LINE
  5
11362
330
110C9
100
AcDbEntity
  8
4
  6
CENTER
100
AcDbLine
 10
106.8820759999999
 20
137.9
 30
0.0
 11
106.8820759999999
 21
149.9
 31
0.0
  0
CIRCLE
  5
11363
330
110C9
100
AcDbEntity
  8
1
  6
Continuous
100
AcDbCircle
 10
106.8820759999999
 20
143.9
 30
0.0
 40
3.0
  0
LINE
  5
11364
330
110C9
100
AcDbEntity
  8
4
  6
CENTER
100
AcDbLine
 10
121.882076
 20
147.9
 30
0.0
 11
121.882076
 21
139.9
 31
0.0
  0
LINE
  5
11365
330
110C9
100
AcDbEntity
  8
4
  6
CENTER
100
AcDbLine
 10
244.8820759999999
 20
238.703417
 30
0.0
 11
244.8820759999999
 21
246.703417
 31
0.0
  0
LINE
  5
11366
330
110C9
100
AcDbEntity
  8
4
  6
CENTER
100
AcDbLine
 10
382.8820759999999
 20
238.703417
 30
0.0
 11
382.8820759999999
 21
246.703417
 31
0.0
  0
LINE
  5
11367
330
110C9
100
AcDbEntity
  8
4
  6
CENTER
100
AcDbLine
 10
244.8820759999999
 20
137.9
 30
0.0
 11
244.8820759999999
 21
149.9
 31
0.0
  0
CIRCLE
  5
11368
330
110C9
100
AcDbEntity
  8
1
  6
Continuous
100
AcDbCircle
 10
244.8820759999999
 20
143.9
 30
0.0
 40
3.0
  0
CIRCLE
  5
11369
330
110C9
100
AcDbEntity
  8
1
  6
Continuous
100
AcDbCircle
 10
382.8820759999999
 20
143.9
 30
0.0
 40
3.0
  0
LINE
  5
1136A
330
110C9
100
AcDbEntity
  8
4
  6
CENTER
100
AcDbLine
 10
382.8820759999999
 20
137.9
 30
0.0
 11
382.8820759999999
 21
149.9
 31
0.0
  0
LINE
  5
1136B
330
110C9
100
AcDbEntity
  8
3
  6
DASHED
100
AcDbLine
 10
565.882076
 20
136.8999999999997
 30
0.0
 11
690.882076
 21
136.8999999999997
 31
0.0
  0
LINE
  5
1136C
330
110C9
100
AcDbEntity
  8
1
  6
Continuous
100
AcDbLine
 10
593.8820759999997
 20
155.4999999999998
 30
0.0
 11
668.8820759999997
 21
155.4999999999998
 31
0.0
  0
LINE
  5
1136D
330
110C9
100
AcDbEntity
  8
3
  6
DASHED
100
AcDbLine
 10
587.8820759999999
 20
135.3
 30
0.0
 11
690.419792
 21
135.3
 31
0.0
  0
LINE
  5
1136E
330
110C9
100
AcDbEntity
  8
3
  6
DASHED
100
AcDbLine
 10
665.882076
 20
249.9
 30
0.0
 11
615.882076
 21
249.9
 31
0.0
  0
LINE
  5
1136F
330
110C9
100
AcDbEntity
  8
4
  6
CENTER
100
AcDbLine
 10
586.882076
 20
158.319526
 30
0.0
 11
586.882076
 21
149.65481
 31
0.0
  0
LINE
  5
11370
330
110C9
100
AcDbEntity
  8
1
  6
Continuous
100
AcDbLine
 10
589.7644289999998
 20
153.5
 30
0.0
 11
593.8820759999997
 21
155.4999999999998
 31
0.0
  0
LINE
  5
11371
330
110C9
100
AcDbEntity
  8
1
  6
Continuous
100
AcDbLine
 10
593.8820759999997
 20
155.4999999999998
 30
0.0
 11
593.8820759999997
 21
153.5
 31
0.0
  0
LINE
  5
11372
330
110C9
100
AcDbEntity
  8
1
  6
Continuous
100
AcDbLine
 10
583.999723
 20
153.5
 30
0.0
 11
579.8820759999999
 21
155.4999999999998
 31
0.0
  0
LINE
  5
11373
330
110C9
100
AcDbEntity
  8
1
  6
Continuous
100
AcDbLine
 10
579.8820759999999
 20
155.4999999999998
 30
0.0
 11
579.8820759999999
 21
153.5
 31
0.0
  0
LINE
  5
11374
330
110C9
100
AcDbEntity
  8
4
  6
CENTER
100
AcDbLine
 10
576.8820759999997
 20
156.9
 30
0.0
 11
576.8820759999997
 21
128.9
 31
0.0
  0
LINE
  5
11375
330
110C9
100
AcDbEntity
  8
3
  6
DASHED
100
AcDbLine
 10
565.882076
 20
136.8999999999997
 30
0.0
 11
565.882076
 21
155.4999999999998
 31
0.0
  0
LINE
  5
11376
330
110C9
100
AcDbEntity
  8
1
  6
Continuous
100
AcDbLine
 10
587.382076
 20
251.3
 30
0.0
 11
566.382076
 21
251.3
 31
0.0
  0
LINE
  5
11377
330
110C9
100
AcDbEntity
  8
1
  6
Continuous
100
AcDbLine
 10
615.882076
 20
252.3
 30
0.0
 11
565.882076
 21
252.3
 31
0.0
  0
LINE
  5
11378
330
110C9
100
AcDbEntity
  8
4
  6
CENTER
100
AcDbLine
 10
520.882076
 20
238.703417
 30
0.0
 11
520.882076
 21
246.703417
 31
0.0
  0
LINE
  5
11379
330
110C9
100
AcDbEntity
  8
1
  6
Continuous
100
AcDbLine
 10
565.882076
 20
250.8
 30
0.0
 11
565.882076
 21
249.9
 31
0.0
  0
ARC
  5
1137A
330
110C9
100
AcDbEntity
  8
1
  6
Continuous
100
AcDbCircle
 10
566.382076
 20
250.8
 30
0.0
 40
0.5
100
AcDbArc
 50
90.0
 51
180.0
  0
LINE
  5
1137B
330
110C9
100
AcDbEntity
  8
1
  6
Continuous
100
AcDbLine
 10
565.882076
 20
253.9
 30
0.0
 11
565.882076
 21
252.3
 31
0.0
  0
LINE
  5
1137C
330
110C9
100
AcDbEntity
  8
4
  6
CENTER
100
AcDbLine
 10
586.882076
 20
250.4528909999999
 30
0.0
 11
586.882076
 21
238.866696
 31
0.0
  0
LINE
  5
1137D
330
110C9
100
AcDbEntity
  8
1
  6
Continuous
100
AcDbLine
 10
593.8820759999997
 20
249.9
 30
0.0
 11
593.8820759999997
 21
241.9
 31
0.0
  0
LINE
  5
1137E
330
110C9
100
AcDbEntity
  8
1
  6
Continuous
100
AcDbLine
 10
579.8820759999999
 20
249.9
 30
0.0
 11
579.8820759999999
 21
241.9
 31
0.0
  0
LINE
  5
1137F
330
110C9
100
AcDbEntity
  8
1
  6
Continuous
100
AcDbLine
 10
586.882076
 20
243.9
 30
0.0
 11
586.882076
 21
249.9
 31
0.0
  0
LINE
  5
11380
330
110C9
100
AcDbEntity
  8
1
  6
Continuous
100
AcDbLine
 10
572.132076
 20
251.8
 30
0.0
 11
581.6320759999999
 21
251.8
 31
0.0
  0
LINE
  5
11381
330
110C9
100
AcDbEntity
  8
1
  6
Continuous
100
AcDbLine
 10
581.6320759999999
 20
251.8
 30
0.0
 11
581.6320759999999
 21
251.3
 31
0.0
  0
LINE
  5
11382
330
110C9
100
AcDbEntity
  8
1
  6
Continuous
100
AcDbLine
 10
581.6320759999999
 20
251.8
 30
0.0
 11
581.132076
 21
252.3
 31
0.0
  0
LINE
  5
11383
330
110C9
100
AcDbEntity
  8
1
  6
Continuous
100
AcDbLine
 10
572.132076
 20
251.8
 30
0.0
 11
572.132076
 21
251.3
 31
0.0
  0
LINE
  5
11384
330
110C9
100
AcDbEntity
  8
1
  6
Continuous
100
AcDbLine
 10
572.132076
 20
251.8
 30
0.0
 11
572.632076
 21
252.3
 31
0.0
  0
ARC
  5
11385
330
110C9
100
AcDbEntity
  8
1
  6
Continuous
100
AcDbCircle
 10
587.382076
 20
250.8
 30
0.0
 40
0.5
100
AcDbArc
 50
0.0
 51
90.0
  0
LINE
  5
11386
330
110C9
100
AcDbEntity
  8
1
  6
Continuous
100
AcDbLine
 10
587.8820759999999
 20
252.3
 30
0.0
 11
587.8820759999999
 21
249.9
 31
0.0
  0
LINE
  5
11387
330
110C9
100
AcDbEntity
  8
1
  6
Continuous
100
AcDbLine
 10
593.8820759999997
 20
243.5
 30
0.0
 11
579.8820759999999
 21
243.5
 31
0.0
  0
LINE
  5
11388
330
110C9
100
AcDbEntity
  8
1
  6
Continuous
100
AcDbLine
 10
593.8820759999997
 20
243.9
 30
0.0
 11
579.8820759999999
 21
243.9
 31
0.0
  0
LINE
  5
11389
330
110C9
100
AcDbEntity
  8
1
  6
Continuous
100
AcDbLine
 10
580.5320759999997
 20
254.5999999999999
 30
0.0
 11
573.232076
 21
254.5999999999999
 31
0.0
  0
LINE
  5
1138A
330
110C9
100
AcDbEntity
  8
4
  6
CENTER
100
AcDbLine
 10
576.8820759999997
 20
240.4802299999999
 30
0.0
 11
576.8820759999997
 21
258.3999999999999
 31
0.0
  0
LINE
  5
1138B
330
110C9
100
AcDbEntity
  8
4
  6
CENTER
100
AcDbLine
 10
585.8820759999997
 20
249.187481
 30
0.0
 11
585.8820759999997
 21
257.187481
 31
0.0
  0
LINE
  5
1138C
330
110C9
100
AcDbEntity
  8
1
  6
Continuous
100
AcDbLine
 10
580.5320759999997
 20
254.5999999999999
 30
0.0
 11
579.832076
 21
253.9
 31
0.0
  0
LINE
  5
1138D
330
110C9
100
AcDbEntity
  8
1
  6
Continuous
100
AcDbLine
 10
573.232076
 20
254.5999999999999
 30
0.0
 11
573.9320759999999
 21
253.9
 31
0.0
  0
ARC
  5
1138E
330
110C9
100
AcDbEntity
  8
1
  6
Continuous
100
AcDbCircle
 10
618.8820759999997
 20
248.9
 30
0.0
 40
3.0
100
AcDbArc
 50
180.0
 51
270.0
  0
LINE
  5
1138F
330
110C9
100
AcDbEntity
  8
1
  6
Continuous
100
AcDbLine
 10
615.882076
 20
253.9
 30
0.0
 11
615.882076
 21
248.9
 31
0.0
  0
LINE
  5
11390
330
110C9
100
AcDbEntity
  8
4
  6
CENTER
100
AcDbLine
 10
597.8820759999997
 20
249.187481
 30
0.0
 11
597.8820759999997
 21
257.187481
 31
0.0
  0
ARC
  5
11391
330
110C9
100
AcDbEntity
  8
1
  6
Continuous
100
AcDbCircle
 10
568.8820759999997
 20
156.9
 30
0.0
 40
3.0
100
AcDbArc
 50
90.0
 51
180.0
  0
LINE
  5
11392
330
110C9
100
AcDbEntity
  8
1
  6
Continuous
100
AcDbLine
 10
565.882076
 20
155.4999999999998
 30
0.0
 11
565.882076
 21
156.9
 31
0.0
  0
LINE
  5
11393
330
110C9
100
AcDbEntity
  8
1
  6
Continuous
100
AcDbLine
 10
615.882076
 20
159.9
 30
0.0
 11
615.882076
 21
161.5
 31
0.0
  0
LINE
  5
11394
330
110C9
100
AcDbEntity
  8
4
  6
CENTER
100
AcDbLine
 10
590.882076
 20
142.9
 30
0.0
 11
562.8820759999999
 21
142.9
 31
0.0
  0
ARC
  5
11395
330
110C9
100
AcDbEntity
  8
3
  6
DASHED
100
AcDbCircle
 10
576.8820759999997
 20
142.9
 30
0.0
 40
11.0
100
AcDbArc
 50
305.096801
 51
234.9031990000001
  0
CIRCLE
  5
11396
330
110C9
100
AcDbEntity
  8
1
  6
Continuous
100
AcDbCircle
 10
520.882076
 20
143.9
 30
0.0
 40
3.0
  0
LINE
  5
11397
330
110C9
100
AcDbEntity
  8
4
  6
CENTER
100
AcDbLine
 10
520.882076
 20
137.9
 30
0.0
 11
520.882076
 21
149.9
 31
0.0
  0
LINE
  5
11398
330
110C9
100
AcDbEntity
  8
3
  6
DASHED
100
AcDbLine
 10
587.8820759999999
 20
135.3
 30
0.0
 11
587.8820759999999
 21
136.8999999999997
 31
0.0
  0
ARC
  5
11399
330
110C9
100
AcDbEntity
  8
1
  6
Continuous
100
AcDbCircle
 10
576.8820759999997
 20
142.9
 30
0.0
 40
11.0
100
AcDbArc
 50
234.9031990000001
 51
305.096801
  0
LINE
  5
1139A
330
110C9
100
AcDbEntity
  8
1
  6
Continuous
100
AcDbLine
 10
593.0585469999997
 20
153.5
 30
0.0
 11
593.8820759999997
 21
153.9
 31
0.0
  0
LINE
  5
1139B
330
110C9
100
AcDbEntity
  8
1
  6
Continuous
100
AcDbLine
 10
580.7056059999998
 20
153.5
 30
0.0
 11
579.8820759999999
 21
153.9
 31
0.0
  0
LINE
  5
1139C
330
110C9
100
AcDbEntity
  8
1
  6
Continuous
100
AcDbLine
 10
579.8820759999999
 20
153.5
 30
0.0
 11
593.8820759999997
 21
153.5
 31
0.0
  0
LINE
  5
1139D
330
110C9
100
AcDbEntity
  8
4
  6
CENTER
100
AcDbLine
 10
585.8820759999997
 20
152.4
 30
0.0
 11
585.8820759999997
 21
144.4
 31
0.0
  0
LINE
  5
1139E
330
110C9
100
AcDbEntity
  8
4
  6
CENTER
100
AcDbLine
 10
597.8820759999997
 20
142.4
 30
0.0
 11
597.8820759999997
 21
154.4
 31
0.0
  0
LINE
  5
1139F
330
110C9
100
AcDbEntity
  8
1
  6
Continuous
100
AcDbLine
 10
668.8820759999997
 20
153.9
 30
0.0
 11
668.8820759999997
 21
155.4999999999998
 31
0.0
  0
ARC
  5
113A0
330
110C9
100
AcDbEntity
  8
1
  6
Continuous
100
AcDbCircle
 10
679.8820759999999
 20
147.9
 30
0.0
 40
11.0
100
AcDbArc
 50
30.75150199999999
 51
146.9442689999999
  0
ARC
  5
113A1
330
110C9
100
AcDbEntity
  8
3
  6
DASHED
100
AcDbCircle
 10
679.8820759999999
 20
147.9
 30
0.0
 40
11.0
100
AcDbArc
 50
146.9442689999999
 51
30.75150199999999
  0
LINE
  5
113A2
330
110C9
100
AcDbEntity
  8
4
  6
CENTER
100
AcDbLine
 10
679.8820759999999
 20
138.1995399999998
 30
0.0
 11
679.8820759999999
 21
157.60046
 31
0.0
  0
LINE
  5
113A3
330
110C9
100
AcDbEntity
  8
1
  6
Continuous
100
AcDbLine
 10
690.382076
 20
244.4999999999998
 30
0.0
 11
669.382076
 21
244.4999999999998
 31
0.0
  0
LINE
  5
113A4
330
110C9
100
AcDbEntity
  8
1
  6
Continuous
100
AcDbLine
 10
690.882076
 20
243.5
 30
0.0
 11
668.8820759999997
 21
243.5
 31
0.0
  0
LINE
  5
113A5
330
110C9
100
AcDbEntity
  8
1
  6
Continuous
100
AcDbLine
 10
668.8820759999997
 20
245.9
 30
0.0
 11
668.8820759999997
 21
241.9
 31
0.0
  0
LINE
  5
113A6
330
110C9
100
AcDbEntity
  8
4
  6
CENTER
100
AcDbLine
 10
658.8820759999999
 20
238.703417
 30
0.0
 11
658.8820759999999
 21
246.703417
 31
0.0
  0
LINE
  5
113A7
330
110C9
100
AcDbEntity
  8
4
  6
CENTER
100
AcDbLine
 10
670.882076
 20
238.703417
 30
0.0
 11
670.882076
 21
246.703417
 31
0.0
  0
ARC
  5
113A8
330
110C9
100
AcDbEntity
  8
3
  6
DASHED
100
AcDbCircle
 10
665.882076
 20
246.9
 30
0.0
 40
3.0
100
AcDbArc
 50
0.0
 51
90.0
  0
ARC
  5
113A9
330
110C9
100
AcDbEntity
  8
1
  6
Continuous
100
AcDbCircle
 10
669.382076
 20
245.0
 30
0.0
 40
0.5
100
AcDbArc
 50
180.0
 51
270.0
  0
LINE
  5
113AA
330
110C9
100
AcDbEntity
  8
3
  6
DASHED
100
AcDbLine
 10
668.8820759999997
 20
246.9
 30
0.0
 11
668.8820759999997
 21
245.9
 31
0.0
  0
LINE
  5
113AB
330
110C9
100
AcDbEntity
  8
1
  6
Continuous
100
AcDbLine
 10
684.632076
 20
244.0
 30
0.0
 11
684.632076
 21
244.4999999999998
 31
0.0
  0
LINE
  5
113AC
330
110C9
100
AcDbEntity
  8
1
  6
Continuous
100
AcDbLine
 10
675.1320759999997
 20
244.0
 30
0.0
 11
675.1320759999997
 21
244.4999999999998
 31
0.0
  0
LINE
  5
113AD
330
110C9
100
AcDbEntity
  8
1
  6
Continuous
100
AcDbLine
 10
690.882076
 20
245.9
 30
0.0
 11
690.882076
 21
245.0
 31
0.0
  0
ARC
  5
113AE
330
110C9
100
AcDbEntity
  8
1
  6
Continuous
100
AcDbCircle
 10
690.382076
 20
245.0
 30
0.0
 40
0.5
100
AcDbArc
 50
270.0
 51
0.0
  0
LINE
  5
113AF
330
110C9
100
AcDbEntity
  8
1
  6
Continuous
100
AcDbLine
 10
684.632076
 20
244.0
 30
0.0
 11
684.132076
 21
243.5
 31
0.0
  0
LINE
  5
113B0
330
110C9
100
AcDbEntity
  8
1
  6
Continuous
100
AcDbLine
 10
675.1320759999997
 20
244.0
 30
0.0
 11
675.632076
 21
243.5
 31
0.0
  0
LINE
  5
113B1
330
110C9
100
AcDbEntity
  8
1
  6
Continuous
100
AcDbLine
 10
675.1320759999997
 20
244.0
 30
0.0
 11
684.632076
 21
244.0
 31
0.0
  0
LINE
  5
113B2
330
110C9
100
AcDbEntity
  8
1
  6
Continuous
100
AcDbLine
 10
683.532076
 20
241.1999999999999
 30
0.0
 11
676.232076
 21
241.1999999999999
 31
0.0
  0
LINE
  5
113B3
330
110C9
100
AcDbEntity
  8
1
  6
Continuous
100
AcDbLine
 10
676.232076
 20
241.1999999999999
 30
0.0
 11
676.9320759999999
 21
241.9
 31
0.0
  0
LINE
  5
113B4
330
110C9
100
AcDbEntity
  8
1
  6
Continuous
100
AcDbLine
 10
683.532076
 20
241.1999999999999
 30
0.0
 11
682.832076
 21
241.9
 31
0.0
  0
LINE
  5
113B5
330
110C9
100
AcDbEntity
  8
1
  6
Continuous
100
AcDbLine
 10
690.882076
 20
243.5
 30
0.0
 11
690.882076
 21
241.9
 31
0.0
  0
LINE
  5
113B6
330
110C9
100
AcDbEntity
  8
4
  6
CENTER
100
AcDbLine
 10
679.8820759999999
 20
255.3542069999998
 30
0.0
 11
679.8820759999999
 21
237.4
 31
0.0
  0
LINE
  5
113B7
330
110C9
100
AcDbEntity
  8
4
  6
CENTER
100
AcDbLine
 10
735.882076
 20
249.187481
 30
0.0
 11
735.882076
 21
257.187481
 31
0.0
  0
LINE
  5
113B8
330
110C9
100
AcDbEntity
  8
4
  6
CENTER
100
AcDbLine
 10
666.1179279999998
 20
147.9
 30
0.0
 11
693.8024429999996
 21
147.9
 31
0.0
  0
LINE
  5
113B9
330
110C9
100
AcDbEntity
  8
1
  6
Continuous
100
AcDbLine
 10
668.8820759999997
 20
153.9
 30
0.0
 11
687.8820759999999
 21
153.9
 31
0.0
  0
CIRCLE
  5
113BA
330
110C9
100
AcDbEntity
  8
1
  6
Continuous
100
AcDbCircle
 10
658.8820759999999
 20
143.9
 30
0.0
 40
3.0
  0
LINE
  5
113BB
330
110C9
100
AcDbEntity
  8
4
  6
CENTER
100
AcDbLine
 10
658.8820759999999
 20
137.9
 30
0.0
 11
658.8820759999999
 21
149.9
 31
0.0
  0
LINE
  5
113BC
330
110C9
100
AcDbEntity
  8
4
  6
CENTER
100
AcDbLine
 10
670.882076
 20
139.4
 30
0.0
 11
670.882076
 21
148.3999999999998
 31
0.0
  0
CIRCLE
  5
113BD
330
110C9
100
AcDbEntity
  8
1
  6
Continuous
100
AcDbCircle
 10
670.882076
 20
143.9
 30
0.0
 40
2.0
  0
ARC
  5
113BE
330
110C9
100
AcDbEntity
  8
1
  6
Continuous
100
AcDbCircle
 10
687.8820759999999
 20
136.8999999999997
 30
0.0
 40
3.0
100
AcDbArc
 50
270.0
 51
0.0
  0
ARC
  5
113BF
330
110C9
100
AcDbEntity
  8
1
  6
Continuous
100
AcDbCircle
 10
687.8820759999999
 20
150.9
 30
0.0
 40
3.0
100
AcDbArc
 50
0.0
 51
90.0
  0
LINE
  5
113C0
330
110C9
100
AcDbEntity
  8
1
  6
Continuous
100
AcDbLine
 10
690.882076
 20
136.8999999999997
 30
0.0
 11
690.882076
 21
150.9
 31
0.0
  0
CIRCLE
  5
113C1
330
110C9
100
AcDbEntity
  8
1
  6
Continuous
100
AcDbCircle
 10
679.8820759999999
 20
147.9
 30
0.0
 40
3.649999999999999
  0
CIRCLE
  5
113C2
330
110C9
100
AcDbEntity
  8
1
  6
Continuous
100
AcDbCircle
 10
735.882076
 20
148.3999999999998
 30
0.0
 40
3.0
  0
CIRCLE
  5
113C3
330
110C9
100
AcDbEntity
  8
1
  6
Continuous
100
AcDbCircle
 10
735.882076
 20
148.3999999999998
 30
0.0
 40
4.299999999999998
  0
LINE
  5
113C4
330
110C9
100
AcDbEntity
  8
4
  6
CENTER
100
AcDbLine
 10
735.882076
 20
142.4
 30
0.0
 11
735.882076
 21
154.4
 31
0.0
  0
LINE
  5
113C5
330
110C9
100
AcDbEntity
  8
4
  6
CENTER
100
AcDbLine
 10
1011.882076
 20
46.21251899999999
 30
0.0
 11
1011.882076
 21
38.212519
 31
0.0
  0
LINE
  5
113C6
330
110C9
100
AcDbEntity
  8
4
  6
CENTER
100
AcDbLine
 10
873.8820759999999
 20
46.21251899999999
 30
0.0
 11
873.8820759999999
 21
38.212519
 31
0.0
  0
CIRCLE
  5
113C7
330
110C9
100
AcDbEntity
  8
1
  6
Continuous
100
AcDbCircle
 10
873.8820759999999
 20
347.3999999999999
 30
0.0
 40
3.0
  0
LINE
  5
113C8
330
110C9
100
AcDbEntity
  8
4
  6
CENTER
100
AcDbLine
 10
873.8820759999999
 20
353.3999999999999
 30
0.0
 11
873.8820759999999
 21
341.3999999999999
 31
0.0
  0
LINE
  5
113C9
330
110C9
100
AcDbEntity
  8
4
  6
CENTER
100
AcDbLine
 10
1011.882076
 20
353.3999999999999
 30
0.0
 11
1011.882076
 21
341.3999999999999
 31
0.0
  0
CIRCLE
  5
113CA
330
110C9
100
AcDbEntity
  8
1
  6
Continuous
100
AcDbCircle
 10
1011.882076
 20
347.3999999999999
 30
0.0
 40
3.0
  0
LINE
  5
113CB
330
110C9
100
AcDbEntity
  8
4
  6
CENTER
100
AcDbLine
 10
1149.882075999999
 20
46.21251899999999
 30
0.0
 11
1149.882075999999
 21
38.212519
 31
0.0
  0
LINE
  5
113CC
330
110C9
100
AcDbEntity
  8
1
  6
Continuous
100
AcDbLine
 10
1165.882075999999
 20
41.5
 30
0.0
 11
1165.882075999999
 21
46.5
 31
0.0
  0
LINE
  5
113CD
330
110C9
100
AcDbEntity
  8
4
  6
CENTER
100
AcDbLine
 10
1134.882076
 20
46.21251899999999
 30
0.0
 11
1134.882076
 21
38.212519
 31
0.0
  0
ARC
  5
113CE
330
110C9
100
AcDbEntity
  8
1
  6
Continuous
100
AcDbCircle
 10
1162.882075999998
 20
46.5
 30
0.0
 40
3.0
100
AcDbArc
 50
0.0
 51
90.0
  0
CIRCLE
  5
113CF
330
110C9
100
AcDbEntity
  8
1
  6
Continuous
100
AcDbCircle
 10
1149.882075999999
 20
347.3999999999999
 30
0.0
 40
3.0
  0
LINE
  5
113D0
330
110C9
100
AcDbEntity
  8
4
  6
CENTER
100
AcDbLine
 10
1134.882076
 20
351.8999999999999
 30
0.0
 11
1134.882076
 21
342.8999999999998
 31
0.0
  0
CIRCLE
  5
113D1
330
110C9
100
AcDbEntity
  8
1
  6
Continuous
100
AcDbCircle
 10
1134.882076
 20
347.3999999999999
 30
0.0
 40
2.0
  0
LINE
  5
113D2
330
110C9
100
AcDbEntity
  8
1
  6
Continuous
100
AcDbLine
 10
1165.882075999999
 20
360.4999999999998
 30
0.0
 11
1165.882075999999
 21
334.2999999999999
 31
0.0
  0
LINE
  5
113D3
330
110C9
100
AcDbEntity
  8
4
  6
CENTER
100
AcDbLine
 10
1149.882075999999
 20
353.3999999999999
 30
0.0
 11
1149.882075999999
 21
341.3999999999999
 31
0.0
  0
ARC
  5
113D4
330
110C9
100
AcDbEntity
  8
1
  6
Continuous
100
AcDbCircle
 10
1222.864151999998
 20
158.4
 30
0.0
 40
0.5
100
AcDbArc
 50
90.0
 51
180.0
  0
LINE
  5
113D5
330
110C9
100
AcDbEntity
  8
1
  6
Continuous
100
AcDbLine
 10
1231.764152
 20
159.9
 30
0.0
 11
1231.764152
 21
136.8999999999997
 31
0.0
  0
LINE
  5
113D6
330
110C9
100
AcDbEntity
  8
1
  6
Continuous
100
AcDbLine
 10
1230.164152
 20
159.9
 30
0.0
 11
1230.164152
 21
136.8999999999997
 31
0.0
  0
ARC
  5
113D7
330
110C9
100
AcDbEntity
  8
1
  6
Continuous
100
AcDbCircle
 10
1228.864151999998
 20
158.4
 30
0.0
 40
0.5
100
AcDbArc
 50
0.0
 51
90.0
  0
LINE
  5
113D8
330
110C9
100
AcDbEntity
  8
4
  6
CENTER
100
AcDbLine
 10
1217.125629999999
 20
147.9
 30
0.0
 11
1230.933503
 21
147.9
 31
0.0
  0
LINE
  5
113D9
330
110C9
100
AcDbEntity
  8
4
  6
CENTER
100
AcDbLine
 10
1234.35615
 20
142.9
 30
0.0
 11
1220.708139
 21
142.9
 31
0.0
  0
LINE
  5
113DA
330
110C9
100
AcDbEntity
  8
1
  6
Continuous
100
AcDbLine
 10
1230.164152
 20
136.8999999999997
 30
0.0
 11
1222.864151999998
 21
136.8999999999997
 31
0.0
  0
LINE
  5
113DB
330
110C9
100
AcDbEntity
  8
1
  6
Continuous
100
AcDbLine
 10
1230.164152
 20
135.3
 30
0.0
 11
1223.764152
 21
135.3
 31
0.0
  0
LINE
  5
113DC
330
110C9
100
AcDbEntity
  8
1
  6
Continuous
100
AcDbLine
 10
1228.864151999998
 20
158.9
 30
0.0
 11
1222.864151999998
 21
158.9
 31
0.0
  0
LINE
  5
113DD
330
110C9
100
AcDbEntity
  8
1
  6
Continuous
100
AcDbLine
 10
1222.664152
 20
131.9
 30
0.0
 11
1228.664152
 21
131.9
 31
0.0
  0
LINE
  5
113DE
330
110C9
100
AcDbEntity
  8
1
  6
Continuous
100
AcDbLine
 10
1229.164152
 20
137.0
 30
0.0
 11
1229.164152
 21
136.8999999999997
 31
0.0
  0
LINE
  5
113DF
330
110C9
100
AcDbEntity
  8
1
  6
Continuous
100
AcDbLine
 10
1229.364152
 20
158.4
 30
0.0
 11
1229.364152
 21
137.4
 31
0.0
  0
ARC
  5
113E0
330
110C9
100
AcDbEntity
  8
1
  6
Continuous
100
AcDbCircle
 10
1230.164152
 20
136.8999999999997
 30
0.0
 40
1.6
100
AcDbArc
 50
270.0
 51
0.0
  0
LINE
  5
113E1
330
110C9
100
AcDbEntity
  8
1
  6
Continuous
100
AcDbLine
 10
1229.664152
 20
138.15
 30
0.0
 11
1229.664152
 21
147.65
 31
0.0
  0
LINE
  5
113E2
330
110C9
100
AcDbEntity
  8
1
  6
Continuous
100
AcDbLine
 10
1229.664152
 20
138.15
 30
0.0
 11
1229.364152
 21
138.15
 31
0.0
  0
LINE
  5
113E3
330
110C9
100
AcDbEntity
  8
1
  6
Continuous
100
AcDbLine
 10
1229.664152
 20
138.15
 30
0.0
 11
1230.164152
 21
138.65
 31
0.0
  0
LINE
  5
113E4
330
110C9
100
AcDbEntity
  8
1
  6
Continuous
100
AcDbLine
 10
1229.664152
 20
147.65
 30
0.0
 11
1229.364152
 21
147.65
 31
0.0
  0
LINE
  5
113E5
330
110C9
100
AcDbEntity
  8
1
  6
Continuous
100
AcDbLine
 10
1229.664152
 20
147.65
 30
0.0
 11
1230.164152
 21
147.1499999999998
 31
0.0
  0
LINE
  5
113E6
330
110C9
100
AcDbEntity
  8
1
  6
Continuous
100
AcDbLine
 10
1232.464152
 20
146.55
 30
0.0
 11
1231.764152
 21
145.8499999999999
 31
0.0
  0
LINE
  5
113E7
330
110C9
100
AcDbEntity
  8
1
  6
Continuous
100
AcDbLine
 10
1232.464152
 20
139.25
 30
0.0
 11
1231.764152
 21
139.9499999999999
 31
0.0
  0
LINE
  5
113E8
330
110C9
100
AcDbEntity
  8
1
  6
Continuous
100
AcDbLine
 10
1232.464152
 20
146.55
 30
0.0
 11
1232.464152
 21
139.25
 31
0.0
  0
LINE
  5
113E9
330
110C9
100
AcDbEntity
  8
4
  6
CENTER
100
AcDbLine
 10
1227.277018999999
 20
148.3999999999998
 30
0.0
 11
1234.198422
 21
148.3999999999998
 31
0.0
  0
ARC
  5
113EA
330
110C9
100
AcDbEntity
  8
1
  6
Continuous
100
AcDbCircle
 10
1228.864151999998
 20
137.4
 30
0.0
 40
0.5
100
AcDbArc
 50
270.0
 51
0.0
  0
ARC
  5
113EB
330
110C9
100
AcDbEntity
  8
1
  6
Continuous
100
AcDbCircle
 10
1228.664152
 20
132.4
 30
0.0
 40
0.5
100
AcDbArc
 50
270.0
 51
0.0
  0
LINE
  5
113EC
330
110C9
100
AcDbEntity
  8
1
  6
Continuous
100
AcDbLine
 10
1229.164152
 20
135.3
 30
0.0
 11
1229.164152
 21
132.4
 31
0.0
  0
LINE
  5
113ED
330
110C9
100
AcDbEntity
  8
1
  6
Continuous
100
AcDbLine
 10
1222.164152
 20
153.3999999999998
 30
0.0
 11
1222.164152
 21
152.65
 31
0.0
  0
LINE
  5
113EE
330
110C9
100
AcDbEntity
  8
1
  6
Continuous
100
AcDbLine
 10
1221.364152
 20
153.9
 30
0.0
 11
1221.364152
 21
133.9
 31
0.0
  0
LINE
  5
113EF
330
110C9
100
AcDbEntity
  8
1
  6
Continuous
100
AcDbLine
 10
1219.764151999999
 20
153.9
 30
0.0
 11
1219.764151999999
 21
133.9
 31
0.0
  0
LINE
  5
113F0
330
110C9
100
AcDbEntity
  8
1
  6
Continuous
100
AcDbLine
 10
1219.064152
 20
151.55
 30
0.0
 11
1219.064152
 21
144.25
 31
0.0
  0
LINE
  5
113F1
330
110C9
100
AcDbEntity
  8
1
  6
Continuous
100
AcDbLine
 10
1221.864151999999
 20
143.1499999999998
 30
0.0
 11
1221.864151999999
 21
152.65
 31
0.0
  0
LINE
  5
113F2
330
110C9
100
AcDbEntity
  8
1
  6
Continuous
100
AcDbLine
 10
1221.364152
 20
152.15
 30
0.0
 11
1221.364152
 21
143.65
 31
0.0
  0
LINE
  5
113F3
330
110C9
100
AcDbEntity
  8
4
  6
CENTER
100
AcDbLine
 10
1217.125629999999
 20
143.9
 30
0.0
 11
1224.047033
 21
143.9
 31
0.0
  0
LINE
  5
113F4
330
110C9
100
AcDbEntity
  8
1
  6
Continuous
100
AcDbLine
 10
1219.764151999999
 20
133.9
 30
0.0
 11
1221.364152
 21
133.9
 31
0.0
  0
LINE
  5
113F5
330
110C9
100
AcDbEntity
  8
1
  6
Continuous
100
AcDbLine
 10
1219.064152
 20
144.25
 30
0.0
 11
1219.764151999999
 21
144.95
 31
0.0
  0
LINE
  5
113F6
330
110C9
100
AcDbEntity
  8
1
  6
Continuous
100
AcDbLine
 10
1221.864151999999
 20
143.1499999999998
 30
0.0
 11
1221.364152
 21
143.65
 31
0.0
  0
LINE
  5
113F7
330
110C9
100
AcDbEntity
  8
1
  6
Continuous
100
AcDbLine
 10
1221.864151999999
 20
143.1499999999998
 30
0.0
 11
1222.364151999999
 21
143.1499999999998
 31
0.0
  0
LINE
  5
113F8
330
110C9
100
AcDbEntity
  8
1
  6
Continuous
100
AcDbLine
 10
1219.764151999999
 20
153.9
 30
0.0
 11
1222.364151999999
 21
153.9
 31
0.0
  0
LINE
  5
113F9
330
110C9
100
AcDbEntity
  8
1
  6
Continuous
100
AcDbLine
 10
1221.364152
 20
155.4999999999998
 30
0.0
 11
1222.364151999999
 21
155.4999999999998
 31
0.0
  0
ARC
  5
113FA
330
110C9
100
AcDbEntity
  8
1
  6
Continuous
100
AcDbCircle
 10
1222.664152
 20
153.3999999999998
 30
0.0
 40
0.5
100
AcDbArc
 50
126.869898
 51
180.0
  0
ARC
  5
113FB
330
110C9
100
AcDbEntity
  8
1
  6
Continuous
100
AcDbCircle
 10
1221.364152
 20
153.9
 30
0.0
 40
1.6
100
AcDbArc
 50
90.0
 51
180.0
  0
LINE
  5
113FC
330
110C9
100
AcDbEntity
  8
1
  6
Continuous
100
AcDbLine
 10
1219.064152
 20
151.55
 30
0.0
 11
1219.764151999999
 21
150.8499999999999
 31
0.0
  0
LINE
  5
113FD
330
110C9
100
AcDbEntity
  8
1
  6
Continuous
100
AcDbLine
 10
1221.864151999999
 20
152.65
 30
0.0
 11
1221.364152
 21
152.15
 31
0.0
  0
LINE
  5
113FE
330
110C9
100
AcDbEntity
  8
1
  6
Continuous
100
AcDbLine
 10
1222.364151999999
 20
158.4
 30
0.0
 11
1222.364151999999
 21
137.4
 31
0.0
  0
LINE
  5
113FF
330
110C9
100
AcDbEntity
  8
1
  6
Continuous
100
AcDbLine
 10
1221.864151999999
 20
152.65
 30
0.0
 11
1222.364151999999
 21
152.65
 31
0.0
  0
LINE
  5
11400
330
110C9
100
AcDbEntity
  8
1
  6
Continuous
100
AcDbLine
 10
1223.764152
 20
135.3
 30
0.0
 11
1223.764152
 21
136.8999999999997
 31
0.0
  0
ARC
  5
11401
330
110C9
100
AcDbEntity
  8
1
  6
Continuous
100
AcDbCircle
 10
1222.864151999998
 20
137.4
 30
0.0
 40
0.5
100
AcDbArc
 50
180.0
 51
270.0
  0
ARC
  5
11402
330
110C9
100
AcDbEntity
  8
1
  6
Continuous
100
AcDbCircle
 10
1222.664152
 20
132.4
 30
0.0
 40
0.5
100
AcDbArc
 50
180.0
 51
270.0
  0
LINE
  5
11403
330
110C9
100
AcDbEntity
  8
1
  6
Continuous
100
AcDbLine
 10
1222.164152
 20
143.1499999999998
 30
0.0
 11
1222.164152
 21
132.4
 31
0.0
  0
LINE
  5
11404
330
110C9
100
AcDbEntity
  8
1
  6
Continuous
100
AcDbLine
 10
1230.164152
 20
161.5
 30
0.0
 11
1223.764152
 21
161.5
 31
0.0
  0
LINE
  5
11405
330
110C9
100
AcDbEntity
  8
1
  6
Continuous
100
AcDbLine
 10
1230.164152
 20
159.9
 30
0.0
 11
1223.764152
 21
159.9
 31
0.0
  0
ARC
  5
11406
330
110C9
100
AcDbEntity
  8
1
  6
Continuous
100
AcDbCircle
 10
1230.164152
 20
159.9
 30
0.0
 40
1.6
100
AcDbArc
 50
0.0
 51
90.0
  0
LINE
  5
11407
330
110C9
100
AcDbEntity
  8
1
  6
Continuous
100
AcDbLine
 10
1223.764152
 20
161.5
 30
0.0
 11
1223.764152
 21
159.9
 31
0.0
  0
LINE
  5
11408
330
110C9
100
AcDbEntity
  8
4
  6
CENTER
100
AcDbLine
 10
873.8820759999999
 20
249.187481
 30
0.0
 11
873.8820759999999
 21
257.187481
 31
0.0
  0
LINE
  5
11409
330
110C9
100
AcDbEntity
  8
4
  6
CENTER
100
AcDbLine
 10
1011.882076
 20
249.187481
 30
0.0
 11
1011.882076
 21
257.187481
 31
0.0
  0
CIRCLE
  5
1140A
330
110C9
100
AcDbEntity
  8
1
  6
Continuous
100
AcDbCircle
 10
873.8820759999999
 20
148.3999999999998
 30
0.0
 40
3.0
  0
CIRCLE
  5
1140B
330
110C9
100
AcDbEntity
  8
1
  6
Continuous
100
AcDbCircle
 10
873.8820759999999
 20
148.3999999999998
 30
0.0
 40
4.299999999999998
  0
LINE
  5
1140C
330
110C9
100
AcDbEntity
  8
4
  6
CENTER
100
AcDbLine
 10
873.8820759999999
 20
142.4
 30
0.0
 11
873.8820759999999
 21
154.4
 31
0.0
  0
CIRCLE
  5
1140D
330
110C9
100
AcDbEntity
  8
1
  6
Continuous
100
AcDbCircle
 10
1011.882076
 20
148.3999999999998
 30
0.0
 40
3.0
  0
CIRCLE
  5
1140E
330
110C9
100
AcDbEntity
  8
1
  6
Continuous
100
AcDbCircle
 10
1011.882076
 20
148.3999999999998
 30
0.0
 40
4.299999999999998
  0
LINE
  5
1140F
330
110C9
100
AcDbEntity
  8
4
  6
CENTER
100
AcDbLine
 10
1011.882076
 20
142.4
 30
0.0
 11
1011.882076
 21
154.4
 31
0.0
  0
LINE
  5
11410
330
110C9
100
AcDbEntity
  8
1
  6
Continuous
100
AcDbLine
 10
1165.882075999999
 20
135.3
 30
0.0
 11
1165.882075999999
 21
161.5
 31
0.0
  0
LINE
  5
11411
330
110C9
100
AcDbEntity
  8
4
  6
CENTER
100
AcDbLine
 10
1134.882076
 20
249.187481
 30
0.0
 11
1134.882076
 21
257.187481
 31
0.0
  0
ARC
  5
11412
330
110C9
100
AcDbEntity
  8
1
  6
Continuous
100
AcDbCircle
 10
1162.882075999998
 20
248.9
 30
0.0
 40
3.0
100
AcDbArc
 50
270.0
 51
0.0
  0
LINE
  5
11413
330
110C9
100
AcDbEntity
  8
1
  6
Continuous
100
AcDbLine
 10
1165.882075999999
 20
253.9
 30
0.0
 11
1165.882075999999
 21
248.9
 31
0.0
  0
LINE
  5
11414
330
110C9
100
AcDbEntity
  8
4
  6
CENTER
100
AcDbLine
 10
1149.882075999999
 20
249.187481
 30
0.0
 11
1149.882075999999
 21
257.187481
 31
0.0
  0
CIRCLE
  5
11415
330
110C9
100
AcDbEntity
  8
1
  6
Continuous
100
AcDbCircle
 10
1149.882075999999
 20
148.3999999999998
 30
0.0
 40
3.0
  0
CIRCLE
  5
11416
330
110C9
100
AcDbEntity
  8
1
  6
Continuous
100
AcDbCircle
 10
1149.882075999999
 20
148.3999999999998
 30
0.0
 40
4.299999999999998
  0
CIRCLE
  5
11417
330
110C9
100
AcDbEntity
  8
1
  6
Continuous
100
AcDbCircle
 10
1134.882076
 20
148.3999999999998
 30
0.0
 40
2.0
  0
LINE
  5
11418
330
110C9
100
AcDbEntity
  8
4
  6
CENTER
100
AcDbLine
 10
1134.882076
 20
143.9
 30
0.0
 11
1134.882076
 21
152.9
 31
0.0
  0
LINE
  5
11419
330
110C9
100
AcDbEntity
  8
4
  6
CENTER
100
AcDbLine
 10
1149.882075999999
 20
142.4
 30
0.0
 11
1149.882075999999
 21
154.4
 31
0.0
  0
LINE
  5
1141A
330
110C9
100
AcDbEntity
  8
5
  6
PHANTOM
100
AcDbLine
 10
687.8820759999999
 20
133.9
 30
0.0
 11
1162.882075999998
 21
133.9
 31
0.0
  0
LINE
  5
1141B
330
110C9
100
AcDbEntity
  8
5
  6
PHANTOM
100
AcDbLine
 10
668.8820759999997
 20
155.4999999999998
 30
0.0
 11
1054.882075999999
 21
155.4999999999998
 31
0.0
  0
CIRCLE
  5
1141C
330
110C9
100
AcDbEntity
  8
5
  6
PHANTOM
100
AcDbCircle
 10
596.8820759999998
 20
143.9
 30
0.0
 40
2.0
  0
LINE
  5
1141D
330
110C9
100
AcDbEntity
  8
4
  6
CENTER
100
AcDbLine
 10
581.882076
 20
137.9
 30
0.0
 11
581.882076
 21
149.9
 31
0.0
  0
LINE
  5
1141E
330
110C9
100
AcDbEntity
  8
4
  6
CENTER
100
AcDbLine
 10
596.8820759999998
 20
147.9
 30
0.0
 11
596.8820759999998
 21
139.9
 31
0.0
  0
CIRCLE
  5
1141F
330
110C9
100
AcDbEntity
  8
5
  6
PHANTOM
100
AcDbCircle
 10
581.882076
 20
143.9
 30
0.0
 40
3.0
  0
ARC
  5
11420
330
110C9
100
AcDbEntity
  8
5
  6
PHANTOM
100
AcDbCircle
 10
568.8820759999997
 20
136.8999999999997
 30
0.0
 40
3.0
100
AcDbArc
 50
180.0
 51
270.0
  0
CIRCLE
  5
11421
330
110C9
100
AcDbEntity
  8
5
  6
PHANTOM
100
AcDbCircle
 10
857.8820759999999
 20
143.9
 30
0.0
 40
3.0
  0
LINE
  5
11422
330
110C9
100
AcDbEntity
  8
4
  6
CENTER
100
AcDbLine
 10
857.8820759999999
 20
137.9
 30
0.0
 11
857.8820759999999
 21
149.9
 31
0.0
  0
CIRCLE
  5
11423
330
110C9
100
AcDbEntity
  8
5
  6
PHANTOM
100
AcDbCircle
 10
719.882076
 20
143.9
 30
0.0
 40
3.0
  0
LINE
  5
11424
330
110C9
100
AcDbEntity
  8
4
  6
CENTER
100
AcDbLine
 10
719.882076
 20
137.9
 30
0.0
 11
719.882076
 21
149.9
 31
0.0
  0
LINE
  5
11425
330
110C9
100
AcDbEntity
  8
5
  6
PHANTOM
100
AcDbLine
 10
1068.882075999999
 20
155.4999999999998
 30
0.0
 11
1143.882075999999
 21
155.4999999999998
 31
0.0
  0
LINE
  5
11426
330
110C9
100
AcDbEntity
  8
4
  6
CENTER
100
AcDbLine
 10
995.882076
 20
137.9
 30
0.0
 11
995.882076
 21
149.9
 31
0.0
  0
CIRCLE
  5
11427
330
110C9
100
AcDbEntity
  8
5
  6
PHANTOM
100
AcDbCircle
 10
995.882076
 20
143.9
 30
0.0
 40
3.0
  0
LINE
  5
11428
330
110C9
100
AcDbEntity
  8
5
  6
PHANTOM
100
AcDbLine
 10
1054.882075999999
 20
153.5
 30
0.0
 11
1068.882075999999
 21
153.5
 31
0.0
  0
LINE
  5
11429
330
110C9
100
AcDbEntity
  8
5
  6
PHANTOM
100
AcDbLine
 10
1055.705606
 20
153.5
 30
0.0
 11
1054.882075999999
 21
153.9
 31
0.0
  0
LINE
  5
1142A
330
110C9
100
AcDbEntity
  8
5
  6
PHANTOM
100
AcDbLine
 10
1068.058547
 20
153.5
 30
0.0
 11
1068.882075999999
 21
153.9
 31
0.0
  0
LINE
  5
1142B
330
110C9
100
AcDbEntity
  8
5
  6
PHANTOM
100
AcDbLine
 10
1054.882075999999
 20
155.4999999999998
 30
0.0
 11
1054.882075999999
 21
153.5
 31
0.0
  0
LINE
  5
1142C
330
110C9
100
AcDbEntity
  8
5
  6
PHANTOM
100
AcDbLine
 10
1058.999723
 20
153.5
 30
0.0
 11
1054.882075999999
 21
155.4999999999998
 31
0.0
  0
LINE
  5
1142D
330
110C9
100
AcDbEntity
  8
5
  6
PHANTOM
100
AcDbLine
 10
1068.882075999999
 20
155.4999999999998
 30
0.0
 11
1068.882075999999
 21
153.5
 31
0.0
  0
LINE
  5
1142E
330
110C9
100
AcDbEntity
  8
5
  6
PHANTOM
100
AcDbLine
 10
1064.764429
 20
153.5
 30
0.0
 11
1068.882075999999
 21
155.4999999999998
 31
0.0
  0
CIRCLE
  5
1142F
330
110C9
100
AcDbEntity
  8
5
  6
PHANTOM
100
AcDbCircle
 10
1145.882075999999
 20
143.9
 30
0.0
 40
2.0
  0
LINE
  5
11430
330
110C9
100
AcDbEntity
  8
4
  6
CENTER
100
AcDbLine
 10
1145.882075999999
 20
139.4
 30
0.0
 11
1145.882075999999
 21
148.3999999999998
 31
0.0
  0
LINE
  5
11431
330
110C9
100
AcDbEntity
  8
4
  6
CENTER
100
AcDbLine
 10
1133.882075999999
 20
137.9
 30
0.0
 11
1133.882075999999
 21
149.9
 31
0.0
  0
CIRCLE
  5
11432
330
110C9
100
AcDbEntity
  8
5
  6
PHANTOM
100
AcDbCircle
 10
1154.882075999998
 20
147.9
 30
0.0
 40
3.649999999999999
  0
LINE
  5
11433
330
110C9
100
AcDbEntity
  8
4
  6
CENTER
100
AcDbLine
 10
1154.882075999998
 20
138.1995399999998
 30
0.0
 11
1154.882075999998
 21
157.60046
 31
0.0
  0
CIRCLE
  5
11434
330
110C9
100
AcDbEntity
  8
5
  6
PHANTOM
100
AcDbCircle
 10
1133.882075999999
 20
143.9
 30
0.0
 40
3.0
  0
ARC
  5
11435
330
110C9
100
AcDbEntity
  8
5
  6
PHANTOM
100
AcDbCircle
 10
1154.882075999998
 20
147.9
 30
0.0
 40
11.0
100
AcDbArc
 50
146.9442689999999
 51
30.75150199999999
  0
ARC
  5
11436
330
110C9
100
AcDbEntity
  8
5
  6
PHANTOM
100
AcDbCircle
 10
1162.882075999998
 20
136.8999999999997
 30
0.0
 40
3.0
100
AcDbArc
 50
270.0
 51
0.0
  0
LINE
  5
11437
330
110C9
100
AcDbEntity
  8
5
  6
PHANTOM
100
AcDbLine
 10
1143.882075999999
 20
153.9
 30
0.0
 11
1162.882075999998
 21
153.9
 31
0.0
  0
LINE
  5
11438
330
110C9
100
AcDbEntity
  8
4
  6
CENTER
100
AcDbLine
 10
1141.117927999999
 20
147.9
 30
0.0
 11
1168.802443
 21
147.9
 31
0.0
  0
ARC
  5
11439
330
110C9
100
AcDbEntity
  8
5
  6
PHANTOM
100
AcDbCircle
 10
1154.882075999998
 20
147.9
 30
0.0
 40
11.0
100
AcDbArc
 50
30.75150199999999
 51
146.9442689999999
  0
LINE
  5
1143A
330
110C9
100
AcDbEntity
  8
5
  6
PHANTOM
100
AcDbLine
 10
1143.882075999999
 20
153.9
 30
0.0
 11
1143.882075999999
 21
155.4999999999998
 31
0.0
  0
ARC
  5
1143B
330
110C9
100
AcDbEntity
  8
5
  6
PHANTOM
100
AcDbCircle
 10
1162.882075999998
 20
150.9
 30
0.0
 40
3.0
100
AcDbArc
 50
0.0
 51
90.0
  0
ENDSEC
  0
SECTION
  2
OBJECTS
  0
DICTIONARY
  5
110B7
330
0
100
AcDbDictionary
281
     1
  3
ACAD_CIP_PREVIOUS_PRODUCT_INFO
350
1149B
  3
ACAD_COLOR
350
1147D
  3
ACAD_DETAILVIEWSTYLE
350
11496
  3
ACAD_GROUP
350
110B8
  3
ACAD_LAYOUT
350
110C4
  3
ACAD_MATERIAL
350
1144B
  3
ACAD_MLEADERSTYLE
350
11492
  3
ACAD_MLINESTYLE
350
110C1
  3
ACAD_PLOTSETTINGS
350
110C3
  3
ACAD_PLOTSTYLENAME
350
11449
  3
ACAD_SCALELIST
350
11480
  3
ACAD_SECTIONVIEWSTYLE
350
11494
  3
ACAD_TABLESTYLE
350
1147E
  3
ACAD_VISUALSTYLE
350
11464
  3
ACDB_RECOMPOSE_DATA
350
114B9
  3
AcDbVariableDictionary
350
114AC
  3
DWGPROPS
350
114BA
  0
DICTIONARY
  5
1149C
330
110BB
100
AcDbDictionary
280
     1
281
     1
  3
ADSK_XREC_LAYER_RECONCILED
360
1149D
  0
DICTIONARY
  5
1149E
330
110D1
100
AcDbDictionary
280
     1
281
     1
  3
ADSK_XREC_LAYER_RECONCILED
360
1149F
  0
DICTIONARY
  5
114A0
330
110D2
100
AcDbDictionary
280
     1
281
     1
  3
ADSK_XREC_LAYER_RECONCILED
360
114A1
  0
DICTIONARY
  5
114A2
330
110D3
100
AcDbDictionary
280
     1
281
     1
  3
ADSK_XREC_LAYER_RECONCILED
360
114A3
  0
DICTIONARY
  5
114A4
330
110D4
100
AcDbDictionary
280
     1
281
     1
  3
ADSK_XREC_LAYER_RECONCILED
360
114A5
  0
DICTIONARY
  5
114A6
330
110D5
100
AcDbDictionary
280
     1
281
     1
  3
ADSK_XREC_LAYER_RECONCILED
360
114A7
  0
DICTIONARY
  5
114A8
330
110D6
100
AcDbDictionary
280
     1
281
     1
  3
ADSK_XREC_LAYER_RECONCILED
360
114A9
  0
DICTIONARY
  5
114AA
330
110D7
100
AcDbDictionary
280
     1
281
     1
  3
ADSK_XREC_LAYER_RECONCILED
360
114AB
  0
DICTIONARY
  5
11444
330
110C9
100
AcDbDictionary
281
     1
  3
ACAD_LAYOUTSELFREF
350
11445
  0
DICTIONARY
  5
11442
330
110C5
100
AcDbDictionary
281
     1
  3
ACAD_LAYOUTSELFREF
350
11443
  0
XRECORD
  5
1149B
102
{ACAD_REACTORS
330
110B7
102
}
330
110B7
100
AcDbXrecord
280
     1
300
ACDLT
300
2014
300
ACDLT_F_S
  0
DICTIONARY
  5
1147D
102
{ACAD_REACTORS
330
110B7
102
}
330
110B7
100
AcDbDictionary
281
     1
  0
DICTIONARY
  5
11496
102
{ACAD_REACTORS
330
110B7
102
}
330
110B7
100
AcDbDictionary
281
     1
  3
Imperial24
350
11497
  0
DICTIONARY
  5
110B8
102
{ACAD_REACTORS
330
110B7
102
}
330
110B7
100
AcDbDictionary
281
     1
  0
DICTIONARY
  5
110C4
102
{ACAD_REACTORS
330
110B7
102
}
330
110B7
100
AcDbDictionary
281
     1
  3
Model
350
11498
  3
レイアウト1
350
11499
  0
DICTIONARY
  5
1144B
102
{ACAD_REACTORS
330
110B7
102
}
330
110B7
100
AcDbDictionary
281
     1
  3
ByBlock
350
11454
  3
ByLayer
350
1144C
  3
Global
350
1145C
  0
DICTIONARY
  5
11492
102
{ACAD_REACTORS
330
110B7
102
}
330
110B7
100
AcDbDictionary
281
     1
  3
Standard
350
11493
  0
DICTIONARY
  5
110C1
102
{ACAD_REACTORS
330
110B7
102
}
330
110B7
100
AcDbDictionary
281
     1
  3
STANDARD
350
110C2
  0
DICTIONARY
  5
110C3
102
{ACAD_REACTORS
330
110B7
102
}
330
110B7
100
AcDbDictionary
281
     1
  0
ACDBDICTIONARYWDFLT
  5
11449
102
{ACAD_REACTORS
330
110B7
102
}
330
110B7
100
AcDbDictionary
281
     1
  3
Normal
350
1144A
100
AcDbDictionaryWithDefault
340
1144A
  0
DICTIONARY
  5
11480
102
{ACAD_REACTORS
330
110B7
102
}
330
110B7
100
AcDbDictionary
281
     1
  3
A0
350
11481
  3
A1
350
11482
  3
A2
350
11483
  3
A3
350
11484
  3
A4
350
11485
  3
A5
350
11486
  3
A6
350
11487
  3
A7
350
11488
  3
A8
350
11489
  3
A9
350
1148A
  3
B0
350
1148B
  3
B1
350
1148C
  3
B2
350
1148D
  3
B3
350
1148E
  3
B4
350
1148F
  3
B5
350
11490
  3
B6
350
11491
  0
DICTIONARY
  5
11494
102
{ACAD_REACTORS
330
110B7
102
}
330
110B7
100
AcDbDictionary
281
     1
  3
Imperial24
350
11495
  0
DICTIONARY
  5
1147E
102
{ACAD_REACTORS
330
110B7
102
}
330
110B7
100
AcDbDictionary
281
     1
  3
Standard
350
1147F
  0
DICTIONARY
  5
11464
102
{ACAD_REACTORS
330
110B7
102
}
330
110B7
100
AcDbDictionary
281
     1
  3
2dWireframe
350
1146A
  3
Basic
350
11469
  3
Brighten
350
11470
  3
ColorChange
350
11474
  3
Conceptual
350
1146D
  3
Dim
350
1146F
  3
EdgeColorOff
350
1147C
  3
Facepattern
350
11473
  3
Flat
350
11465
  3
FlatWithEdges
350
11466
  3
Gouraud
350
11467
  3
GouraudWithEdges
350
11468
  3
Hidden
350
1146C
  3
JitterOff
350
1147A
  3
Linepattern
350
11472
  3
OverhangOff
350
1147B
  3
Realistic
350
1146E
  3
Shaded
350
11479
  3
Shaded with edges
350
11478
  3
Shades of Gray
350
11475
  3
Sketchy
350
11476
  3
Thicken
350
11471
  3
Wireframe
350
1146B
  3
X-Ray
350
11477
  0
XRECORD
  5
114B9
102
{ACAD_REACTORS
330
110B7
102
}
330
110B7
100
AcDbXrecord
280
     1
 90
        1
330
1147F
  0
DICTIONARY
  5
114AC
102
{ACAD_REACTORS
330
110B7
102
}
330
110B7
100
AcDbDictionary
281
     1
  3
CANNOSCALE
350
114B1
  3
CMLEADERSTYLE
350
114AE
  3
CTABLESTYLE
350
114AD
  3
CVIEWDETAILSTYLE
350
114AF
  3
CVIEWSECTIONSTYLE
350
114B0
  3
DIMASSOC
350
114B4
  3
INDEXCTL
350
114B3
  3
SORTENTS
350
114B2
  3
XCLIPFRAME
350
114B5
  0
XRECORD
  5
114BA
102
{ACAD_REACTORS
330
110B7
102
}
330
110B7
100
AcDbXrecord
280
     1
  1
DWGPROPS COOKIE
  2

  3

  4

  6

  7

  8
Yoshitsune
  9

300
=
301
=
302
=
303
=
304
=
305
=
306
=
307
=
308
=
309
=
 40
0.0000120949074074
 41
2451233.437258334
 42
2457192.665338426
  1

 90
        0
  0
XRECORD
  5
1149D
102
{ACAD_REACTORS
330
1149C
102
}
330
1149C
100
AcDbXrecord
280
     1
290
     1
  0
XRECORD
  5
1149F
102
{ACAD_REACTORS
330
1149E
102
}
330
1149E
100
AcDbXrecord
280
     1
290
     1
  0
XRECORD
  5
114A1
102
{ACAD_REACTORS
330
114A0
102
}
330
114A0
100
AcDbXrecord
280
     1
290
     1
  0
XRECORD
  5
114A3
102
{ACAD_REACTORS
330
114A2
102
}
330
114A2
100
AcDbXrecord
280
     1
290
     1
  0
XRECORD
  5
114A5
102
{ACAD_REACTORS
330
114A4
102
}
330
114A4
100
AcDbXrecord
280
     1
290
     1
  0
XRECORD
  5
114A7
102
{ACAD_REACTORS
330
114A6
102
}
330
114A6
100
AcDbXrecord
280
     1
290
     1
  0
XRECORD
  5
114A9
102
{ACAD_REACTORS
330
114A8
102
}
330
114A8
100
AcDbXrecord
280
     1
290
     1
  0
XRECORD
  5
114AB
102
{ACAD_REACTORS
330
114AA
102
}
330
114AA
100
AcDbXrecord
280
     1
290
     1
  0
XRECORD
  5
11445
102
{ACAD_REACTORS
330
11444
102
}
330
11444
100
AcDbXrecord
280
     1
340
110C9
  0
XRECORD
  5
11443
102
{ACAD_REACTORS
330
11442
102
}
330
11442
100
AcDbXrecord
280
     1
340
110C5
  0
ACDBDETAILVIEWSTYLE
  5
11497
102
{ACAD_XDICTIONARY
360
114F2
102
}
102
{ACAD_REACTORS
330
11496
102
}
330
11496
100
AcDbModelDocViewStyle
 70
     0
  3
Imperial24
290
     0
100
AcDbDetailViewStyle
 70
     0
 71
     0
 90
        3
 71
     1
340
110BC
 40
0.24
340
0
 40
0.24
300

 40
0.36
280
     3
 71
     2
340
110C0
 90
       25
 71
     3
340
110BC
 40
0.24
 90
        1
 40
0.75
 90
        1
300
%<\AcVar ViewType \f "%tc1">% %<\AcVar ViewDetailId>%\PSCALE %<\AcVar ViewScale \f "%sn">%
 71
     4
340
110C0
 90
       25
340
110C0
 90
       25
280
     0
  0
LAYOUT
  5
11498
102
{ACAD_XDICTIONARY
360
114F4
102
}
102
{ACAD_REACTORS
330
110C4
102
}
330
110C4
100
AcDbPlotSettings
  1

  2
Canon LBP9100C
  4

  6

 40
0.0
 41
0.0
 42
0.0
 43
0.0
 44
0.0
 45
0.0
 46
0.0
 47
0.0
 48
0.0
 49
0.0
140
0.0
141
0.0
142
1.0
143
1.0
 70
  1712
 72
     0
 73
     0
 74
     0
  7

 75
     0
147
1.0
148
0.0
149
0.0
100
AcDbLayout
  1
Model
 70
     1
 71
     0
 10
0.0
 20
0.0
 11
12.0
 21
9.0
 12
0.0
 22
0.0
 32
0.0
 14
0.0
 24
0.0
 34
0.0
 15
0.0
 25
0.0
 35
0.0
146
0.0
 13
0.0
 23
0.0
 33
0.0
 16
1.0
 26
0.0
 36
0.0
 17
0.0
 27
1.0
 37
0.0
 76
     0
330
110C9
331
11441
  0
LAYOUT
  5
11499
102
{ACAD_XDICTIONARY
360
114F6
102
}
102
{ACAD_REACTORS
330
110C4
102
}
330
110C4
100
AcDbPlotSettings
  1

  2
Canon LBP9100C
  4

  6

 40
0.0
 41
0.0
 42
0.0
 43
0.0
 44
0.0
 45
0.0
 46
0.0
 47
0.0
 48
0.0
 49
0.0
140
0.0
141
0.0
142
1.0
143
1.0
 70
   688
 72
     0
 73
     0
 74
     5
  7

 75
    16
147
1.0
148
0.0
149
0.0
100
AcDbLayout
  1
レイアウト1
 70
     0
 71
     1
 10
0.0
 20
0.0
 11
420.0
 21
297.0
 12
0.0
 22
0.0
 32
0.0
 14
1.000000000000000E+20
 24
1.000000000000000E+20
 34
1.000000000000000E+20
 15
-1.000000000000000E+20
 25
-1.000000000000000E+20
 35
-1.000000000000000E+20
146
0.0
 13
0.0
 23
0.0
 33
0.0
 16
1.0
 26
0.0
 36
0.0
 17
0.0
 27
1.0
 37
0.0
 76
     0
330
110C5
  0
MATERIAL
  5
11454
102
{ACAD_XDICTIONARY
360
11455
102
}
102
{ACAD_REACTORS
330
1144B
102
}
330
1144B
100
AcDbMaterial
  1
ByBlock
 72
     0
 43
0.0208333333333333
 43
0.0
 43
0.0
 43
0.0
 43
0.0
 43
0.0208333333333333
 43
0.0
 43
0.0
 43
0.0
 43
0.0
 43
1.0
 43
0.0
 43
0.0
 43
0.0
 43
0.0
 43
1.0
 77
     0
 47
0.0208333333333333
 47
0.0
 47
0.0
 47
0.0
 47
0.0
 47
0.0208333333333333
 47
0.0
 47
0.0
 47
0.0
 47
0.0
 47
1.0
 47
0.0
 47
0.0
 47
0.0
 47
0.0
 47
1.0
171
     0
 49
0.0208333333333333
 49
0.0
 49
0.0
 49
0.0
 49
0.0
 49
0.0208333333333333
 49
0.0
 49
0.0
 49
0.0
 49
0.0
 49
1.0
 49
0.0
 49
0.0
 49
0.0
 49
0.0
 49
1.0
175
     0
142
0.0208333333333333
142
0.0
142
0.0
142
0.0
142
0.0
142
0.0208333333333333
142
0.0
142
0.0
142
0.0
142
0.0
142
1.0
142
0.0
142
0.0
142
0.0
142
0.0
142
1.0
179
     0
144
0.0208333333333333
144
0.0
144
0.0
144
0.0
144
0.0
144
0.0208333333333333
144
0.0
144
0.0
144
0.0
144
0.0
144
1.0
144
0.0
144
0.0
144
0.0
144
0.0
144
1.0
147
0.0208333333333333
147
0.0
147
0.0
147
0.0
147
0.0
147
0.0208333333333333
147
0.0
147
0.0
147
0.0
147
0.0
147
1.0
147
0.0
147
0.0
147
0.0
147
0.0
147
1.0
  0
MATERIAL
  5
1144C
102
{ACAD_XDICTIONARY
360
1144D
102
}
102
{ACAD_REACTORS
330
1144B
102
}
330
1144B
100
AcDbMaterial
  1
ByLayer
 72
     0
 43
0.0208333333333333
 43
0.0
 43
0.0
 43
0.0
 43
0.0
 43
0.0208333333333333
 43
0.0
 43
0.0
 43
0.0
 43
0.0
 43
1.0
 43
0.0
 43
0.0
 43
0.0
 43
0.0
 43
1.0
 77
     0
 47
0.0208333333333333
 47
0.0
 47
0.0
 47
0.0
 47
0.0
 47
0.0208333333333333
 47
0.0
 47
0.0
 47
0.0
 47
0.0
 47
1.0
 47
0.0
 47
0.0
 47
0.0
 47
0.0
 47
1.0
171
     0
 49
0.0208333333333333
 49
0.0
 49
0.0
 49
0.0
 49
0.0
 49
0.0208333333333333
 49
0.0
 49
0.0
 49
0.0
 49
0.0
 49
1.0
 49
0.0
 49
0.0
 49
0.0
 49
0.0
 49
1.0
175
     0
142
0.0208333333333333
142
0.0
142
0.0
142
0.0
142
0.0
142
0.0208333333333333
142
0.0
142
0.0
142
0.0
142
0.0
142
1.0
142
0.0
142
0.0
142
0.0
142
0.0
142
1.0
179
     0
144
0.0208333333333333
144
0.0
144
0.0
144
0.0
144
0.0
144
0.0208333333333333
144
0.0
144
0.0
144
0.0
144
0.0
144
1.0
144
0.0
144
0.0
144
0.0
144
0.0
144
1.0
147
0.0208333333333333
147
0.0
147
0.0
147
0.0
147
0.0
147
0.0208333333333333
147
0.0
147
0.0
147
0.0
147
0.0
147
1.0
147
0.0
147
0.0
147
0.0
147
0.0
147
1.0
  0
MATERIAL
  5
1145C
102
{ACAD_XDICTIONARY
360
1145D
102
}
102
{ACAD_REACTORS
330
1144B
102
}
330
1144B
100
AcDbMaterial
  1
Global
 72
     0
 43
0.0208333333333333
 43
0.0
 43
0.0
 43
0.0
 43
0.0
 43
0.0208333333333333
 43
0.0
 43
0.0
 43
0.0
 43
0.0
 43
1.0
 43
0.0
 43
0.0
 43
0.0
 43
0.0
 43
1.0
 77
     0
 47
0.0208333333333333
 47
0.0
 47
0.0
 47
0.0
 47
0.0
 47
0.0208333333333333
 47
0.0
 47
0.0
 47
0.0
 47
0.0
 47
1.0
 47
0.0
 47
0.0
 47
0.0
 47
0.0
 47
1.0
171
     0
 49
0.0208333333333333
 49
0.0
 49
0.0
 49
0.0
 49
0.0
 49
0.0208333333333333
 49
0.0
 49
0.0
 49
0.0
 49
0.0
 49
1.0
 49
0.0
 49
0.0
 49
0.0
 49
0.0
 49
1.0
175
     0
142
0.0208333333333333
142
0.0
142
0.0
142
0.0
142
0.0
142
0.0208333333333333
142
0.0
142
0.0
142
0.0
142
0.0
142
1.0
142
0.0
142
0.0
142
0.0
142
0.0
142
1.0
179
     0
144
0.0208333333333333
144
0.0
144
0.0
144
0.0
144
0.0
144
0.0208333333333333
144
0.0
144
0.0
144
0.0
144
0.0
144
1.0
144
0.0
144
0.0
144
0.0
144
0.0
144
1.0
147
0.0208333333333333
147
0.0
147
0.0
147
0.0
147
0.0
147
0.0208333333333333
147
0.0
147
0.0
147
0.0
147
0.0
147
1.0
147
0.0
147
0.0
147
0.0
147
0.0
147
1.0
  0
MLEADERSTYLE
  5
11493
102
{ACAD_REACTORS
330
11492
102
}
330
11492
100
AcDbMLeaderStyle
170
     2
171
     1
172
     0
 90
        2
 40
0.0
 41
0.0
173
     1
 91
-1056964608
340
110BE
 92
       -2
290
     1
 42
0.09
291
     1
 43
0.36
  3
Standard
 44
0.18
300

342
110BC
174
     1
178
     6
175
     1
176
     0
 93
-1056964608
 45
0.18
292
     0
297
     0
 46
0.18
 94
-1056964608
 47
1.0
 49
1.0
140
1.0
293
     1
141
0.0
294
     1
177
     0
142
1.0
295
     0
296
     0
143
0.125
1001
ACAD_MLEADERVER
1070
     2
  0
MLINESTYLE
  5
110C2
102
{ACAD_REACTORS
330
110C1
102
}
330
110C1
100
AcDbMlineStyle
  2
STANDARD
 70
     0
  3

 62
   256
 51
90.0
 52
90.0
 71
     2
 49
0.5
 62
   256
  6
BYLAYER
 49
-0.5
 62
   256
  6
BYLAYER
  0
ACDBPLACEHOLDER
  5
1144A
102
{ACAD_REACTORS
330
11449
102
}
330
11449
  0
SCALE
  5
11481
102
{ACAD_REACTORS
330
11480
102
}
330
11480
100
AcDbScale
 70
     0
300
1:1
140
1.0
141
1.0
290
     1
  0
SCALE
  5
11482
102
{ACAD_REACTORS
330
11480
102
}
330
11480
100
AcDbScale
 70
     0
300
1/128" = 1'-0"
140
0.0078125
141
12.0
290
     0
  0
SCALE
  5
11483
102
{ACAD_REACTORS
330
11480
102
}
330
11480
100
AcDbScale
 70
     0
300
1/64" = 1'-0"
140
0.015625
141
12.0
290
     0
  0
SCALE
  5
11484
102
{ACAD_REACTORS
330
11480
102
}
330
11480
100
AcDbScale
 70
     0
300
1/32" = 1'-0"
140
0.03125
141
12.0
290
     0
  0
SCALE
  5
11485
102
{ACAD_REACTORS
330
11480
102
}
330
11480
100
AcDbScale
 70
     0
300
1/16" = 1'-0"
140
0.0625
141
12.0
290
     0
  0
SCALE
  5
11486
102
{ACAD_REACTORS
330
11480
102
}
330
11480
100
AcDbScale
 70
     0
300
3/32" = 1'-0"
140
0.09375
141
12.0
290
     0
  0
SCALE
  5
11487
102
{ACAD_REACTORS
330
11480
102
}
330
11480
100
AcDbScale
 70
     0
300
1/8" = 1'-0"
140
0.125
141
12.0
290
     0
  0
SCALE
  5
11488
102
{ACAD_REACTORS
330
11480
102
}
330
11480
100
AcDbScale
 70
     0
300
3/16" = 1'-0"
140
0.1875
141
12.0
290
     0
  0
SCALE
  5
11489
102
{ACAD_REACTORS
330
11480
102
}
330
11480
100
AcDbScale
 70
     0
300
1/4" = 1'-0"
140
0.25
141
12.0
290
     0
  0
SCALE
  5
1148A
102
{ACAD_REACTORS
330
11480
102
}
330
11480
100
AcDbScale
 70
     0
300
3/8" = 1'-0"
140
0.375
141
12.0
290
     0
  0
SCALE
  5
1148B
102
{ACAD_REACTORS
330
11480
102
}
330
11480
100
AcDbScale
 70
     0
300
1/2" = 1'-0"
140
0.5
141
12.0
290
     0
  0
SCALE
  5
1148C
102
{ACAD_REACTORS
330
11480
102
}
330
11480
100
AcDbScale
 70
     0
300
3/4" = 1'-0"
140
0.75
141
12.0
290
     0
  0
SCALE
  5
1148D
102
{ACAD_REACTORS
330
11480
102
}
330
11480
100
AcDbScale
 70
     0
300
1" = 1'-0"
140
1.0
141
12.0
290
     0
  0
SCALE
  5
1148E
102
{ACAD_REACTORS
330
11480
102
}
330
11480
100
AcDbScale
 70
     0
300
1-1/2" = 1'-0"
140
1.5
141
12.0
290
     0
  0
SCALE
  5
1148F
102
{ACAD_REACTORS
330
11480
102
}
330
11480
100
AcDbScale
 70
     0
300
3" = 1'-0"
140
3.0
141
12.0
290
     0
  0
SCALE
  5
11490
102
{ACAD_REACTORS
330
11480
102
}
330
11480
100
AcDbScale
 70
     0
300
6" = 1'-0"
140
6.0
141
12.0
290
     0
  0
SCALE
  5
11491
102
{ACAD_REACTORS
330
11480
102
}
330
11480
100
AcDbScale
 70
     0
300
1'-0" = 1'-0"
140
12.0
141
12.0
290
     0
  0
ACDBSECTIONVIEWSTYLE
  5
11495
102
{ACAD_XDICTIONARY
360
114F0
102
}
102
{ACAD_REACTORS
330
11494
102
}
330
11494
100
AcDbModelDocViewStyle
 70
     0
  3
Imperial24
290
     0
100
AcDbSectionViewStyle
 70
     0
 71
     0
 90
       78
 71
     1
340
110BC
 40
0.24
340
0
340
0
 40
0.24
300
I, O, Q, S, X, Z
 40
0.48
 90
        3
 40
0.18
 90
        1
 71
     2
340
110C0
 90
       25
340
110C0
 90
       50
 40
0.24
 40
0.0
 40
0.24
 71
     3
340
110BC
 40
0.24
 90
        1
 40
0.75
 90
        1
300
%<\AcVar ViewType \f "%tc1">% %<\AcVar ViewSectionStartId>%-%<\AcVar ViewSectionEndId>%\PSCALE %<\AcVar ViewScale \f "%sn">%
 71
     4
300
ANSI31
 40
1.0
 90
        0
290
     0
290
     0
 90
        6
 40
0.0
 40
1.570796326794896
 40
0.2617993877991494
 40
1.308996938995747
 40
-0.2617993877991494
 40
1.832595714594046
  0
TABLESTYLE
  5
1147F
102
{ACAD_XDICTIONARY
360
114B7
102
}
102
{ACAD_REACTORS
330
1147E
102
}
330
1147E
100
AcDbTableStyle
  3
Standard
 70
     0
 71
     0
 40
0.06
 41
0.06
280
     0
281
     0
  7
STANDARD
140
0.18
170
     2
 62
     0
 63
     7
283
     0
274
    -2
284
     1
 64
     0
275
    -2
285
     1
 65
     0
276
    -2
286
     1
 66
     0
277
    -2
287
     1
 67
     0
278
    -2
288
     1
 68
     0
279
    -2
289
     1
 69
     0
  7
STANDARD
140
0.25
170
     5
 62
     0
 63
     7
283
     0
274
    -2
284
     1
 64
     0
275
    -2
285
     1
 65
     0
276
    -2
286
     1
 66
     0
277
    -2
287
     1
 67
     0
278
    -2
288
     1
 68
     0
279
    -2
289
     1
 69
     0
  7
STANDARD
140
0.18
170
     5
 62
     0
 63
     7
283
     0
274
    -2
284
     1
 64
     0
275
    -2
285
     1
 65
     0
276
    -2
286
     1
 66
     0
277
    -2
287
     1
 67
     0
278
    -2
288
     1
 68
     0
279
    -2
289
     1
 69
     0
  0
VISUALSTYLE
  5
1146A
102
{ACAD_XDICTIONARY
360
114C8
102
}
102
{ACAD_REACTORS
330
11464
102
}
330
11464
100
AcDbVisualStyle
  2
2dWireframe
 70
     4
 71
     0
 72
     2
 73
     0
 90
        0
 40
-0.6
 41
-30.0
 62
     5
 63
     7
 74
     1
 91
        4
 64
     7
 65
   257
 75
     1
175
     1
 42
1.0
 92
        0
 66
   257
 43
1.0
 76
     1
 77
     6
 78
     2
 67
     7
 79
     5
170
     0
171
     0
290
     0
174
     0
 93
        1
 44
0.0
173
     0
291
     0
 45
0.0
1001
ACAD
1000
AcDbSavedByObjectVersion
1070
     0
  0
VISUALSTYLE
  5
11469
102
{ACAD_XDICTIONARY
360
114C6
102
}
102
{ACAD_REACTORS
330
11464
102
}
330
11464
100
AcDbVisualStyle
  2
Basic
 70
     7
 71
     1
 72
     0
 73
     1
 90
        0
 40
-0.6
 41
-30.0
 62
     5
 63
     7
 74
     0
 91
        4
 64
     7
 65
   257
 75
     1
175
     1
 42
1.0
 92
        8
 66
     7
 43
1.0
 76
     1
 77
     6
 78
     2
 67
     7
 79
     5
170
     0
171
     0
290
     0
174
     0
 93
        1
 44
0.0
173
     0
291
     1
 45
0.0
1001
ACAD
1000
AcDbSavedByObjectVersion
1070
     0
  0
VISUALSTYLE
  5
11470
102
{ACAD_XDICTIONARY
360
114D4
102
}
102
{ACAD_REACTORS
330
11464
102
}
330
11464
100
AcDbVisualStyle
  2
Brighten
 70
    12
 71
     2
 72
     2
 73
     0
 90
        0
 40
-0.6
 41
-30.0
 62
     5
 63
     7
 74
     1
 91
        4
 64
     7
 65
   257
 75
     1
175
     1
 42
1.0
 92
        8
 66
     7
 43
1.0
 76
     1
 77
     6
 78
     2
 67
     7
 79
     5
170
     0
171
     0
290
     0
174
     0
 93
        1
 44
50.0
173
     0
291
     1
 45
0.0
1001
ACAD
1000
AcDbSavedByObjectVersion
1070
     0
  0
VISUALSTYLE
  5
11474
102
{ACAD_XDICTIONARY
360
114DC
102
}
102
{ACAD_REACTORS
330
11464
102
}
330
11464
100
AcDbVisualStyle
  2
ColorChange
 70
    16
 71
     2
 72
     2
 73
     3
 90
        0
 40
-0.6
 41
-30.0
 62
     5
 63
     8
 74
     1
 91
        4
 64
     7
 65
   257
 75
     1
175
     1
 42
1.0
 92
        8
 66
     8
 43
1.0
 76
     1
 77
     6
 78
     2
 67
     7
 79
     5
170
     0
171
     0
290
     0
174
     0
 93
        1
 44
0.0
173
     0
291
     1
 45
0.0
1001
ACAD
1000
AcDbSavedByObjectVersion
1070
     0
  0
VISUALSTYLE
  5
1146D
102
{ACAD_XDICTIONARY
360
114CE
102
}
102
{ACAD_REACTORS
330
11464
102
}
330
11464
100
AcDbVisualStyle
  2
Conceptual
 70
     9
 71
     3
 72
     2
 73
     0
 90
        0
 40
-0.6
 41
-30.0
 62
     5
 63
     7
 74
     2
 91
        2
 64
     7
 65
   257
 75
     1
175
     1
 42
179.0
 92
        8
 66
     7
 43
1.0
 76
     1
 77
     6
 78
     2
 67
     7
 79
     3
170
     0
171
     0
290
     0
174
     0
 93
        1
 44
0.0
173
     0
291
     0
 45
0.0
1001
ACAD
1000
AcDbSavedByObjectVersion
1070
     0
  0
VISUALSTYLE
  5
1146F
102
{ACAD_XDICTIONARY
360
114D2
102
}
102
{ACAD_REACTORS
330
11464
102
}
330
11464
100
AcDbVisualStyle
  2
Dim
 70
    11
 71
     2
 72
     2
 73
     0
 90
        0
 40
-0.6
 41
-30.0
 62
     5
 63
     7
 74
     1
 91
        4
 64
     7
 65
   257
 75
     1
175
     1
 42
1.0
 92
        8
 66
     7
 43
1.0
 76
     1
 77
     6
 78
     2
 67
     7
 79
     5
170
     0
171
     0
290
     0
174
     0
 93
        1
 44
-50.0
173
     0
291
     1
 45
0.0
1001
ACAD
1000
AcDbSavedByObjectVersion
1070
     0
  0
VISUALSTYLE
  5
1147C
102
{ACAD_XDICTIONARY
360
114EC
102
}
102
{ACAD_REACTORS
330
11464
102
}
330
11464
100
AcDbVisualStyle
  2
EdgeColorOff
 70
    22
 71
     2
 72
     2
 73
     0
 90
        0
 40
-0.6
 41
-30.0
 62
     5
 63
     7
 74
     1
 91
        4
 64
     7
 65
   257
 75
     1
175
     1
 42
1.0
 92
        8
 66
     7
 43
1.0
 76
     1
 77
     6
 78
     2
 67
     7
 79
     5
170
     0
171
     0
290
     0
174
     0
 93
        1
 44
0.0
173
     0
291
     1
 45
0.0
1001
ACAD
1000
AcDbSavedByObjectVersion
1070
     0
  0
VISUALSTYLE
  5
11473
102
{ACAD_XDICTIONARY
360
114DA
102
}
102
{ACAD_REACTORS
330
11464
102
}
330
11464
100
AcDbVisualStyle
  2
Facepattern
 70
    15
 71
     2
 72
     2
 73
     0
 90
        0
 40
-0.6
 41
-30.0
 62
     5
 63
     7
 74
     1
 91
        4
 64
     7
 65
   257
 75
     1
175
     1
 42
1.0
 92
        8
 66
     7
 43
1.0
 76
     1
 77
     6
 78
     2
 67
     7
 79
     5
170
     0
171
     0
290
     0
174
     0
 93
        1
 44
0.0
173
     0
291
     1
 45
0.0
1001
ACAD
1000
AcDbSavedByObjectVersion
1070
     0
  0
VISUALSTYLE
  5
11465
102
{ACAD_XDICTIONARY
360
114BE
102
}
102
{ACAD_REACTORS
330
11464
102
}
330
11464
100
AcDbVisualStyle
  2
Flat
 70
     0
 71
     2
 72
     1
 73
     1
 90
        2
 40
-0.6
 41
30.0
 62
     5
 63
     7
 74
     0
 91
        0
 64
     7
 65
   257
 75
     1
175
     1
 42
1.0
 92
        8
 66
     7
 43
1.0
 76
     1
 77
     6
 78
     2
 67
     7
 79
     5
170
     0
171
     0
290
     0
174
     0
 93
       13
 44
0.0
173
     0
291
     1
 45
0.0
1001
ACAD
1000
AcDbSavedByObjectVersion
1070
     0
  0
VISUALSTYLE
  5
11466
102
{ACAD_XDICTIONARY
360
114C0
102
}
102
{ACAD_REACTORS
330
11464
102
}
330
11464
100
AcDbVisualStyle
  2
FlatWithEdges
 70
     1
 71
     2
 72
     1
 73
     1
 90
        2
 40
-0.6
 41
30.0
 62
     5
 63
     7
 74
     1
 91
        0
 64
     7
 65
   257
 75
     1
175
     1
 42
1.0
 92
        0
 66
   257
 43
1.0
 76
     1
 77
     6
 78
     2
 67
     7
 79
     5
170
     0
171
     0
290
     0
174
     0
 93
       13
 44
0.0
173
     0
291
     1
 45
0.0
1001
ACAD
1000
AcDbSavedByObjectVersion
1070
     0
  0
VISUALSTYLE
  5
11467
102
{ACAD_XDICTIONARY
360
114C2
102
}
102
{ACAD_REACTORS
330
11464
102
}
330
11464
100
AcDbVisualStyle
  2
Gouraud
 70
     2
 71
     2
 72
     2
 73
     1
 90
        2
 40
-0.6
 41
30.0
 62
     5
 63
     7
 74
     0
 91
        0
 64
     7
 65
   257
 75
     1
175
     1
 42
1.0
 92
        0
 66
     7
 43
1.0
 76
     1
 77
     6
 78
     2
 67
     7
 79
     5
170
     0
171
     0
290
     0
174
     0
 93
       13
 44
0.0
173
     0
291
     1
 45
0.0
1001
ACAD
1000
AcDbSavedByObjectVersion
1070
     0
  0
VISUALSTYLE
  5
11468
102
{ACAD_XDICTIONARY
360
114C4
102
}
102
{ACAD_REACTORS
330
11464
102
}
330
11464
100
AcDbVisualStyle
  2
GouraudWithEdges
 70
     3
 71
     2
 72
     2
 73
     1
 90
        2
 40
-0.6
 41
30.0
 62
     5
 63
     7
 74
     1
 91
        0
 64
     7
 65
   257
 75
     1
175
     1
 42
1.0
 92
        0
 66
   257
 43
1.0
 76
     1
 77
     6
 78
     2
 67
     7
 79
     5
170
     0
171
     0
290
     0
174
     0
 93
       13
 44
0.0
173
     0
291
     1
 45
0.0
1001
ACAD
1000
AcDbSavedByObjectVersion
1070
     0
  0
VISUALSTYLE
  5
1146C
102
{ACAD_XDICTIONARY
360
114CC
102
}
102
{ACAD_REACTORS
330
11464
102
}
330
11464
100
AcDbVisualStyle
  2
Hidden
 70
     6
 71
     1
 72
     2
 73
     2
 90
        0
 40
-0.6
 41
-30.0
 62
     5
 63
     7
 74
     2
 91
        2
 64
     7
 65
   257
 75
     2
175
     1
 42
40.0
 92
        0
 66
   257
 43
1.0
 76
     1
 77
     6
 78
     2
 67
     7
 79
     3
170
     0
171
     0
290
     0
174
     0
 93
        1
 44
0.0
173
     0
291
     0
 45
0.0
1001
ACAD
1000
AcDbSavedByObjectVersion
1070
     0
  0
VISUALSTYLE
  5
1147A
102
{ACAD_XDICTIONARY
360
114E8
102
}
102
{ACAD_REACTORS
330
11464
102
}
330
11464
100
AcDbVisualStyle
  2
JitterOff
 70
    20
 71
     2
 72
     2
 73
     0
 90
        0
 40
-0.6
 41
-30.0
 62
     5
 63
     7
 74
     1
 91
        4
 64
     7
 65
   257
 75
     1
175
     1
 42
1.0
 92
       10
 66
     7
 43
1.0
 76
     1
 77
     6
 78
     2
 67
     7
 79
     5
170
     0
171
     0
290
     0
174
     0
 93
        1
 44
0.0
173
     0
291
     1
 45
0.0
1001
ACAD
1000
AcDbSavedByObjectVersion
1070
     0
  0
VISUALSTYLE
  5
11472
102
{ACAD_XDICTIONARY
360
114D8
102
}
102
{ACAD_REACTORS
330
11464
102
}
330
11464
100
AcDbVisualStyle
  2
Linepattern
 70
    14
 71
     2
 72
     2
 73
     0
 90
        0
 40
-0.6
 41
-30.0
 62
     5
 63
     7
 74
     1
 91
        4
 64
     7
 65
   257
 75
     7
175
     7
 42
1.0
 92
        8
 66
     7
 43
1.0
 76
     1
 77
     6
 78
     2
 67
     7
 79
     5
170
     0
171
     0
290
     0
174
     0
 93
        1
 44
0.0
173
     0
291
     1
 45
0.0
1001
ACAD
1000
AcDbSavedByObjectVersion
1070
     0
  0
VISUALSTYLE
  5
1147B
102
{ACAD_XDICTIONARY
360
114EA
102
}
102
{ACAD_REACTORS
330
11464
102
}
330
11464
100
AcDbVisualStyle
  2
OverhangOff
 70
    21
 71
     2
 72
     2
 73
     0
 90
        0
 40
-0.6
 41
-30.0
 62
     5
 63
     7
 74
     1
 91
        4
 64
     7
 65
   257
 75
     1
175
     1
 42
1.0
 92
        9
 66
     7
 43
1.0
 76
     1
 77
     6
 78
     2
 67
     7
 79
     5
170
     0
171
     0
290
     0
174
     0
 93
        1
 44
0.0
173
     0
291
     1
 45
0.0
1001
ACAD
1000
AcDbSavedByObjectVersion
1070
     0
  0
VISUALSTYLE
  5
1146E
102
{ACAD_XDICTIONARY
360
114D0
102
}
102
{ACAD_REACTORS
330
11464
102
}
330
11464
100
AcDbVisualStyle
  2
Realistic
 70
     8
 71
     2
 72
     3
 73
     0
 90
        2
 40
-0.6
 41
30.0
 62
     5
 63
     7
 74
     0
 91
        0
 64
     7
 65
   257
 75
     1
175
     1
 42
1.0
 92
        8
 66
   257
 43
1.0
 76
     1
 77
     6
 78
     2
 67
     7
 79
     3
170
     0
171
     0
290
     0
174
     0
 93
       13
 44
0.0
173
     0
291
     0
 45
0.0
1001
ACAD
1000
AcDbSavedByObjectVersion
1070
     0
  0
VISUALSTYLE
  5
11479
102
{ACAD_XDICTIONARY
360
114E6
102
}
102
{ACAD_REACTORS
330
11464
102
}
330
11464
100
AcDbVisualStyle
  2
Shaded
 70
    27
 71
     2
 72
     2
 73
     1
 90
        2
 40
-0.6
 41
30.0
 62
     5
 63
     7
 74
     0
 91
        4
 64
     7
 65
   257
 75
     1
175
     1
 42
1.0
 92
        8
 66
   257
 43
1.0
 76
     1
 77
     6
 78
     2
 67
     8
 79
     3
170
     0
171
     0
290
     0
174
     0
 93
        5
 44
0.0
173
     0
291
     0
 45
0.0
1001
ACAD
1000
AcDbSavedByObjectVersion
1070
     0
  0
VISUALSTYLE
  5
11478
102
{ACAD_XDICTIONARY
360
114E4
102
}
102
{ACAD_REACTORS
330
11464
102
}
330
11464
100
AcDbVisualStyle
  2
Shaded with edges
 70
    26
 71
     2
 72
     2
 73
     1
 90
        2
 40
-0.6
 41
30.0
 62
     5
 63
     7
 74
     1
 91
       10
 64
     7
 65
   257
 75
     2
175
     1
 42
1.0
 92
        8
 66
   257
 43
1.0
 76
     1
 77
     6
 78
     2
 67
     7
 79
     3
170
     0
171
     0
290
     0
174
     0
 93
        5
 44
0.0
173
     0
291
     0
 45
0.0
1001
ACAD
1000
AcDbSavedByObjectVersion
1070
     0
  0
VISUALSTYLE
  5
11475
102
{ACAD_XDICTIONARY
360
114DE
102
}
102
{ACAD_REACTORS
330
11464
102
}
330
11464
100
AcDbVisualStyle
  2
Shades of Gray
 70
    23
 71
     2
 72
     2
 73
     3
 90
        0
 40
-0.6
 41
-30.0
 62
     5
 63
     7
 74
     2
 91
        2
 64
     7
 65
     7
 75
     1
175
     1
 42
40.0
 92
        8
 66
     7
 43
1.0
 76
     1
 77
     6
 78
     2
 67
     7
 79
     3
170
     0
171
     0
290
     0
174
     0
 93
        1
 44
0.0
173
     0
291
     0
 45
0.0
1001
ACAD
1000
AcDbSavedByObjectVersion
1070
     0
  0
VISUALSTYLE
  5
11476
102
{ACAD_XDICTIONARY
360
114E0
102
}
102
{ACAD_REACTORS
330
11464
102
}
330
11464
100
AcDbVisualStyle
  2
Sketchy
 70
    24
 71
     1
 72
     2
 73
     2
 90
        0
 40
-0.6
 41
-30.0
 62
     5
 63
     7
 74
     2
 91
        2
 64
     7
 65
     7
 75
     1
175
     1
 42
40.0
 92
       11
 66
     7
 43
1.0
 76
     1
 77
     6
 78
     2
 67
     7
 79
     6
170
     0
171
     0
290
     0
174
     0
 93
        1
 44
0.0
173
     0
291
     0
 45
0.0
1001
ACAD
1000
AcDbSavedByObjectVersion
1070
     0
  0
VISUALSTYLE
  5
11471
102
{ACAD_XDICTIONARY
360
114D6
102
}
102
{ACAD_REACTORS
330
11464
102
}
330
11464
100
AcDbVisualStyle
  2
Thicken
 70
    13
 71
     2
 72
     2
 73
     0
 90
        0
 40
-0.6
 41
-30.0
 62
     5
 63
     7
 74
     1
 91
        4
 64
     7
 65
   257
 75
     1
175
     1
 42
1.0
 92
       12
 66
     7
 43
1.0
 76
     1
 77
     6
 78
     2
 67
     7
 79
     5
170
     0
171
     0
290
     0
174
     0
 93
        1
 44
0.0
173
     0
291
     1
 45
0.0
1001
ACAD
1000
AcDbSavedByObjectVersion
1070
     0
  0
VISUALSTYLE
  5
1146B
102
{ACAD_XDICTIONARY
360
114CA
102
}
102
{ACAD_REACTORS
330
11464
102
}
330
11464
100
AcDbVisualStyle
  2
Wireframe
 70
     5
 71
     0
 72
     2
 73
     0
 90
        0
 40
-0.6
 41
-30.0
 62
     5
 63
     7
 74
     1
 91
        4
 64
     7
 65
   257
 75
     1
175
     1
 42
1.0
 92
        0
 66
   257
 43
1.0
 76
     1
 77
     6
 78
     2
 67
     7
 79
     3
170
     0
171
     0
290
     0
174
     0
 93
        1
 44
0.0
173
     0
291
     0
 45
0.0
1001
ACAD
1000
AcDbSavedByObjectVersion
1070
     0
  0
VISUALSTYLE
  5
11477
102
{ACAD_XDICTIONARY
360
114E2
102
}
102
{ACAD_REACTORS
330
11464
102
}
330
11464
100
AcDbVisualStyle
  2
X-Ray
 70
    25
 71
     2
 72
     2
 73
     1
 90
        1
 40
0.5
 41
-30.0
 62
     5
 63
     7
 74
     1
 91
        0
 64
     7
 65
   257
 75
     1
175
     1
 42
1.0
 92
        8
 66
     7
 43
1.0
 76
     1
 77
     6
 78
     2
 67
     7
 79
     3
170
     0
171
     0
290
     0
174
     0
 93
       13
 44
0.0
173
     0
291
     0
 45
0.0
1001
ACAD
1000
AcDbSavedByObjectVersion
1070
     0
  0
DICTIONARYVAR
  5
114B1
102
{ACAD_REACTORS
330
114AC
102
}
330
114AC
100
DictionaryVariables
280
     0
  1
1:1
  0
DICTIONARYVAR
  5
114AE
102
{ACAD_REACTORS
330
114AC
102
}
330
114AC
100
DictionaryVariables
280
     0
  1
STANDARD
  0
DICTIONARYVAR
  5
114AD
102
{ACAD_REACTORS
330
114AC
102
}
330
114AC
100
DictionaryVariables
280
     0
  1
STANDARD
  0
DICTIONARYVAR
  5
114AF
102
{ACAD_REACTORS
330
114AC
102
}
330
114AC
100
DictionaryVariables
280
     0
  1
Imperial24
  0
DICTIONARYVAR
  5
114B0
102
{ACAD_REACTORS
330
114AC
102
}
330
114AC
100
DictionaryVariables
280
     0
  1
Imperial24
  0
DICTIONARYVAR
  5
114B4
102
{ACAD_REACTORS
330
114AC
102
}
330
114AC
100
DictionaryVariables
280
     0
  1
1
  0
DICTIONARYVAR
  5
114B3
102
{ACAD_REACTORS
330
114AC
102
}
330
114AC
100
DictionaryVariables
280
     0
  1
0
  0
DICTIONARYVAR
  5
114B2
102
{ACAD_REACTORS
330
114AC
102
}
330
114AC
100
DictionaryVariables
280
     0
  1
127
  0
DICTIONARYVAR
  5
114B5
102
{ACAD_REACTORS
330
114AC
102
}
330
114AC
100
DictionaryVariables
280
     0
  1
2
  0
DICTIONARY
  5
114F2
330
11497
100
AcDbDictionary
280
     1
281
     1
  3
ACAD_XREC_ROUNDTRIP
360
114F3
  0
DICTIONARY
  5
114F4
330
11498
100
AcDbDictionary
280
     1
281
     1
  3
ACAD_XREC_ROUNDTRIP
360
114F5
  0
DICTIONARY
  5
114F6
330
11499
100
AcDbDictionary
280
     1
281
     1
  3
ACAD_XREC_ROUNDTRIP
360
114F7
  0
DICTIONARY
  5
11455
330
11454
100
AcDbDictionary
280
     1
281
     1
  3
ACAD_XREC_ROUNDTRIP
360
114BC
  3
BUMPTILE
360
11457
  3
DIFFUSETILE
360
11456
  3
OPACITYTILE
360
1145A
  3
REFLECTIONTILE
360
11459
  3
REFRACTIONTILE
360
1145B
  3
SPECULARTILE
360
11458
  0
DICTIONARY
  5
1144D
330
1144C
100
AcDbDictionary
280
     1
281
     1
  3
ACAD_XREC_ROUNDTRIP
360
114BB
  3
BUMPTILE
360
1144F
  3
DIFFUSETILE
360
1144E
  3
OPACITYTILE
360
11452
  3
REFLECTIONTILE
360
11451
  3
REFRACTIONTILE
360
11453
  3
SPECULARTILE
360
11450
  0
DICTIONARY
  5
1145D
330
1145C
100
AcDbDictionary
280
     1
281
     1
  3
ACAD_XREC_ROUNDTRIP
360
114BD
  3
BUMPTILE
360
1145F
  3
DIFFUSETILE
360
1145E
  3
OPACITYTILE
360
11462
  3
REFLECTIONTILE
360
11461
  3
REFRACTIONTILE
360
11463
  3
SPECULARTILE
360
11460
  0
DICTIONARY
  5
114F0
330
11495
100
AcDbDictionary
280
     1
281
     1
  3
ACAD_XREC_ROUNDTRIP
360
114F1
  0
DICTIONARY
  5
114B7
330
1147F
100
AcDbDictionary
280
     1
281
     1
  3
ACAD_ROUNDTRIP_2008_TABLESTYLE_CELLSTYLEMAP
360
114B8
  3
ACAD_XREC_ROUNDTRIP
360
114EE
  0
DICTIONARY
  5
114C8
330
1146A
100
AcDbDictionary
280
     1
281
     1
  3
ACAD_XREC_ROUNDTRIP
360
114C9
  0
DICTIONARY
  5
114C6
330
11469
100
AcDbDictionary
280
     1
281
     1
  3
ACAD_XREC_ROUNDTRIP
360
114C7
  0
DICTIONARY
  5
114D4
330
11470
100
AcDbDictionary
280
     1
281
     1
  3
ACAD_XREC_ROUNDTRIP
360
114D5
  0
DICTIONARY
  5
114DC
330
11474
100
AcDbDictionary
280
     1
281
     1
  3
ACAD_XREC_ROUNDTRIP
360
114DD
  0
DICTIONARY
  5
114CE
330
1146D
100
AcDbDictionary
280
     1
281
     1
  3
ACAD_XREC_ROUNDTRIP
360
114CF
  0
DICTIONARY
  5
114D2
330
1146F
100
AcDbDictionary
280
     1
281
     1
  3
ACAD_XREC_ROUNDTRIP
360
114D3
  0
DICTIONARY
  5
114EC
330
1147C
100
AcDbDictionary
280
     1
281
     1
  3
ACAD_XREC_ROUNDTRIP
360
114ED
  0
DICTIONARY
  5
114DA
330
11473
100
AcDbDictionary
280
     1
281
     1
  3
ACAD_XREC_ROUNDTRIP
360
114DB
  0
DICTIONARY
  5
114BE
330
11465
100
AcDbDictionary
280
     1
281
     1
  3
ACAD_XREC_ROUNDTRIP
360
114BF
  0
DICTIONARY
  5
114C0
330
11466
100
AcDbDictionary
280
     1
281
     1
  3
ACAD_XREC_ROUNDTRIP
360
114C1
  0
DICTIONARY
  5
114C2
330
11467
100
AcDbDictionary
280
     1
281
     1
  3
ACAD_XREC_ROUNDTRIP
360
114C3
  0
DICTIONARY
  5
114C4
330
11468
100
AcDbDictionary
280
     1
281
     1
  3
ACAD_XREC_ROUNDTRIP
360
114C5
  0
DICTIONARY
  5
114CC
330
1146C
100
AcDbDictionary
280
     1
281
     1
  3
ACAD_XREC_ROUNDTRIP
360
114CD
  0
DICTIONARY
  5
114E8
330
1147A
100
AcDbDictionary
280
     1
281
     1
  3
ACAD_XREC_ROUNDTRIP
360
114E9
  0
DICTIONARY
  5
114D8
330
11472
100
AcDbDictionary
280
     1
281
     1
  3
ACAD_XREC_ROUNDTRIP
360
114D9
  0
DICTIONARY
  5
114EA
330
1147B
100
AcDbDictionary
280
     1
281
     1
  3
ACAD_XREC_ROUNDTRIP
360
114EB
  0
DICTIONARY
  5
114D0
330
1146E
100
AcDbDictionary
280
     1
281
     1
  3
ACAD_XREC_ROUNDTRIP
360
114D1
  0
DICTIONARY
  5
114E6
330
11479
100
AcDbDictionary
280
     1
281
     1
  3
ACAD_XREC_ROUNDTRIP
360
114E7
  0
DICTIONARY
  5
114E4
330
11478
100
AcDbDictionary
280
     1
281
     1
  3
ACAD_XREC_ROUNDTRIP
360
114E5
  0
DICTIONARY
  5
114DE
330
11475
100
AcDbDictionary
280
     1
281
     1
  3
ACAD_XREC_ROUNDTRIP
360
114DF
  0
DICTIONARY
  5
114E0
330
11476
100
AcDbDictionary
280
     1
281
     1
  3
ACAD_XREC_ROUNDTRIP
360
114E1
  0
DICTIONARY
  5
114D6
330
11471
100
AcDbDictionary
280
     1
281
     1
  3
ACAD_XREC_ROUNDTRIP
360
114D7
  0
DICTIONARY
  5
114CA
330
1146B
100
AcDbDictionary
280
     1
281
     1
  3
ACAD_XREC_ROUNDTRIP
360
114CB
  0
DICTIONARY
  5
114E2
330
11477
100
AcDbDictionary
280
     1
281
     1
  3
ACAD_XREC_ROUNDTRIP
360
114E3
  0
XRECORD
  5
114F3
102
{ACAD_REACTORS
330
114F2
102
}
330
114F2
100
AcDbXrecord
280
     1
102
DISPLAYNAME
  1
Imperial24
102
FLAGS
 90
        0
  0
XRECORD
  5
114F5
102
{ACAD_REACTORS
330
114F4
102
}
330
114F4
100
AcDbXrecord
280
     1
102
SHADEPLOT
 70
     0
102
SHADEPLOTRESLEVEL
 70
     2
102
SHADEPLOTCUSTOMDPI
 70
   300
  0
XRECORD
  5
114F7
102
{ACAD_REACTORS
330
114F6
102
}
330
114F6
100
AcDbXrecord
280
     1
102
SHADEPLOT
 70
     0
102
SHADEPLOTRESLEVEL
 70
     2
102
SHADEPLOTCUSTOMDPI
 70
   300
  0
XRECORD
  5
114BC
102
{ACAD_REACTORS
330
11455
102
}
330
11455
100
AcDbXrecord
280
     1
102
MATERIAL
148
0.0
149
0.0
149
0.0
 93
        0
 94
      127
282
     0
 72
     0
 77
     0
171
     0
175
     0
179
     0
273
     0
  0
XRECORD
  5
11457
102
{ACAD_REACTORS
330
11455
102
}
330
11455
100
AcDbXrecord
280
     1
270
     1
271
     1
  0
XRECORD
  5
11456
102
{ACAD_REACTORS
330
11455
102
}
330
11455
100
AcDbXrecord
280
     1
270
     1
271
     1
  0
XRECORD
  5
1145A
102
{ACAD_REACTORS
330
11455
102
}
330
11455
100
AcDbXrecord
280
     1
270
     1
271
     1
  0
XRECORD
  5
11459
102
{ACAD_REACTORS
330
11455
102
}
330
11455
100
AcDbXrecord
280
     1
270
     1
271
     1
  0
XRECORD
  5
1145B
102
{ACAD_REACTORS
330
11455
102
}
330
11455
100
AcDbXrecord
280
     1
270
     1
271
     1
  0
XRECORD
  5
11458
102
{ACAD_REACTORS
330
11455
102
}
330
11455
100
AcDbXrecord
280
     1
270
     1
271
     1
  0
XRECORD
  5
114BB
102
{ACAD_REACTORS
330
1144D
102
}
330
1144D
100
AcDbXrecord
280
     1
102
MATERIAL
148
0.0
149
0.0
149
0.0
 93
        0
 94
      127
282
     0
 72
     0
 77
     0
171
     0
175
     0
179
     0
273
     0
  0
XRECORD
  5
1144F
102
{ACAD_REACTORS
330
1144D
102
}
330
1144D
100
AcDbXrecord
280
     1
270
     1
271
     1
  0
XRECORD
  5
1144E
102
{ACAD_REACTORS
330
1144D
102
}
330
1144D
100
AcDbXrecord
280
     1
270
     1
271
     1
  0
XRECORD
  5
11452
102
{ACAD_REACTORS
330
1144D
102
}
330
1144D
100
AcDbXrecord
280
     1
270
     1
271
     1
  0
XRECORD
  5
11451
102
{ACAD_REACTORS
330
1144D
102
}
330
1144D
100
AcDbXrecord
280
     1
270
     1
271
     1
  0
XRECORD
  5
11453
102
{ACAD_REACTORS
330
1144D
102
}
330
1144D
100
AcDbXrecord
280
     1
270
     1
271
     1
  0
XRECORD
  5
11450
102
{ACAD_REACTORS
330
1144D
102
}
330
1144D
100
AcDbXrecord
280
     1
270
     1
271
     1
  0
XRECORD
  5
114BD
102
{ACAD_REACTORS
330
1145D
102
}
330
1145D
100
AcDbXrecord
280
     1
102
MATERIAL
148
0.0
149
0.0
149
0.0
 93
        0
 94
      127
282
     0
 72
     0
 77
     0
171
     0
175
     0
179
     0
273
     0
  0
XRECORD
  5
1145F
102
{ACAD_REACTORS
330
1145D
102
}
330
1145D
100
AcDbXrecord
280
     1
270
     1
271
     1
  0
XRECORD
  5
1145E
102
{ACAD_REACTORS
330
1145D
102
}
330
1145D
100
AcDbXrecord
280
     1
270
     1
271
     1
  0
XRECORD
  5
11462
102
{ACAD_REACTORS
330
1145D
102
}
330
1145D
100
AcDbXrecord
280
     1
270
     1
271
     1
  0
XRECORD
  5
11461
102
{ACAD_REACTORS
330
1145D
102
}
330
1145D
100
AcDbXrecord
280
     1
270
     1
271
     1
  0
XRECORD
  5
11463
102
{ACAD_REACTORS
330
1145D
102
}
330
1145D
100
AcDbXrecord
280
     1
270
     1
271
     1
  0
XRECORD
  5
11460
102
{ACAD_REACTORS
330
1145D
102
}
330
1145D
100
AcDbXrecord
280
     1
270
     1
271
     1
  0
XRECORD
  5
114F1
102
{ACAD_REACTORS
330
114F0
102
}
330
114F0
100
AcDbXrecord
280
     1
102
DISPLAYNAME
  1
Imperial24
102
FLAGS
 90
        0
  0
CELLSTYLEMAP
  5
114B8
102
{ACAD_REACTORS
330
114B7
102
}
330
114B7
100
AcDbCellStyleMap
 90
        3
300
CELLSTYLE
  1
TABLEFORMAT_BEGIN
 90
        5
170
     1
 91
        0
 92
    32768
 62
   257
 93
        1
300
CONTENTFORMAT
  1
CONTENTFORMAT_BEGIN
 90
        0
 91
        0
 92
      512
 93
        0
300

 40
0.0
140
1.0
 94
        5
 62
     0
340
110BC
144
0.25
309
CONTENTFORMAT_END
171
     0
 94
        0
309
TABLEFORMAT_END
  1
CELLSTYLE_BEGIN
 90
        1
 91
        1
300
_TITLE
309
CELLSTYLE_END
300
CELLSTYLE
  1
TABLEFORMAT_BEGIN
 90
        5
170
     1
 91
        0
 92
        0
 62
   257
 93
        1
300
CONTENTFORMAT
  1
CONTENTFORMAT_BEGIN
 90
        0
 91
        0
 92
      512
 93
        0
300

 40
0.0
140
1.0
 94
        5
 62
     0
340
110BC
144
0.18
309
CONTENTFORMAT_END
171
     0
 94
        0
309
TABLEFORMAT_END
  1
CELLSTYLE_BEGIN
 90
        2
 91
        1
300
_HEADER
309
CELLSTYLE_END
300
CELLSTYLE
  1
TABLEFORMAT_BEGIN
 90
        5
170
     1
 91
        0
 92
        0
 62
   257
 93
        1
300
CONTENTFORMAT
  1
CONTENTFORMAT_BEGIN
 90
        0
 91
        0
 92
      512
 93
        0
300

 40
0.0
140
1.0
 94
        2
 62
     0
340
110BC
144
0.18
309
CONTENTFORMAT_END
171
     0
 94
        0
309
TABLEFORMAT_END
  1
CELLSTYLE_BEGIN
 90
        3
 91
        2
300
_DATA
309
CELLSTYLE_END
  0
XRECORD
  5
114EE
102
{ACAD_REACTORS
330
114B7
102
}
330
114B7
100
AcDbXrecord
280
     1
102
ACAD_ROUNDTRIP_PRE2007_TABLESTYLE
 90
      512
 91
        0
  1

 92
      512
 93
        0
  2

 94
      512
 95
        0
  3

  0
XRECORD
  5
114C9
102
{ACAD_REACTORS
330
114C8
102
}
330
114C8
100
AcDbXrecord
280
     1
102
RTVSPost2010Prop28
280
     1
102
RTVSPost2010PropOp28
 70
     1
102
RTVSPost2010Prop29
280
     1
102
RTVSPost2010PropOp29
 70
     1
102
RTVSPost2010Prop30
280
     0
102
RTVSPost2010PropOp30
 70
     1
102
RTVSPost2010Prop31
280
     0
102
RTVSPost2010PropOp31
 70
     1
102
RTVSPost2010Prop32
280
     0
102
RTVSPost2010PropOp32
 70
     1
102
RTVSPost2010Prop33
280
     0
102
RTVSPost2010PropOp33
 70
     1
102
RTVSPost2010Prop34
280
     0
102
RTVSPost2010PropOp34
 70
     1
102
RTVSPost2010Prop35
280
     0
102
RTVSPost2010PropOp35
 70
     1
102
RTVSPost2010Prop36
280
     0
102
RTVSPost2010PropOp36
 70
     1
102
RTVSPost2010Prop37
 90
       50
102
RTVSPost2010PropOp37
 70
     1
102
RTVSPost2010Prop38
140
0.0
102
RTVSPost2010PropOp38
 70
     1
102
RTVSPost2010Prop39
140
1.0
102
RTVSPost2010PropOp39
 70
     1
102
RTVSPost2010Prop40
 90
        0
102
RTVSPost2010PropOp40
 70
     1
102
RTVSPost2010Prop41ColorIndex
 90
       18
102
RTVSPost2010Prop41ColorRGB
 90
        0
102
RTVSPost2010PropOp41
 70
     1
102
RTVSPost2010Prop42
 90
       50
102
RTVSPost2010PropOp42
 70
     1
102
RTVSPost2010Prop43
 90
        3
102
RTVSPost2010PropOp43
 70
     1
102
RTVSPost2010Prop44ColorIndex
 90
        5
102
RTVSPost2010Prop44ColorRGB
 90
      255
102
RTVSPost2010PropOp44
 70
     1
102
RTVSPost2010Prop45
280
     0
102
RTVSPost2010PropOp45
 70
     1
102
RTVSPost2010Prop46
 90
       50
102
RTVSPost2010PropOp46
 70
     1
102
RTVSPost2010Prop47
 90
       50
102
RTVSPost2010PropOp47
 70
     1
102
RTVSPost2010Prop48
 90
       50
102
RTVSPost2010PropOp48
 70
     1
102
RTVSPost2010Prop49
280
     0
102
RTVSPost2010PropOp49
 70
     1
102
RTVSPost2010Prop50
 90
       50
102
RTVSPost2010PropOp50
 70
     1
102
RTVSPost2010Prop51ColorIndex
 90
      256
102
RTVSPost2010Prop51ColorRGB
 90
-16777216
102
RTVSPost2010PropOp51
 70
     0
102
RTVSPost2010Prop52
140
1.0
102
RTVSPost2010PropOp52
 70
     0
102
RTVSPost2010Prop53
 90
        2
102
RTVSPost2010PropOp53
 70
     1
102
RTVSPost2010Prop54
  1
strokes_ogs.tif
102
RTVSPost2010PropOp54
 70
     1
102
RTVSPost2010Prop55
280
     0
102
RTVSPost2010PropOp55
 70
     1
102
RTVSPost2010Prop56
140
1.0
102
RTVSPost2010PropOp56
 70
     1
102
RTVSPost2010Prop57
140
1.0
102
RTVSPost2010PropOp57
 70
     1
102
RTVSPropertyOp0
 70
     1
102
RTVSPropertyOp1
 70
     1
102
RTVSPropertyOp2
 70
     1
102
RTVSPropertyOp3
 70
     1
102
RTVSPropertyOp4
 70
     1
102
RTVSPropertyOp5
 70
     1
102
RTVSPropertyOp6
 70
     1
102
RTVSPropertyOp7
 70
     1
102
RTVSPropertyOp8
 70
     1
102
RTVSPropertyOp9
 70
     1
102
RTVSPropertyOp10
 70
     1
102
RTVSPropertyOp11
 70
     1
102
RTVSPropertyOp12
 70
     1
102
RTVSPropertyOp13
 70
     1
102
RTVSPropertyOp14
 70
     1
102
RTVSPropertyOp15
 70
     1
102
RTVSPropertyOp16
 70
     1
102
RTVSPropertyOp17
 70
     1
102
RTVSPropertyOp18
 70
     1
102
RTVSPropertyOp19
 70
     1
102
RTVSPropertyOp20
 70
     1
102
RTVSPropertyOp21
 70
     1
102
RTVSPropertyOp22
 70
     1
102
RTVSPropertyOp23
 70
     1
102
RTVSPropertyOp24
 70
     1
102
RTVSPropertyOp25
 70
     1
102
RTVSPropertyOp26
 70
     1
102
RTVSPropertyOp27
 70
     1
102
RTVSPropertyOp28
 70
     1
102
RTVSPropertyOp29
 70
     1
102
RTVSPropertyOp30
 70
     1
102
RTVSPropertyOp31
 70
     1
102
RTVSPropertyOp32
 70
     1
102
RTVSPropertyOp33
 70
     1
102
RTVSPropertyOp34
 70
     1
102
RTVSPropertyOp35
 70
     1
102
RTVSPropertyOp36
 70
     1
102
RTVSPropertyOp37
 70
     1
102
RTVSPropertyOp38
 70
     1
102
RTVSPropertyOp39
 70
     1
102
RTVSPropertyOp40
 70
     1
102
RTVSPropertyOp41
 70
     1
102
RTVSPropertyOp42
 70
     1
102
RTVSPropertyOp43
 70
     1
102
RTVSPropertyOp44
 70
     1
102
RTVSPropertyOp45
 70
     1
102
RTVSPropertyOp46
 70
     1
102
RTVSPropertyOp47
 70
     1
102
RTVSPropertyOp48
 70
     1
102
RTVSPropertyOp49
 70
     1
102
RTVSPropertyOp50
 70
     1
102
RTVSPropertyOp51
 70
     0
102
RTVSPropertyOp52
 70
     0
102
RTVSPropertyOp53
 70
     1
102
RTVSPropertyOp54
 70
     1
102
RTVSPropertyOp55
 70
     1
102
RTVSPropertyOp56
 70
     1
102
RTVSPropertyOp57
 70
     1
102
RTVSPropertyOp58
 70
     1
102
RTVSPropertyOp59
 70
     1
102
RTVSPropertyOp60
 70
     1
102
RTVSPropertyOp61
 70
     1
102
RTVSPropertyOp62
 70
     1
  0
XRECORD
  5
114C7
102
{ACAD_REACTORS
330
114C6
102
}
330
114C6
100
AcDbXrecord
280
     1
102
RTVSPost2010Prop28
280
     0
102
RTVSPost2010PropOp28
 70
     1
102
RTVSPost2010Prop29
280
     1
102
RTVSPost2010PropOp29
 70
     1
102
RTVSPost2010Prop30
280
     1
102
RTVSPost2010PropOp30
 70
     1
102
RTVSPost2010Prop31
280
     0
102
RTVSPost2010PropOp31
 70
     1
102
RTVSPost2010Prop32
280
     0
102
RTVSPost2010PropOp32
 70
     1
102
RTVSPost2010Prop33
280
     0
102
RTVSPost2010PropOp33
 70
     1
102
RTVSPost2010Prop34
280
     0
102
RTVSPost2010PropOp34
 70
     1
102
RTVSPost2010Prop35
280
     0
102
RTVSPost2010PropOp35
 70
     1
102
RTVSPost2010Prop36
280
     0
102
RTVSPost2010PropOp36
 70
     1
102
RTVSPost2010Prop37
 90
       50
102
RTVSPost2010PropOp37
 70
     1
102
RTVSPost2010Prop38
140
0.0
102
RTVSPost2010PropOp38
 70
     1
102
RTVSPost2010Prop39
140
1.0
102
RTVSPost2010PropOp39
 70
     1
102
RTVSPost2010Prop40
 90
        0
102
RTVSPost2010PropOp40
 70
     1
102
RTVSPost2010Prop41ColorIndex
 90
       18
102
RTVSPost2010Prop41ColorRGB
 90
        0
102
RTVSPost2010PropOp41
 70
     1
102
RTVSPost2010Prop42
 90
       50
102
RTVSPost2010PropOp42
 70
     1
102
RTVSPost2010Prop43
 90
        3
102
RTVSPost2010PropOp43
 70
     1
102
RTVSPost2010Prop44ColorIndex
 90
        5
102
RTVSPost2010Prop44ColorRGB
 90
      255
102
RTVSPost2010PropOp44
 70
     1
102
RTVSPost2010Prop45
280
     0
102
RTVSPost2010PropOp45
 70
     1
102
RTVSPost2010Prop46
 90
       50
102
RTVSPost2010PropOp46
 70
     1
102
RTVSPost2010Prop47
 90
       50
102
RTVSPost2010PropOp47
 70
     1
102
RTVSPost2010Prop48
 90
       50
102
RTVSPost2010PropOp48
 70
     1
102
RTVSPost2010Prop49
280
     0
102
RTVSPost2010PropOp49
 70
     1
102
RTVSPost2010Prop50
 90
       50
102
RTVSPost2010PropOp50
 70
     1
102
RTVSPost2010Prop51ColorIndex
 90
      256
102
RTVSPost2010Prop51ColorRGB
 90
-16777216
102
RTVSPost2010PropOp51
 70
     0
102
RTVSPost2010Prop52
140
1.0
102
RTVSPost2010PropOp52
 70
     0
102
RTVSPost2010Prop53
 90
        2
102
RTVSPost2010PropOp53
 70
     1
102
RTVSPost2010Prop54
  1
strokes_ogs.tif
102
RTVSPost2010PropOp54
 70
     1
102
RTVSPost2010Prop55
280
     0
102
RTVSPost2010PropOp55
 70
     1
102
RTVSPost2010Prop56
140
1.0
102
RTVSPost2010PropOp56
 70
     1
102
RTVSPost2010Prop57
140
1.0
102
RTVSPost2010PropOp57
 70
     1
102
RTVSPropertyOp0
 70
     1
102
RTVSPropertyOp1
 70
     1
102
RTVSPropertyOp2
 70
     1
102
RTVSPropertyOp3
 70
     1
102
RTVSPropertyOp4
 70
     1
102
RTVSPropertyOp5
 70
     1
102
RTVSPropertyOp6
 70
     1
102
RTVSPropertyOp7
 70
     1
102
RTVSPropertyOp8
 70
     1
102
RTVSPropertyOp9
 70
     1
102
RTVSPropertyOp10
 70
     1
102
RTVSPropertyOp11
 70
     1
102
RTVSPropertyOp12
 70
     1
102
RTVSPropertyOp13
 70
     1
102
RTVSPropertyOp14
 70
     1
102
RTVSPropertyOp15
 70
     1
102
RTVSPropertyOp16
 70
     1
102
RTVSPropertyOp17
 70
     1
102
RTVSPropertyOp18
 70
     1
102
RTVSPropertyOp19
 70
     1
102
RTVSPropertyOp20
 70
     1
102
RTVSPropertyOp21
 70
     1
102
RTVSPropertyOp22
 70
     1
102
RTVSPropertyOp23
 70
     1
102
RTVSPropertyOp24
 70
     1
102
RTVSPropertyOp25
 70
     1
102
RTVSPropertyOp26
 70
     1
102
RTVSPropertyOp27
 70
     1
102
RTVSPropertyOp28
 70
     1
102
RTVSPropertyOp29
 70
     1
102
RTVSPropertyOp30
 70
     1
102
RTVSPropertyOp31
 70
     1
102
RTVSPropertyOp32
 70
     1
102
RTVSPropertyOp33
 70
     1
102
RTVSPropertyOp34
 70
     1
102
RTVSPropertyOp35
 70
     1
102
RTVSPropertyOp36
 70
     1
102
RTVSPropertyOp37
 70
     1
102
RTVSPropertyOp38
 70
     1
102
RTVSPropertyOp39
 70
     1
102
RTVSPropertyOp40
 70
     1
102
RTVSPropertyOp41
 70
     1
102
RTVSPropertyOp42
 70
     1
102
RTVSPropertyOp43
 70
     1
102
RTVSPropertyOp44
 70
     1
102
RTVSPropertyOp45
 70
     1
102
RTVSPropertyOp46
 70
     1
102
RTVSPropertyOp47
 70
     1
102
RTVSPropertyOp48
 70
     1
102
RTVSPropertyOp49
 70
     1
102
RTVSPropertyOp50
 70
     1
102
RTVSPropertyOp51
 70
     0
102
RTVSPropertyOp52
 70
     0
102
RTVSPropertyOp53
 70
     1
102
RTVSPropertyOp54
 70
     1
102
RTVSPropertyOp55
 70
     1
102
RTVSPropertyOp56
 70
     1
102
RTVSPropertyOp57
 70
     1
102
RTVSPropertyOp58
 70
     1
102
RTVSPropertyOp59
 70
     1
102
RTVSPropertyOp60
 70
     1
102
RTVSPropertyOp61
 70
     1
102
RTVSPropertyOp62
 70
     1
  0
XRECORD
  5
114D5
102
{ACAD_REACTORS
330
114D4
102
}
330
114D4
100
AcDbXrecord
280
     1
102
RTVSPost2010Prop28
280
     0
102
RTVSPost2010PropOp28
 70
     1
102
RTVSPost2010Prop29
280
     1
102
RTVSPost2010PropOp29
 70
     1
102
RTVSPost2010Prop30
280
     1
102
RTVSPost2010PropOp30
 70
     1
102
RTVSPost2010Prop31
280
     0
102
RTVSPost2010PropOp31
 70
     1
102
RTVSPost2010Prop32
280
     0
102
RTVSPost2010PropOp32
 70
     1
102
RTVSPost2010Prop33
280
     0
102
RTVSPost2010PropOp33
 70
     1
102
RTVSPost2010Prop34
280
     0
102
RTVSPost2010PropOp34
 70
     1
102
RTVSPost2010Prop35
280
     0
102
RTVSPost2010PropOp35
 70
     1
102
RTVSPost2010Prop36
280
     0
102
RTVSPost2010PropOp36
 70
     1
102
RTVSPost2010Prop37
 90
       50
102
RTVSPost2010PropOp37
 70
     1
102
RTVSPost2010Prop38
140
0.0
102
RTVSPost2010PropOp38
 70
     1
102
RTVSPost2010Prop39
140
1.0
102
RTVSPost2010PropOp39
 70
     1
102
RTVSPost2010Prop40
 90
        0
102
RTVSPost2010PropOp40
 70
     1
102
RTVSPost2010Prop41ColorIndex
 90
       18
102
RTVSPost2010Prop41ColorRGB
 90
        0
102
RTVSPost2010PropOp41
 70
     1
102
RTVSPost2010Prop42
 90
       50
102
RTVSPost2010PropOp42
 70
     1
102
RTVSPost2010Prop43
 90
        3
102
RTVSPost2010PropOp43
 70
     1
102
RTVSPost2010Prop44ColorIndex
 90
        5
102
RTVSPost2010Prop44ColorRGB
 90
      255
102
RTVSPost2010PropOp44
 70
     1
102
RTVSPost2010Prop45
280
     0
102
RTVSPost2010PropOp45
 70
     1
102
RTVSPost2010Prop46
 90
       50
102
RTVSPost2010PropOp46
 70
     1
102
RTVSPost2010Prop47
 90
       50
102
RTVSPost2010PropOp47
 70
     1
102
RTVSPost2010Prop48
 90
       50
102
RTVSPost2010PropOp48
 70
     1
102
RTVSPost2010Prop49
280
     0
102
RTVSPost2010PropOp49
 70
     1
102
RTVSPost2010Prop50
 90
       50
102
RTVSPost2010PropOp50
 70
     1
102
RTVSPost2010Prop51ColorIndex
 90
      256
102
RTVSPost2010Prop51ColorRGB
 90
-16777216
102
RTVSPost2010PropOp51
 70
     0
102
RTVSPost2010Prop52
140
1.0
102
RTVSPost2010PropOp52
 70
     0
102
RTVSPost2010Prop53
 90
        2
102
RTVSPost2010PropOp53
 70
     1
102
RTVSPost2010Prop54
  1
strokes_ogs.tif
102
RTVSPost2010PropOp54
 70
     1
102
RTVSPost2010Prop55
280
     0
102
RTVSPost2010PropOp55
 70
     1
102
RTVSPost2010Prop56
140
1.0
102
RTVSPost2010PropOp56
 70
     1
102
RTVSPost2010Prop57
140
1.0
102
RTVSPost2010PropOp57
 70
     1
102
RTVSPropertyOp0
 70
     1
102
RTVSPropertyOp1
 70
     1
102
RTVSPropertyOp2
 70
     1
102
RTVSPropertyOp3
 70
     1
102
RTVSPropertyOp4
 70
     1
102
RTVSPropertyOp5
 70
     1
102
RTVSPropertyOp6
 70
     1
102
RTVSPropertyOp7
 70
     1
102
RTVSPropertyOp8
 70
     1
102
RTVSPropertyOp9
 70
     1
102
RTVSPropertyOp10
 70
     1
102
RTVSPropertyOp11
 70
     1
102
RTVSPropertyOp12
 70
     1
102
RTVSPropertyOp13
 70
     1
102
RTVSPropertyOp14
 70
     1
102
RTVSPropertyOp15
 70
     1
102
RTVSPropertyOp16
 70
     1
102
RTVSPropertyOp17
 70
     1
102
RTVSPropertyOp18
 70
     1
102
RTVSPropertyOp19
 70
     1
102
RTVSPropertyOp20
 70
     1
102
RTVSPropertyOp21
 70
     1
102
RTVSPropertyOp22
 70
     1
102
RTVSPropertyOp23
 70
     1
102
RTVSPropertyOp24
 70
     1
102
RTVSPropertyOp25
 70
     1
102
RTVSPropertyOp26
 70
     1
102
RTVSPropertyOp27
 70
     1
102
RTVSPropertyOp28
 70
     1
102
RTVSPropertyOp29
 70
     1
102
RTVSPropertyOp30
 70
     1
102
RTVSPropertyOp31
 70
     1
102
RTVSPropertyOp32
 70
     1
102
RTVSPropertyOp33
 70
     1
102
RTVSPropertyOp34
 70
     1
102
RTVSPropertyOp35
 70
     1
102
RTVSPropertyOp36
 70
     1
102
RTVSPropertyOp37
 70
     1
102
RTVSPropertyOp38
 70
     1
102
RTVSPropertyOp39
 70
     1
102
RTVSPropertyOp40
 70
     1
102
RTVSPropertyOp41
 70
     1
102
RTVSPropertyOp42
 70
     1
102
RTVSPropertyOp43
 70
     1
102
RTVSPropertyOp44
 70
     1
102
RTVSPropertyOp45
 70
     1
102
RTVSPropertyOp46
 70
     1
102
RTVSPropertyOp47
 70
     1
102
RTVSPropertyOp48
 70
     1
102
RTVSPropertyOp49
 70
     1
102
RTVSPropertyOp50
 70
     1
102
RTVSPropertyOp51
 70
     0
102
RTVSPropertyOp52
 70
     0
102
RTVSPropertyOp53
 70
     1
102
RTVSPropertyOp54
 70
     1
102
RTVSPropertyOp55
 70
     1
102
RTVSPropertyOp56
 70
     1
102
RTVSPropertyOp57
 70
     1
102
RTVSPropertyOp58
 70
     1
102
RTVSPropertyOp59
 70
     1
102
RTVSPropertyOp60
 70
     1
102
RTVSPropertyOp61
 70
     1
102
RTVSPropertyOp62
 70
     1
  0
XRECORD
  5
114DD
102
{ACAD_REACTORS
330
114DC
102
}
330
114DC
100
AcDbXrecord
280
     1
102
RTVSPost2010Prop28
280
     0
102
RTVSPost2010PropOp28
 70
     1
102
RTVSPost2010Prop29
280
     1
102
RTVSPost2010PropOp29
 70
     1
102
RTVSPost2010Prop30
280
     1
102
RTVSPost2010PropOp30
 70
     1
102
RTVSPost2010Prop31
280
     0
102
RTVSPost2010PropOp31
 70
     1
102
RTVSPost2010Prop32
280
     0
102
RTVSPost2010PropOp32
 70
     1
102
RTVSPost2010Prop33
280
     0
102
RTVSPost2010PropOp33
 70
     1
102
RTVSPost2010Prop34
280
     0
102
RTVSPost2010PropOp34
 70
     1
102
RTVSPost2010Prop35
280
     0
102
RTVSPost2010PropOp35
 70
     1
102
RTVSPost2010Prop36
280
     0
102
RTVSPost2010PropOp36
 70
     1
102
RTVSPost2010Prop37
 90
       50
102
RTVSPost2010PropOp37
 70
     1
102
RTVSPost2010Prop38
140
0.0
102
RTVSPost2010PropOp38
 70
     1
102
RTVSPost2010Prop39
140
1.0
102
RTVSPost2010PropOp39
 70
     1
102
RTVSPost2010Prop40
 90
        0
102
RTVSPost2010PropOp40
 70
     1
102
RTVSPost2010Prop41ColorIndex
 90
       18
102
RTVSPost2010Prop41ColorRGB
 90
        0
102
RTVSPost2010PropOp41
 70
     1
102
RTVSPost2010Prop42
 90
       50
102
RTVSPost2010PropOp42
 70
     1
102
RTVSPost2010Prop43
 90
        3
102
RTVSPost2010PropOp43
 70
     1
102
RTVSPost2010Prop44ColorIndex
 90
        5
102
RTVSPost2010Prop44ColorRGB
 90
      255
102
RTVSPost2010PropOp44
 70
     1
102
RTVSPost2010Prop45
280
     0
102
RTVSPost2010PropOp45
 70
     1
102
RTVSPost2010Prop46
 90
       50
102
RTVSPost2010PropOp46
 70
     1
102
RTVSPost2010Prop47
 90
       50
102
RTVSPost2010PropOp47
 70
     1
102
RTVSPost2010Prop48
 90
       50
102
RTVSPost2010PropOp48
 70
     1
102
RTVSPost2010Prop49
280
     0
102
RTVSPost2010PropOp49
 70
     1
102
RTVSPost2010Prop50
 90
       50
102
RTVSPost2010PropOp50
 70
     1
102
RTVSPost2010Prop51ColorIndex
 90
      256
102
RTVSPost2010Prop51ColorRGB
 90
-16777216
102
RTVSPost2010PropOp51
 70
     0
102
RTVSPost2010Prop52
140
1.0
102
RTVSPost2010PropOp52
 70
     0
102
RTVSPost2010Prop53
 90
        2
102
RTVSPost2010PropOp53
 70
     1
102
RTVSPost2010Prop54
  1
strokes_ogs.tif
102
RTVSPost2010PropOp54
 70
     1
102
RTVSPost2010Prop55
280
     0
102
RTVSPost2010PropOp55
 70
     1
102
RTVSPost2010Prop56
140
1.0
102
RTVSPost2010PropOp56
 70
     1
102
RTVSPost2010Prop57
140
1.0
102
RTVSPost2010PropOp57
 70
     1
102
RTVSPropertyOp0
 70
     1
102
RTVSPropertyOp1
 70
     1
102
RTVSPropertyOp2
 70
     1
102
RTVSPropertyOp3
 70
     1
102
RTVSPropertyOp4
 70
     1
102
RTVSPropertyOp5
 70
     1
102
RTVSPropertyOp6
 70
     1
102
RTVSPropertyOp7
 70
     1
102
RTVSPropertyOp8
 70
     1
102
RTVSPropertyOp9
 70
     1
102
RTVSPropertyOp10
 70
     1
102
RTVSPropertyOp11
 70
     1
102
RTVSPropertyOp12
 70
     1
102
RTVSPropertyOp13
 70
     1
102
RTVSPropertyOp14
 70
     1
102
RTVSPropertyOp15
 70
     1
102
RTVSPropertyOp16
 70
     1
102
RTVSPropertyOp17
 70
     1
102
RTVSPropertyOp18
 70
     1
102
RTVSPropertyOp19
 70
     1
102
RTVSPropertyOp20
 70
     1
102
RTVSPropertyOp21
 70
     1
102
RTVSPropertyOp22
 70
     1
102
RTVSPropertyOp23
 70
     1
102
RTVSPropertyOp24
 70
     1
102
RTVSPropertyOp25
 70
     1
102
RTVSPropertyOp26
 70
     1
102
RTVSPropertyOp27
 70
     1
102
RTVSPropertyOp28
 70
     1
102
RTVSPropertyOp29
 70
     1
102
RTVSPropertyOp30
 70
     1
102
RTVSPropertyOp31
 70
     1
102
RTVSPropertyOp32
 70
     1
102
RTVSPropertyOp33
 70
     1
102
RTVSPropertyOp34
 70
     1
102
RTVSPropertyOp35
 70
     1
102
RTVSPropertyOp36
 70
     1
102
RTVSPropertyOp37
 70
     1
102
RTVSPropertyOp38
 70
     1
102
RTVSPropertyOp39
 70
     1
102
RTVSPropertyOp40
 70
     1
102
RTVSPropertyOp41
 70
     1
102
RTVSPropertyOp42
 70
     1
102
RTVSPropertyOp43
 70
     1
102
RTVSPropertyOp44
 70
     1
102
RTVSPropertyOp45
 70
     1
102
RTVSPropertyOp46
 70
     1
102
RTVSPropertyOp47
 70
     1
102
RTVSPropertyOp48
 70
     1
102
RTVSPropertyOp49
 70
     1
102
RTVSPropertyOp50
 70
     1
102
RTVSPropertyOp51
 70
     0
102
RTVSPropertyOp52
 70
     0
102
RTVSPropertyOp53
 70
     1
102
RTVSPropertyOp54
 70
     1
102
RTVSPropertyOp55
 70
     1
102
RTVSPropertyOp56
 70
     1
102
RTVSPropertyOp57
 70
     1
102
RTVSPropertyOp58
 70
     1
102
RTVSPropertyOp59
 70
     1
102
RTVSPropertyOp60
 70
     1
102
RTVSPropertyOp61
 70
     1
102
RTVSPropertyOp62
 70
     1
  0
XRECORD
  5
114CF
102
{ACAD_REACTORS
330
114CE
102
}
330
114CE
100
AcDbXrecord
280
     1
102
RTVSPost2010Prop28
280
     0
102
RTVSPost2010PropOp28
 70
     1
102
RTVSPost2010Prop29
280
     1
102
RTVSPost2010PropOp29
 70
     1
102
RTVSPost2010Prop30
280
     1
102
RTVSPost2010PropOp30
 70
     1
102
RTVSPost2010Prop31
280
     0
102
RTVSPost2010PropOp31
 70
     1
102
RTVSPost2010Prop32
280
     0
102
RTVSPost2010PropOp32
 70
     1
102
RTVSPost2010Prop33
280
     0
102
RTVSPost2010PropOp33
 70
     1
102
RTVSPost2010Prop34
280
     0
102
RTVSPost2010PropOp34
 70
     1
102
RTVSPost2010Prop35
280
     0
102
RTVSPost2010PropOp35
 70
     1
102
RTVSPost2010Prop36
280
     0
102
RTVSPost2010PropOp36
 70
     1
102
RTVSPost2010Prop37
 90
       50
102
RTVSPost2010PropOp37
 70
     1
102
RTVSPost2010Prop38
140
0.0
102
RTVSPost2010PropOp38
 70
     1
102
RTVSPost2010Prop39
140
1.0
102
RTVSPost2010PropOp39
 70
     1
102
RTVSPost2010Prop40
 90
        0
102
RTVSPost2010PropOp40
 70
     1
102
RTVSPost2010Prop41ColorIndex
 90
       18
102
RTVSPost2010Prop41ColorRGB
 90
        0
102
RTVSPost2010PropOp41
 70
     1
102
RTVSPost2010Prop42
 90
       50
102
RTVSPost2010PropOp42
 70
     1
102
RTVSPost2010Prop43
 90
        3
102
RTVSPost2010PropOp43
 70
     1
102
RTVSPost2010Prop44ColorIndex
 90
        5
102
RTVSPost2010Prop44ColorRGB
 90
      255
102
RTVSPost2010PropOp44
 70
     1
102
RTVSPost2010Prop45
280
     0
102
RTVSPost2010PropOp45
 70
     1
102
RTVSPost2010Prop46
 90
       50
102
RTVSPost2010PropOp46
 70
     1
102
RTVSPost2010Prop47
 90
       50
102
RTVSPost2010PropOp47
 70
     1
102
RTVSPost2010Prop48
 90
       50
102
RTVSPost2010PropOp48
 70
     1
102
RTVSPost2010Prop49
280
     0
102
RTVSPost2010PropOp49
 70
     1
102
RTVSPost2010Prop50
 90
       50
102
RTVSPost2010PropOp50
 70
     1
102
RTVSPost2010Prop51ColorIndex
 90
      256
102
RTVSPost2010Prop51ColorRGB
 90
-16777216
102
RTVSPost2010PropOp51
 70
     0
102
RTVSPost2010Prop52
140
1.0
102
RTVSPost2010PropOp52
 70
     0
102
RTVSPost2010Prop53
 90
        2
102
RTVSPost2010PropOp53
 70
     1
102
RTVSPost2010Prop54
  1
strokes_ogs.tif
102
RTVSPost2010PropOp54
 70
     1
102
RTVSPost2010Prop55
280
     0
102
RTVSPost2010PropOp55
 70
     1
102
RTVSPost2010Prop56
140
1.0
102
RTVSPost2010PropOp56
 70
     1
102
RTVSPost2010Prop57
140
1.0
102
RTVSPost2010PropOp57
 70
     1
102
RTVSPropertyOp0
 70
     1
102
RTVSPropertyOp1
 70
     1
102
RTVSPropertyOp2
 70
     1
102
RTVSPropertyOp3
 70
     1
102
RTVSPropertyOp4
 70
     1
102
RTVSPropertyOp5
 70
     1
102
RTVSPropertyOp6
 70
     1
102
RTVSPropertyOp7
 70
     1
102
RTVSPropertyOp8
 70
     1
102
RTVSPropertyOp9
 70
     1
102
RTVSPropertyOp10
 70
     1
102
RTVSPropertyOp11
 70
     1
102
RTVSPropertyOp12
 70
     1
102
RTVSPropertyOp13
 70
     1
102
RTVSPropertyOp14
 70
     1
102
RTVSPropertyOp15
 70
     1
102
RTVSPropertyOp16
 70
     1
102
RTVSPropertyOp17
 70
     1
102
RTVSPropertyOp18
 70
     1
102
RTVSPropertyOp19
 70
     1
102
RTVSPropertyOp20
 70
     1
102
RTVSPropertyOp21
 70
     1
102
RTVSPropertyOp22
 70
     1
102
RTVSPropertyOp23
 70
     1
102
RTVSPropertyOp24
 70
     1
102
RTVSPropertyOp25
 70
     1
102
RTVSPropertyOp26
 70
     1
102
RTVSPropertyOp27
 70
     1
102
RTVSPropertyOp28
 70
     1
102
RTVSPropertyOp29
 70
     1
102
RTVSPropertyOp30
 70
     1
102
RTVSPropertyOp31
 70
     1
102
RTVSPropertyOp32
 70
     1
102
RTVSPropertyOp33
 70
     1
102
RTVSPropertyOp34
 70
     1
102
RTVSPropertyOp35
 70
     1
102
RTVSPropertyOp36
 70
     1
102
RTVSPropertyOp37
 70
     1
102
RTVSPropertyOp38
 70
     1
102
RTVSPropertyOp39
 70
     1
102
RTVSPropertyOp40
 70
     1
102
RTVSPropertyOp41
 70
     1
102
RTVSPropertyOp42
 70
     1
102
RTVSPropertyOp43
 70
     1
102
RTVSPropertyOp44
 70
     1
102
RTVSPropertyOp45
 70
     1
102
RTVSPropertyOp46
 70
     1
102
RTVSPropertyOp47
 70
     1
102
RTVSPropertyOp48
 70
     1
102
RTVSPropertyOp49
 70
     1
102
RTVSPropertyOp50
 70
     1
102
RTVSPropertyOp51
 70
     0
102
RTVSPropertyOp52
 70
     0
102
RTVSPropertyOp53
 70
     1
102
RTVSPropertyOp54
 70
     1
102
RTVSPropertyOp55
 70
     1
102
RTVSPropertyOp56
 70
     1
102
RTVSPropertyOp57
 70
     1
102
RTVSPropertyOp58
 70
     1
102
RTVSPropertyOp59
 70
     1
102
RTVSPropertyOp60
 70
     1
102
RTVSPropertyOp61
 70
     1
102
RTVSPropertyOp62
 70
     1
  0
XRECORD
  5
114D3
102
{ACAD_REACTORS
330
114D2
102
}
330
114D2
100
AcDbXrecord
280
     1
102
RTVSPost2010Prop28
280
     0
102
RTVSPost2010PropOp28
 70
     1
102
RTVSPost2010Prop29
280
     1
102
RTVSPost2010PropOp29
 70
     1
102
RTVSPost2010Prop30
280
     1
102
RTVSPost2010PropOp30
 70
     1
102
RTVSPost2010Prop31
280
     0
102
RTVSPost2010PropOp31
 70
     1
102
RTVSPost2010Prop32
280
     0
102
RTVSPost2010PropOp32
 70
     1
102
RTVSPost2010Prop33
280
     0
102
RTVSPost2010PropOp33
 70
     1
102
RTVSPost2010Prop34
280
     0
102
RTVSPost2010PropOp34
 70
     1
102
RTVSPost2010Prop35
280
     0
102
RTVSPost2010PropOp35
 70
     1
102
RTVSPost2010Prop36
280
     0
102
RTVSPost2010PropOp36
 70
     1
102
RTVSPost2010Prop37
 90
       50
102
RTVSPost2010PropOp37
 70
     1
102
RTVSPost2010Prop38
140
0.0
102
RTVSPost2010PropOp38
 70
     1
102
RTVSPost2010Prop39
140
1.0
102
RTVSPost2010PropOp39
 70
     1
102
RTVSPost2010Prop40
 90
        0
102
RTVSPost2010PropOp40
 70
     1
102
RTVSPost2010Prop41ColorIndex
 90
       18
102
RTVSPost2010Prop41ColorRGB
 90
        0
102
RTVSPost2010PropOp41
 70
     1
102
RTVSPost2010Prop42
 90
       50
102
RTVSPost2010PropOp42
 70
     1
102
RTVSPost2010Prop43
 90
        3
102
RTVSPost2010PropOp43
 70
     1
102
RTVSPost2010Prop44ColorIndex
 90
        5
102
RTVSPost2010Prop44ColorRGB
 90
      255
102
RTVSPost2010PropOp44
 70
     1
102
RTVSPost2010Prop45
280
     0
102
RTVSPost2010PropOp45
 70
     1
102
RTVSPost2010Prop46
 90
       50
102
RTVSPost2010PropOp46
 70
     1
102
RTVSPost2010Prop47
 90
       50
102
RTVSPost2010PropOp47
 70
     1
102
RTVSPost2010Prop48
 90
       50
102
RTVSPost2010PropOp48
 70
     1
102
RTVSPost2010Prop49
280
     0
102
RTVSPost2010PropOp49
 70
     1
102
RTVSPost2010Prop50
 90
       50
102
RTVSPost2010PropOp50
 70
     1
102
RTVSPost2010Prop51ColorIndex
 90
      256
102
RTVSPost2010Prop51ColorRGB
 90
-16777216
102
RTVSPost2010PropOp51
 70
     0
102
RTVSPost2010Prop52
140
1.0
102
RTVSPost2010PropOp52
 70
     0
102
RTVSPost2010Prop53
 90
        2
102
RTVSPost2010PropOp53
 70
     1
102
RTVSPost2010Prop54
  1
strokes_ogs.tif
102
RTVSPost2010PropOp54
 70
     1
102
RTVSPost2010Prop55
280
     0
102
RTVSPost2010PropOp55
 70
     1
102
RTVSPost2010Prop56
140
1.0
102
RTVSPost2010PropOp56
 70
     1
102
RTVSPost2010Prop57
140
1.0
102
RTVSPost2010PropOp57
 70
     1
102
RTVSPropertyOp0
 70
     1
102
RTVSPropertyOp1
 70
     1
102
RTVSPropertyOp2
 70
     1
102
RTVSPropertyOp3
 70
     1
102
RTVSPropertyOp4
 70
     1
102
RTVSPropertyOp5
 70
     1
102
RTVSPropertyOp6
 70
     1
102
RTVSPropertyOp7
 70
     1
102
RTVSPropertyOp8
 70
     1
102
RTVSPropertyOp9
 70
     1
102
RTVSPropertyOp10
 70
     1
102
RTVSPropertyOp11
 70
     1
102
RTVSPropertyOp12
 70
     1
102
RTVSPropertyOp13
 70
     1
102
RTVSPropertyOp14
 70
     1
102
RTVSPropertyOp15
 70
     1
102
RTVSPropertyOp16
 70
     1
102
RTVSPropertyOp17
 70
     1
102
RTVSPropertyOp18
 70
     1
102
RTVSPropertyOp19
 70
     1
102
RTVSPropertyOp20
 70
     1
102
RTVSPropertyOp21
 70
     1
102
RTVSPropertyOp22
 70
     1
102
RTVSPropertyOp23
 70
     1
102
RTVSPropertyOp24
 70
     1
102
RTVSPropertyOp25
 70
     1
102
RTVSPropertyOp26
 70
     1
102
RTVSPropertyOp27
 70
     1
102
RTVSPropertyOp28
 70
     1
102
RTVSPropertyOp29
 70
     1
102
RTVSPropertyOp30
 70
     1
102
RTVSPropertyOp31
 70
     1
102
RTVSPropertyOp32
 70
     1
102
RTVSPropertyOp33
 70
     1
102
RTVSPropertyOp34
 70
     1
102
RTVSPropertyOp35
 70
     1
102
RTVSPropertyOp36
 70
     1
102
RTVSPropertyOp37
 70
     1
102
RTVSPropertyOp38
 70
     1
102
RTVSPropertyOp39
 70
     1
102
RTVSPropertyOp40
 70
     1
102
RTVSPropertyOp41
 70
     1
102
RTVSPropertyOp42
 70
     1
102
RTVSPropertyOp43
 70
     1
102
RTVSPropertyOp44
 70
     1
102
RTVSPropertyOp45
 70
     1
102
RTVSPropertyOp46
 70
     1
102
RTVSPropertyOp47
 70
     1
102
RTVSPropertyOp48
 70
     1
102
RTVSPropertyOp49
 70
     1
102
RTVSPropertyOp50
 70
     1
102
RTVSPropertyOp51
 70
     0
102
RTVSPropertyOp52
 70
     0
102
RTVSPropertyOp53
 70
     1
102
RTVSPropertyOp54
 70
     1
102
RTVSPropertyOp55
 70
     1
102
RTVSPropertyOp56
 70
     1
102
RTVSPropertyOp57
 70
     1
102
RTVSPropertyOp58
 70
     1
102
RTVSPropertyOp59
 70
     1
102
RTVSPropertyOp60
 70
     1
102
RTVSPropertyOp61
 70
     1
102
RTVSPropertyOp62
 70
     1
  0
XRECORD
  5
114ED
102
{ACAD_REACTORS
330
114EC
102
}
330
114EC
100
AcDbXrecord
280
     1
102
RTVSPost2010Prop28
280
     0
102
RTVSPost2010PropOp28
 70
     1
102
RTVSPost2010Prop29
280
     1
102
RTVSPost2010PropOp29
 70
     1
102
RTVSPost2010Prop30
280
     1
102
RTVSPost2010PropOp30
 70
     1
102
RTVSPost2010Prop31
280
     0
102
RTVSPost2010PropOp31
 70
     1
102
RTVSPost2010Prop32
280
     0
102
RTVSPost2010PropOp32
 70
     1
102
RTVSPost2010Prop33
280
     0
102
RTVSPost2010PropOp33
 70
     1
102
RTVSPost2010Prop34
280
     0
102
RTVSPost2010PropOp34
 70
     1
102
RTVSPost2010Prop35
280
     0
102
RTVSPost2010PropOp35
 70
     1
102
RTVSPost2010Prop36
280
     0
102
RTVSPost2010PropOp36
 70
     1
102
RTVSPost2010Prop37
 90
       50
102
RTVSPost2010PropOp37
 70
     0
102
RTVSPost2010Prop38
140
0.0
102
RTVSPost2010PropOp38
 70
     0
102
RTVSPost2010Prop39
140
1.0
102
RTVSPost2010PropOp39
 70
     0
102
RTVSPost2010Prop40
 90
        0
102
RTVSPost2010PropOp40
 70
     0
102
RTVSPost2010Prop41ColorIndex
 90
       18
102
RTVSPost2010Prop41ColorRGB
 90
        0
102
RTVSPost2010PropOp41
 70
     0
102
RTVSPost2010Prop42
 90
       50
102
RTVSPost2010PropOp42
 70
     0
102
RTVSPost2010Prop43
 90
        3
102
RTVSPost2010PropOp43
 70
     0
102
RTVSPost2010Prop44ColorIndex
 90
        5
102
RTVSPost2010Prop44ColorRGB
 90
      255
102
RTVSPost2010PropOp44
 70
     0
102
RTVSPost2010Prop45
280
     0
102
RTVSPost2010PropOp45
 70
     1
102
RTVSPost2010Prop46
 90
       50
102
RTVSPost2010PropOp46
 70
     0
102
RTVSPost2010Prop47
 90
       50
102
RTVSPost2010PropOp47
 70
     0
102
RTVSPost2010Prop48
 90
       50
102
RTVSPost2010PropOp48
 70
     0
102
RTVSPost2010Prop49
280
     0
102
RTVSPost2010PropOp49
 70
     1
102
RTVSPost2010Prop50
 90
       50
102
RTVSPost2010PropOp50
 70
     0
102
RTVSPost2010Prop51ColorIndex
 90
      256
102
RTVSPost2010Prop51ColorRGB
 90
-16777216
102
RTVSPost2010PropOp51
 70
     0
102
RTVSPost2010Prop52
140
1.0
102
RTVSPost2010PropOp52
 70
     0
102
RTVSPost2010Prop53
 90
        2
102
RTVSPost2010PropOp53
 70
     0
102
RTVSPost2010Prop54
  1
strokes_ogs.tif
102
RTVSPost2010PropOp54
 70
     0
102
RTVSPost2010Prop55
280
     0
102
RTVSPost2010PropOp55
 70
     1
102
RTVSPost2010Prop56
140
1.0
102
RTVSPost2010PropOp56
 70
     0
102
RTVSPost2010Prop57
140
1.0
102
RTVSPost2010PropOp57
 70
     0
102
RTVSPropertyOp0
 70
     0
102
RTVSPropertyOp1
 70
     0
102
RTVSPropertyOp2
 70
     0
102
RTVSPropertyOp3
 70
     0
102
RTVSPropertyOp4
 70
     0
102
RTVSPropertyOp5
 70
     0
102
RTVSPropertyOp6
 70
     0
102
RTVSPropertyOp7
 70
     0
102
RTVSPropertyOp8
 70
     0
102
RTVSPropertyOp9
 70
     0
102
RTVSPropertyOp10
 70
     0
102
RTVSPropertyOp11
 70
     0
102
RTVSPropertyOp12
 70
     0
102
RTVSPropertyOp13
 70
     0
102
RTVSPropertyOp14
 70
     2
102
RTVSPropertyOp15
 70
     0
102
RTVSPropertyOp16
 70
     0
102
RTVSPropertyOp17
 70
     0
102
RTVSPropertyOp18
 70
     0
102
RTVSPropertyOp19
 70
     0
102
RTVSPropertyOp20
 70
     0
102
RTVSPropertyOp21
 70
     0
102
RTVSPropertyOp22
 70
     0
102
RTVSPropertyOp23
 70
     0
102
RTVSPropertyOp24
 70
     0
102
RTVSPropertyOp25
 70
     0
102
RTVSPropertyOp26
 70
     0
102
RTVSPropertyOp27
 70
     0
102
RTVSPropertyOp28
 70
     1
102
RTVSPropertyOp29
 70
     1
102
RTVSPropertyOp30
 70
     1
102
RTVSPropertyOp31
 70
     1
102
RTVSPropertyOp32
 70
     1
102
RTVSPropertyOp33
 70
     1
102
RTVSPropertyOp34
 70
     1
102
RTVSPropertyOp35
 70
     1
102
RTVSPropertyOp36
 70
     1
102
RTVSPropertyOp37
 70
     0
102
RTVSPropertyOp38
 70
     0
102
RTVSPropertyOp39
 70
     0
102
RTVSPropertyOp40
 70
     0
102
RTVSPropertyOp41
 70
     0
102
RTVSPropertyOp42
 70
     0
102
RTVSPropertyOp43
 70
     0
102
RTVSPropertyOp44
 70
     0
102
RTVSPropertyOp45
 70
     1
102
RTVSPropertyOp46
 70
     0
102
RTVSPropertyOp47
 70
     0
102
RTVSPropertyOp48
 70
     0
102
RTVSPropertyOp49
 70
     1
102
RTVSPropertyOp50
 70
     0
102
RTVSPropertyOp51
 70
     0
102
RTVSPropertyOp52
 70
     0
102
RTVSPropertyOp53
 70
     0
102
RTVSPropertyOp54
 70
     0
102
RTVSPropertyOp55
 70
     1
102
RTVSPropertyOp56
 70
     0
102
RTVSPropertyOp57
 70
     0
102
RTVSPropertyOp58
 70
     0
102
RTVSPropertyOp59
 70
     0
102
RTVSPropertyOp60
 70
     0
102
RTVSPropertyOp61
 70
     0
102
RTVSPropertyOp62
 70
     0
  0
XRECORD
  5
114DB
102
{ACAD_REACTORS
330
114DA
102
}
330
114DA
100
AcDbXrecord
280
     1
102
RTVSPost2010Prop28
280
     0
102
RTVSPost2010PropOp28
 70
     1
102
RTVSPost2010Prop29
280
     1
102
RTVSPost2010PropOp29
 70
     1
102
RTVSPost2010Prop30
280
     1
102
RTVSPost2010PropOp30
 70
     1
102
RTVSPost2010Prop31
280
     0
102
RTVSPost2010PropOp31
 70
     1
102
RTVSPost2010Prop32
280
     0
102
RTVSPost2010PropOp32
 70
     1
102
RTVSPost2010Prop33
280
     0
102
RTVSPost2010PropOp33
 70
     1
102
RTVSPost2010Prop34
280
     0
102
RTVSPost2010PropOp34
 70
     1
102
RTVSPost2010Prop35
280
     0
102
RTVSPost2010PropOp35
 70
     1
102
RTVSPost2010Prop36
280
     0
102
RTVSPost2010PropOp36
 70
     1
102
RTVSPost2010Prop37
 90
       50
102
RTVSPost2010PropOp37
 70
     1
102
RTVSPost2010Prop38
140
0.0
102
RTVSPost2010PropOp38
 70
     1
102
RTVSPost2010Prop39
140
1.0
102
RTVSPost2010PropOp39
 70
     1
102
RTVSPost2010Prop40
 90
        0
102
RTVSPost2010PropOp40
 70
     1
102
RTVSPost2010Prop41ColorIndex
 90
       18
102
RTVSPost2010Prop41ColorRGB
 90
        0
102
RTVSPost2010PropOp41
 70
     1
102
RTVSPost2010Prop42
 90
       50
102
RTVSPost2010PropOp42
 70
     1
102
RTVSPost2010Prop43
 90
        3
102
RTVSPost2010PropOp43
 70
     1
102
RTVSPost2010Prop44ColorIndex
 90
        5
102
RTVSPost2010Prop44ColorRGB
 90
      255
102
RTVSPost2010PropOp44
 70
     1
102
RTVSPost2010Prop45
280
     0
102
RTVSPost2010PropOp45
 70
     1
102
RTVSPost2010Prop46
 90
       50
102
RTVSPost2010PropOp46
 70
     1
102
RTVSPost2010Prop47
 90
       50
102
RTVSPost2010PropOp47
 70
     1
102
RTVSPost2010Prop48
 90
       50
102
RTVSPost2010PropOp48
 70
     1
102
RTVSPost2010Prop49
280
     0
102
RTVSPost2010PropOp49
 70
     1
102
RTVSPost2010Prop50
 90
       50
102
RTVSPost2010PropOp50
 70
     1
102
RTVSPost2010Prop51ColorIndex
 90
      256
102
RTVSPost2010Prop51ColorRGB
 90
-16777216
102
RTVSPost2010PropOp51
 70
     0
102
RTVSPost2010Prop52
140
1.0
102
RTVSPost2010PropOp52
 70
     0
102
RTVSPost2010Prop53
 90
        2
102
RTVSPost2010PropOp53
 70
     1
102
RTVSPost2010Prop54
  1
strokes_ogs.tif
102
RTVSPost2010PropOp54
 70
     1
102
RTVSPost2010Prop55
280
     0
102
RTVSPost2010PropOp55
 70
     1
102
RTVSPost2010Prop56
140
1.0
102
RTVSPost2010PropOp56
 70
     1
102
RTVSPost2010Prop57
140
1.0
102
RTVSPost2010PropOp57
 70
     1
102
RTVSPropertyOp0
 70
     1
102
RTVSPropertyOp1
 70
     1
102
RTVSPropertyOp2
 70
     1
102
RTVSPropertyOp3
 70
     1
102
RTVSPropertyOp4
 70
     1
102
RTVSPropertyOp5
 70
     1
102
RTVSPropertyOp6
 70
     1
102
RTVSPropertyOp7
 70
     1
102
RTVSPropertyOp8
 70
     1
102
RTVSPropertyOp9
 70
     1
102
RTVSPropertyOp10
 70
     1
102
RTVSPropertyOp11
 70
     1
102
RTVSPropertyOp12
 70
     1
102
RTVSPropertyOp13
 70
     1
102
RTVSPropertyOp14
 70
     1
102
RTVSPropertyOp15
 70
     1
102
RTVSPropertyOp16
 70
     1
102
RTVSPropertyOp17
 70
     1
102
RTVSPropertyOp18
 70
     1
102
RTVSPropertyOp19
 70
     1
102
RTVSPropertyOp20
 70
     1
102
RTVSPropertyOp21
 70
     1
102
RTVSPropertyOp22
 70
     1
102
RTVSPropertyOp23
 70
     1
102
RTVSPropertyOp24
 70
     1
102
RTVSPropertyOp25
 70
     1
102
RTVSPropertyOp26
 70
     1
102
RTVSPropertyOp27
 70
     1
102
RTVSPropertyOp28
 70
     1
102
RTVSPropertyOp29
 70
     1
102
RTVSPropertyOp30
 70
     1
102
RTVSPropertyOp31
 70
     1
102
RTVSPropertyOp32
 70
     1
102
RTVSPropertyOp33
 70
     1
102
RTVSPropertyOp34
 70
     1
102
RTVSPropertyOp35
 70
     1
102
RTVSPropertyOp36
 70
     1
102
RTVSPropertyOp37
 70
     1
102
RTVSPropertyOp38
 70
     1
102
RTVSPropertyOp39
 70
     1
102
RTVSPropertyOp40
 70
     1
102
RTVSPropertyOp41
 70
     1
102
RTVSPropertyOp42
 70
     1
102
RTVSPropertyOp43
 70
     1
102
RTVSPropertyOp44
 70
     1
102
RTVSPropertyOp45
 70
     1
102
RTVSPropertyOp46
 70
     1
102
RTVSPropertyOp47
 70
     1
102
RTVSPropertyOp48
 70
     1
102
RTVSPropertyOp49
 70
     1
102
RTVSPropertyOp50
 70
     1
102
RTVSPropertyOp51
 70
     0
102
RTVSPropertyOp52
 70
     0
102
RTVSPropertyOp53
 70
     1
102
RTVSPropertyOp54
 70
     1
102
RTVSPropertyOp55
 70
     1
102
RTVSPropertyOp56
 70
     1
102
RTVSPropertyOp57
 70
     1
102
RTVSPropertyOp58
 70
     1
102
RTVSPropertyOp59
 70
     1
102
RTVSPropertyOp60
 70
     1
102
RTVSPropertyOp61
 70
     1
102
RTVSPropertyOp62
 70
     1
  0
XRECORD
  5
114BF
102
{ACAD_REACTORS
330
114BE
102
}
330
114BE
100
AcDbXrecord
280
     1
102
RTVSPost2010Prop28
280
     0
102
RTVSPost2010PropOp28
 70
     1
102
RTVSPost2010Prop29
280
     1
102
RTVSPost2010PropOp29
 70
     1
102
RTVSPost2010Prop30
280
     1
102
RTVSPost2010PropOp30
 70
     1
102
RTVSPost2010Prop31
280
     0
102
RTVSPost2010PropOp31
 70
     1
102
RTVSPost2010Prop32
280
     0
102
RTVSPost2010PropOp32
 70
     1
102
RTVSPost2010Prop33
280
     0
102
RTVSPost2010PropOp33
 70
     1
102
RTVSPost2010Prop34
280
     0
102
RTVSPost2010PropOp34
 70
     1
102
RTVSPost2010Prop35
280
     0
102
RTVSPost2010PropOp35
 70
     1
102
RTVSPost2010Prop36
280
     0
102
RTVSPost2010PropOp36
 70
     1
102
RTVSPost2010Prop37
 90
       50
102
RTVSPost2010PropOp37
 70
     1
102
RTVSPost2010Prop38
140
0.0
102
RTVSPost2010PropOp38
 70
     1
102
RTVSPost2010Prop39
140
1.0
102
RTVSPost2010PropOp39
 70
     1
102
RTVSPost2010Prop40
 90
        0
102
RTVSPost2010PropOp40
 70
     1
102
RTVSPost2010Prop41ColorIndex
 90
       18
102
RTVSPost2010Prop41ColorRGB
 90
        0
102
RTVSPost2010PropOp41
 70
     1
102
RTVSPost2010Prop42
 90
       50
102
RTVSPost2010PropOp42
 70
     1
102
RTVSPost2010Prop43
 90
        3
102
RTVSPost2010PropOp43
 70
     1
102
RTVSPost2010Prop44ColorIndex
 90
        5
102
RTVSPost2010Prop44ColorRGB
 90
      255
102
RTVSPost2010PropOp44
 70
     1
102
RTVSPost2010Prop45
280
     0
102
RTVSPost2010PropOp45
 70
     1
102
RTVSPost2010Prop46
 90
       50
102
RTVSPost2010PropOp46
 70
     1
102
RTVSPost2010Prop47
 90
       50
102
RTVSPost2010PropOp47
 70
     1
102
RTVSPost2010Prop48
 90
       50
102
RTVSPost2010PropOp48
 70
     1
102
RTVSPost2010Prop49
280
     0
102
RTVSPost2010PropOp49
 70
     1
102
RTVSPost2010Prop50
 90
       50
102
RTVSPost2010PropOp50
 70
     1
102
RTVSPost2010Prop51ColorIndex
 90
      256
102
RTVSPost2010Prop51ColorRGB
 90
-16777216
102
RTVSPost2010PropOp51
 70
     0
102
RTVSPost2010Prop52
140
1.0
102
RTVSPost2010PropOp52
 70
     0
102
RTVSPost2010Prop53
 90
        2
102
RTVSPost2010PropOp53
 70
     1
102
RTVSPost2010Prop54
  1
strokes_ogs.tif
102
RTVSPost2010PropOp54
 70
     1
102
RTVSPost2010Prop55
280
     0
102
RTVSPost2010PropOp55
 70
     1
102
RTVSPost2010Prop56
140
1.0
102
RTVSPost2010PropOp56
 70
     1
102
RTVSPost2010Prop57
140
1.0
102
RTVSPost2010PropOp57
 70
     1
102
RTVSPropertyOp0
 70
     1
102
RTVSPropertyOp1
 70
     1
102
RTVSPropertyOp2
 70
     1
102
RTVSPropertyOp3
 70
     1
102
RTVSPropertyOp4
 70
     1
102
RTVSPropertyOp5
 70
     1
102
RTVSPropertyOp6
 70
     1
102
RTVSPropertyOp7
 70
     1
102
RTVSPropertyOp8
 70
     1
102
RTVSPropertyOp9
 70
     1
102
RTVSPropertyOp10
 70
     1
102
RTVSPropertyOp11
 70
     1
102
RTVSPropertyOp12
 70
     1
102
RTVSPropertyOp13
 70
     1
102
RTVSPropertyOp14
 70
     1
102
RTVSPropertyOp15
 70
     1
102
RTVSPropertyOp16
 70
     1
102
RTVSPropertyOp17
 70
     1
102
RTVSPropertyOp18
 70
     1
102
RTVSPropertyOp19
 70
     1
102
RTVSPropertyOp20
 70
     1
102
RTVSPropertyOp21
 70
     1
102
RTVSPropertyOp22
 70
     1
102
RTVSPropertyOp23
 70
     1
102
RTVSPropertyOp24
 70
     1
102
RTVSPropertyOp25
 70
     1
102
RTVSPropertyOp26
 70
     1
102
RTVSPropertyOp27
 70
     1
102
RTVSPropertyOp28
 70
     1
102
RTVSPropertyOp29
 70
     1
102
RTVSPropertyOp30
 70
     1
102
RTVSPropertyOp31
 70
     1
102
RTVSPropertyOp32
 70
     1
102
RTVSPropertyOp33
 70
     1
102
RTVSPropertyOp34
 70
     1
102
RTVSPropertyOp35
 70
     1
102
RTVSPropertyOp36
 70
     1
102
RTVSPropertyOp37
 70
     1
102
RTVSPropertyOp38
 70
     1
102
RTVSPropertyOp39
 70
     1
102
RTVSPropertyOp40
 70
     1
102
RTVSPropertyOp41
 70
     1
102
RTVSPropertyOp42
 70
     1
102
RTVSPropertyOp43
 70
     1
102
RTVSPropertyOp44
 70
     1
102
RTVSPropertyOp45
 70
     1
102
RTVSPropertyOp46
 70
     1
102
RTVSPropertyOp47
 70
     1
102
RTVSPropertyOp48
 70
     1
102
RTVSPropertyOp49
 70
     1
102
RTVSPropertyOp50
 70
     1
102
RTVSPropertyOp51
 70
     0
102
RTVSPropertyOp52
 70
     0
102
RTVSPropertyOp53
 70
     1
102
RTVSPropertyOp54
 70
     1
102
RTVSPropertyOp55
 70
     1
102
RTVSPropertyOp56
 70
     1
102
RTVSPropertyOp57
 70
     1
102
RTVSPropertyOp58
 70
     1
102
RTVSPropertyOp59
 70
     1
102
RTVSPropertyOp60
 70
     1
102
RTVSPropertyOp61
 70
     1
102
RTVSPropertyOp62
 70
     1
  0
XRECORD
  5
114C1
102
{ACAD_REACTORS
330
114C0
102
}
330
114C0
100
AcDbXrecord
280
     1
102
RTVSPost2010Prop28
280
     0
102
RTVSPost2010PropOp28
 70
     1
102
RTVSPost2010Prop29
280
     1
102
RTVSPost2010PropOp29
 70
     1
102
RTVSPost2010Prop30
280
     1
102
RTVSPost2010PropOp30
 70
     1
102
RTVSPost2010Prop31
280
     0
102
RTVSPost2010PropOp31
 70
     1
102
RTVSPost2010Prop32
280
     0
102
RTVSPost2010PropOp32
 70
     1
102
RTVSPost2010Prop33
280
     0
102
RTVSPost2010PropOp33
 70
     1
102
RTVSPost2010Prop34
280
     0
102
RTVSPost2010PropOp34
 70
     1
102
RTVSPost2010Prop35
280
     0
102
RTVSPost2010PropOp35
 70
     1
102
RTVSPost2010Prop36
280
     0
102
RTVSPost2010PropOp36
 70
     1
102
RTVSPost2010Prop37
 90
       50
102
RTVSPost2010PropOp37
 70
     1
102
RTVSPost2010Prop38
140
0.0
102
RTVSPost2010PropOp38
 70
     1
102
RTVSPost2010Prop39
140
1.0
102
RTVSPost2010PropOp39
 70
     1
102
RTVSPost2010Prop40
 90
        0
102
RTVSPost2010PropOp40
 70
     1
102
RTVSPost2010Prop41ColorIndex
 90
       18
102
RTVSPost2010Prop41ColorRGB
 90
        0
102
RTVSPost2010PropOp41
 70
     1
102
RTVSPost2010Prop42
 90
       50
102
RTVSPost2010PropOp42
 70
     1
102
RTVSPost2010Prop43
 90
        3
102
RTVSPost2010PropOp43
 70
     1
102
RTVSPost2010Prop44ColorIndex
 90
        5
102
RTVSPost2010Prop44ColorRGB
 90
      255
102
RTVSPost2010PropOp44
 70
     1
102
RTVSPost2010Prop45
280
     0
102
RTVSPost2010PropOp45
 70
     1
102
RTVSPost2010Prop46
 90
       50
102
RTVSPost2010PropOp46
 70
     1
102
RTVSPost2010Prop47
 90
       50
102
RTVSPost2010PropOp47
 70
     1
102
RTVSPost2010Prop48
 90
       50
102
RTVSPost2010PropOp48
 70
     1
102
RTVSPost2010Prop49
280
     0
102
RTVSPost2010PropOp49
 70
     1
102
RTVSPost2010Prop50
 90
       50
102
RTVSPost2010PropOp50
 70
     1
102
RTVSPost2010Prop51ColorIndex
 90
      256
102
RTVSPost2010Prop51ColorRGB
 90
-16777216
102
RTVSPost2010PropOp51
 70
     0
102
RTVSPost2010Prop52
140
1.0
102
RTVSPost2010PropOp52
 70
     0
102
RTVSPost2010Prop53
 90
        2
102
RTVSPost2010PropOp53
 70
     1
102
RTVSPost2010Prop54
  1
strokes_ogs.tif
102
RTVSPost2010PropOp54
 70
     1
102
RTVSPost2010Prop55
280
     0
102
RTVSPost2010PropOp55
 70
     1
102
RTVSPost2010Prop56
140
1.0
102
RTVSPost2010PropOp56
 70
     1
102
RTVSPost2010Prop57
140
1.0
102
RTVSPost2010PropOp57
 70
     1
102
RTVSPropertyOp0
 70
     1
102
RTVSPropertyOp1
 70
     1
102
RTVSPropertyOp2
 70
     1
102
RTVSPropertyOp3
 70
     1
102
RTVSPropertyOp4
 70
     1
102
RTVSPropertyOp5
 70
     1
102
RTVSPropertyOp6
 70
     1
102
RTVSPropertyOp7
 70
     1
102
RTVSPropertyOp8
 70
     1
102
RTVSPropertyOp9
 70
     1
102
RTVSPropertyOp10
 70
     1
102
RTVSPropertyOp11
 70
     1
102
RTVSPropertyOp12
 70
     1
102
RTVSPropertyOp13
 70
     1
102
RTVSPropertyOp14
 70
     1
102
RTVSPropertyOp15
 70
     1
102
RTVSPropertyOp16
 70
     1
102
RTVSPropertyOp17
 70
     1
102
RTVSPropertyOp18
 70
     1
102
RTVSPropertyOp19
 70
     1
102
RTVSPropertyOp20
 70
     1
102
RTVSPropertyOp21
 70
     1
102
RTVSPropertyOp22
 70
     1
102
RTVSPropertyOp23
 70
     1
102
RTVSPropertyOp24
 70
     1
102
RTVSPropertyOp25
 70
     1
102
RTVSPropertyOp26
 70
     1
102
RTVSPropertyOp27
 70
     1
102
RTVSPropertyOp28
 70
     1
102
RTVSPropertyOp29
 70
     1
102
RTVSPropertyOp30
 70
     1
102
RTVSPropertyOp31
 70
     1
102
RTVSPropertyOp32
 70
     1
102
RTVSPropertyOp33
 70
     1
102
RTVSPropertyOp34
 70
     1
102
RTVSPropertyOp35
 70
     1
102
RTVSPropertyOp36
 70
     1
102
RTVSPropertyOp37
 70
     1
102
RTVSPropertyOp38
 70
     1
102
RTVSPropertyOp39
 70
     1
102
RTVSPropertyOp40
 70
     1
102
RTVSPropertyOp41
 70
     1
102
RTVSPropertyOp42
 70
     1
102
RTVSPropertyOp43
 70
     1
102
RTVSPropertyOp44
 70
     1
102
RTVSPropertyOp45
 70
     1
102
RTVSPropertyOp46
 70
     1
102
RTVSPropertyOp47
 70
     1
102
RTVSPropertyOp48
 70
     1
102
RTVSPropertyOp49
 70
     1
102
RTVSPropertyOp50
 70
     1
102
RTVSPropertyOp51
 70
     0
102
RTVSPropertyOp52
 70
     0
102
RTVSPropertyOp53
 70
     1
102
RTVSPropertyOp54
 70
     1
102
RTVSPropertyOp55
 70
     1
102
RTVSPropertyOp56
 70
     1
102
RTVSPropertyOp57
 70
     1
102
RTVSPropertyOp58
 70
     1
102
RTVSPropertyOp59
 70
     1
102
RTVSPropertyOp60
 70
     1
102
RTVSPropertyOp61
 70
     1
102
RTVSPropertyOp62
 70
     1
  0
XRECORD
  5
114C3
102
{ACAD_REACTORS
330
114C2
102
}
330
114C2
100
AcDbXrecord
280
     1
102
RTVSPost2010Prop28
280
     0
102
RTVSPost2010PropOp28
 70
     1
102
RTVSPost2010Prop29
280
     1
102
RTVSPost2010PropOp29
 70
     1
102
RTVSPost2010Prop30
280
     1
102
RTVSPost2010PropOp30
 70
     1
102
RTVSPost2010Prop31
280
     0
102
RTVSPost2010PropOp31
 70
     1
102
RTVSPost2010Prop32
280
     0
102
RTVSPost2010PropOp32
 70
     1
102
RTVSPost2010Prop33
280
     0
102
RTVSPost2010PropOp33
 70
     1
102
RTVSPost2010Prop34
280
     0
102
RTVSPost2010PropOp34
 70
     1
102
RTVSPost2010Prop35
280
     0
102
RTVSPost2010PropOp35
 70
     1
102
RTVSPost2010Prop36
280
     0
102
RTVSPost2010PropOp36
 70
     1
102
RTVSPost2010Prop37
 90
       50
102
RTVSPost2010PropOp37
 70
     1
102
RTVSPost2010Prop38
140
0.0
102
RTVSPost2010PropOp38
 70
     1
102
RTVSPost2010Prop39
140
1.0
102
RTVSPost2010PropOp39
 70
     1
102
RTVSPost2010Prop40
 90
        0
102
RTVSPost2010PropOp40
 70
     1
102
RTVSPost2010Prop41ColorIndex
 90
       18
102
RTVSPost2010Prop41ColorRGB
 90
        0
102
RTVSPost2010PropOp41
 70
     1
102
RTVSPost2010Prop42
 90
       50
102
RTVSPost2010PropOp42
 70
     1
102
RTVSPost2010Prop43
 90
        3
102
RTVSPost2010PropOp43
 70
     1
102
RTVSPost2010Prop44ColorIndex
 90
        5
102
RTVSPost2010Prop44ColorRGB
 90
      255
102
RTVSPost2010PropOp44
 70
     1
102
RTVSPost2010Prop45
280
     0
102
RTVSPost2010PropOp45
 70
     1
102
RTVSPost2010Prop46
 90
       50
102
RTVSPost2010PropOp46
 70
     1
102
RTVSPost2010Prop47
 90
       50
102
RTVSPost2010PropOp47
 70
     1
102
RTVSPost2010Prop48
 90
       50
102
RTVSPost2010PropOp48
 70
     1
102
RTVSPost2010Prop49
280
     0
102
RTVSPost2010PropOp49
 70
     1
102
RTVSPost2010Prop50
 90
       50
102
RTVSPost2010PropOp50
 70
     1
102
RTVSPost2010Prop51ColorIndex
 90
      256
102
RTVSPost2010Prop51ColorRGB
 90
-16777216
102
RTVSPost2010PropOp51
 70
     0
102
RTVSPost2010Prop52
140
1.0
102
RTVSPost2010PropOp52
 70
     0
102
RTVSPost2010Prop53
 90
        2
102
RTVSPost2010PropOp53
 70
     1
102
RTVSPost2010Prop54
  1
strokes_ogs.tif
102
RTVSPost2010PropOp54
 70
     1
102
RTVSPost2010Prop55
280
     0
102
RTVSPost2010PropOp55
 70
     1
102
RTVSPost2010Prop56
140
1.0
102
RTVSPost2010PropOp56
 70
     1
102
RTVSPost2010Prop57
140
1.0
102
RTVSPost2010PropOp57
 70
     1
102
RTVSPropertyOp0
 70
     1
102
RTVSPropertyOp1
 70
     1
102
RTVSPropertyOp2
 70
     1
102
RTVSPropertyOp3
 70
     1
102
RTVSPropertyOp4
 70
     1
102
RTVSPropertyOp5
 70
     1
102
RTVSPropertyOp6
 70
     1
102
RTVSPropertyOp7
 70
     1
102
RTVSPropertyOp8
 70
     1
102
RTVSPropertyOp9
 70
     1
102
RTVSPropertyOp10
 70
     1
102
RTVSPropertyOp11
 70
     1
102
RTVSPropertyOp12
 70
     1
102
RTVSPropertyOp13
 70
     1
102
RTVSPropertyOp14
 70
     1
102
RTVSPropertyOp15
 70
     1
102
RTVSPropertyOp16
 70
     1
102
RTVSPropertyOp17
 70
     1
102
RTVSPropertyOp18
 70
     1
102
RTVSPropertyOp19
 70
     1
102
RTVSPropertyOp20
 70
     1
102
RTVSPropertyOp21
 70
     1
102
RTVSPropertyOp22
 70
     1
102
RTVSPropertyOp23
 70
     1
102
RTVSPropertyOp24
 70
     1
102
RTVSPropertyOp25
 70
     1
102
RTVSPropertyOp26
 70
     1
102
RTVSPropertyOp27
 70
     1
102
RTVSPropertyOp28
 70
     1
102
RTVSPropertyOp29
 70
     1
102
RTVSPropertyOp30
 70
     1
102
RTVSPropertyOp31
 70
     1
102
RTVSPropertyOp32
 70
     1
102
RTVSPropertyOp33
 70
     1
102
RTVSPropertyOp34
 70
     1
102
RTVSPropertyOp35
 70
     1
102
RTVSPropertyOp36
 70
     1
102
RTVSPropertyOp37
 70
     1
102
RTVSPropertyOp38
 70
     1
102
RTVSPropertyOp39
 70
     1
102
RTVSPropertyOp40
 70
     1
102
RTVSPropertyOp41
 70
     1
102
RTVSPropertyOp42
 70
     1
102
RTVSPropertyOp43
 70
     1
102
RTVSPropertyOp44
 70
     1
102
RTVSPropertyOp45
 70
     1
102
RTVSPropertyOp46
 70
     1
102
RTVSPropertyOp47
 70
     1
102
RTVSPropertyOp48
 70
     1
102
RTVSPropertyOp49
 70
     1
102
RTVSPropertyOp50
 70
     1
102
RTVSPropertyOp51
 70
     0
102
RTVSPropertyOp52
 70
     0
102
RTVSPropertyOp53
 70
     1
102
RTVSPropertyOp54
 70
     1
102
RTVSPropertyOp55
 70
     1
102
RTVSPropertyOp56
 70
     1
102
RTVSPropertyOp57
 70
     1
102
RTVSPropertyOp58
 70
     1
102
RTVSPropertyOp59
 70
     1
102
RTVSPropertyOp60
 70
     1
102
RTVSPropertyOp61
 70
     1
102
RTVSPropertyOp62
 70
     1
  0
XRECORD
  5
114C5
102
{ACAD_REACTORS
330
114C4
102
}
330
114C4
100
AcDbXrecord
280
     1
102
RTVSPost2010Prop28
280
     0
102
RTVSPost2010PropOp28
 70
     1
102
RTVSPost2010Prop29
280
     1
102
RTVSPost2010PropOp29
 70
     1
102
RTVSPost2010Prop30
280
     1
102
RTVSPost2010PropOp30
 70
     1
102
RTVSPost2010Prop31
280
     0
102
RTVSPost2010PropOp31
 70
     1
102
RTVSPost2010Prop32
280
     0
102
RTVSPost2010PropOp32
 70
     1
102
RTVSPost2010Prop33
280
     0
102
RTVSPost2010PropOp33
 70
     1
102
RTVSPost2010Prop34
280
     0
102
RTVSPost2010PropOp34
 70
     1
102
RTVSPost2010Prop35
280
     0
102
RTVSPost2010PropOp35
 70
     1
102
RTVSPost2010Prop36
280
     0
102
RTVSPost2010PropOp36
 70
     1
102
RTVSPost2010Prop37
 90
       50
102
RTVSPost2010PropOp37
 70
     1
102
RTVSPost2010Prop38
140
0.0
102
RTVSPost2010PropOp38
 70
     1
102
RTVSPost2010Prop39
140
1.0
102
RTVSPost2010PropOp39
 70
     1
102
RTVSPost2010Prop40
 90
        0
102
RTVSPost2010PropOp40
 70
     1
102
RTVSPost2010Prop41ColorIndex
 90
       18
102
RTVSPost2010Prop41ColorRGB
 90
        0
102
RTVSPost2010PropOp41
 70
     1
102
RTVSPost2010Prop42
 90
       50
102
RTVSPost2010PropOp42
 70
     1
102
RTVSPost2010Prop43
 90
        3
102
RTVSPost2010PropOp43
 70
     1
102
RTVSPost2010Prop44ColorIndex
 90
        5
102
RTVSPost2010Prop44ColorRGB
 90
      255
102
RTVSPost2010PropOp44
 70
     1
102
RTVSPost2010Prop45
280
     0
102
RTVSPost2010PropOp45
 70
     1
102
RTVSPost2010Prop46
 90
       50
102
RTVSPost2010PropOp46
 70
     1
102
RTVSPost2010Prop47
 90
       50
102
RTVSPost2010PropOp47
 70
     1
102
RTVSPost2010Prop48
 90
       50
102
RTVSPost2010PropOp48
 70
     1
102
RTVSPost2010Prop49
280
     0
102
RTVSPost2010PropOp49
 70
     1
102
RTVSPost2010Prop50
 90
       50
102
RTVSPost2010PropOp50
 70
     1
102
RTVSPost2010Prop51ColorIndex
 90
      256
102
RTVSPost2010Prop51ColorRGB
 90
-16777216
102
RTVSPost2010PropOp51
 70
     0
102
RTVSPost2010Prop52
140
1.0
102
RTVSPost2010PropOp52
 70
     0
102
RTVSPost2010Prop53
 90
        2
102
RTVSPost2010PropOp53
 70
     1
102
RTVSPost2010Prop54
  1
strokes_ogs.tif
102
RTVSPost2010PropOp54
 70
     1
102
RTVSPost2010Prop55
280
     0
102
RTVSPost2010PropOp55
 70
     1
102
RTVSPost2010Prop56
140
1.0
102
RTVSPost2010PropOp56
 70
     1
102
RTVSPost2010Prop57
140
1.0
102
RTVSPost2010PropOp57
 70
     1
102
RTVSPropertyOp0
 70
     1
102
RTVSPropertyOp1
 70
     1
102
RTVSPropertyOp2
 70
     1
102
RTVSPropertyOp3
 70
     1
102
RTVSPropertyOp4
 70
     1
102
RTVSPropertyOp5
 70
     1
102
RTVSPropertyOp6
 70
     1
102
RTVSPropertyOp7
 70
     1
102
RTVSPropertyOp8
 70
     1
102
RTVSPropertyOp9
 70
     1
102
RTVSPropertyOp10
 70
     1
102
RTVSPropertyOp11
 70
     1
102
RTVSPropertyOp12
 70
     1
102
RTVSPropertyOp13
 70
     1
102
RTVSPropertyOp14
 70
     1
102
RTVSPropertyOp15
 70
     1
102
RTVSPropertyOp16
 70
     1
102
RTVSPropertyOp17
 70
     1
102
RTVSPropertyOp18
 70
     1
102
RTVSPropertyOp19
 70
     1
102
RTVSPropertyOp20
 70
     1
102
RTVSPropertyOp21
 70
     1
102
RTVSPropertyOp22
 70
     1
102
RTVSPropertyOp23
 70
     1
102
RTVSPropertyOp24
 70
     1
102
RTVSPropertyOp25
 70
     1
102
RTVSPropertyOp26
 70
     1
102
RTVSPropertyOp27
 70
     1
102
RTVSPropertyOp28
 70
     1
102
RTVSPropertyOp29
 70
     1
102
RTVSPropertyOp30
 70
     1
102
RTVSPropertyOp31
 70
     1
102
RTVSPropertyOp32
 70
     1
102
RTVSPropertyOp33
 70
     1
102
RTVSPropertyOp34
 70
     1
102
RTVSPropertyOp35
 70
     1
102
RTVSPropertyOp36
 70
     1
102
RTVSPropertyOp37
 70
     1
102
RTVSPropertyOp38
 70
     1
102
RTVSPropertyOp39
 70
     1
102
RTVSPropertyOp40
 70
     1
102
RTVSPropertyOp41
 70
     1
102
RTVSPropertyOp42
 70
     1
102
RTVSPropertyOp43
 70
     1
102
RTVSPropertyOp44
 70
     1
102
RTVSPropertyOp45
 70
     1
102
RTVSPropertyOp46
 70
     1
102
RTVSPropertyOp47
 70
     1
102
RTVSPropertyOp48
 70
     1
102
RTVSPropertyOp49
 70
     1
102
RTVSPropertyOp50
 70
     1
102
RTVSPropertyOp51
 70
     0
102
RTVSPropertyOp52
 70
     0
102
RTVSPropertyOp53
 70
     1
102
RTVSPropertyOp54
 70
     1
102
RTVSPropertyOp55
 70
     1
102
RTVSPropertyOp56
 70
     1
102
RTVSPropertyOp57
 70
     1
102
RTVSPropertyOp58
 70
     1
102
RTVSPropertyOp59
 70
     1
102
RTVSPropertyOp60
 70
     1
102
RTVSPropertyOp61
 70
     1
102
RTVSPropertyOp62
 70
     1
  0
XRECORD
  5
114CD
102
{ACAD_REACTORS
330
114CC
102
}
330
114CC
100
AcDbXrecord
280
     1
102
RTVSPost2010Prop28
280
     0
102
RTVSPost2010PropOp28
 70
     1
102
RTVSPost2010Prop29
280
     1
102
RTVSPost2010PropOp29
 70
     1
102
RTVSPost2010Prop30
280
     1
102
RTVSPost2010PropOp30
 70
     1
102
RTVSPost2010Prop31
280
     0
102
RTVSPost2010PropOp31
 70
     1
102
RTVSPost2010Prop32
280
     0
102
RTVSPost2010PropOp32
 70
     1
102
RTVSPost2010Prop33
280
     0
102
RTVSPost2010PropOp33
 70
     1
102
RTVSPost2010Prop34
280
     0
102
RTVSPost2010PropOp34
 70
     1
102
RTVSPost2010Prop35
280
     0
102
RTVSPost2010PropOp35
 70
     1
102
RTVSPost2010Prop36
280
     0
102
RTVSPost2010PropOp36
 70
     1
102
RTVSPost2010Prop37
 90
       50
102
RTVSPost2010PropOp37
 70
     1
102
RTVSPost2010Prop38
140
0.0
102
RTVSPost2010PropOp38
 70
     1
102
RTVSPost2010Prop39
140
1.0
102
RTVSPost2010PropOp39
 70
     1
102
RTVSPost2010Prop40
 90
        0
102
RTVSPost2010PropOp40
 70
     1
102
RTVSPost2010Prop41ColorIndex
 90
       18
102
RTVSPost2010Prop41ColorRGB
 90
        0
102
RTVSPost2010PropOp41
 70
     1
102
RTVSPost2010Prop42
 90
       50
102
RTVSPost2010PropOp42
 70
     1
102
RTVSPost2010Prop43
 90
        3
102
RTVSPost2010PropOp43
 70
     1
102
RTVSPost2010Prop44ColorIndex
 90
        5
102
RTVSPost2010Prop44ColorRGB
 90
      255
102
RTVSPost2010PropOp44
 70
     1
102
RTVSPost2010Prop45
280
     0
102
RTVSPost2010PropOp45
 70
     1
102
RTVSPost2010Prop46
 90
       50
102
RTVSPost2010PropOp46
 70
     1
102
RTVSPost2010Prop47
 90
       50
102
RTVSPost2010PropOp47
 70
     1
102
RTVSPost2010Prop48
 90
       50
102
RTVSPost2010PropOp48
 70
     1
102
RTVSPost2010Prop49
280
     0
102
RTVSPost2010PropOp49
 70
     1
102
RTVSPost2010Prop50
 90
       50
102
RTVSPost2010PropOp50
 70
     1
102
RTVSPost2010Prop51ColorIndex
 90
      256
102
RTVSPost2010Prop51ColorRGB
 90
-16777216
102
RTVSPost2010PropOp51
 70
     0
102
RTVSPost2010Prop52
140
1.0
102
RTVSPost2010PropOp52
 70
     0
102
RTVSPost2010Prop53
 90
        2
102
RTVSPost2010PropOp53
 70
     1
102
RTVSPost2010Prop54
  1
strokes_ogs.tif
102
RTVSPost2010PropOp54
 70
     1
102
RTVSPost2010Prop55
280
     0
102
RTVSPost2010PropOp55
 70
     1
102
RTVSPost2010Prop56
140
1.0
102
RTVSPost2010PropOp56
 70
     1
102
RTVSPost2010Prop57
140
1.0
102
RTVSPost2010PropOp57
 70
     1
102
RTVSPropertyOp0
 70
     1
102
RTVSPropertyOp1
 70
     1
102
RTVSPropertyOp2
 70
     1
102
RTVSPropertyOp3
 70
     1
102
RTVSPropertyOp4
 70
     1
102
RTVSPropertyOp5
 70
     1
102
RTVSPropertyOp6
 70
     1
102
RTVSPropertyOp7
 70
     1
102
RTVSPropertyOp8
 70
     1
102
RTVSPropertyOp9
 70
     1
102
RTVSPropertyOp10
 70
     1
102
RTVSPropertyOp11
 70
     1
102
RTVSPropertyOp12
 70
     1
102
RTVSPropertyOp13
 70
     1
102
RTVSPropertyOp14
 70
     1
102
RTVSPropertyOp15
 70
     1
102
RTVSPropertyOp16
 70
     1
102
RTVSPropertyOp17
 70
     1
102
RTVSPropertyOp18
 70
     1
102
RTVSPropertyOp19
 70
     1
102
RTVSPropertyOp20
 70
     1
102
RTVSPropertyOp21
 70
     1
102
RTVSPropertyOp22
 70
     1
102
RTVSPropertyOp23
 70
     1
102
RTVSPropertyOp24
 70
     1
102
RTVSPropertyOp25
 70
     1
102
RTVSPropertyOp26
 70
     1
102
RTVSPropertyOp27
 70
     1
102
RTVSPropertyOp28
 70
     1
102
RTVSPropertyOp29
 70
     1
102
RTVSPropertyOp30
 70
     1
102
RTVSPropertyOp31
 70
     1
102
RTVSPropertyOp32
 70
     1
102
RTVSPropertyOp33
 70
     1
102
RTVSPropertyOp34
 70
     1
102
RTVSPropertyOp35
 70
     1
102
RTVSPropertyOp36
 70
     1
102
RTVSPropertyOp37
 70
     1
102
RTVSPropertyOp38
 70
     1
102
RTVSPropertyOp39
 70
     1
102
RTVSPropertyOp40
 70
     1
102
RTVSPropertyOp41
 70
     1
102
RTVSPropertyOp42
 70
     1
102
RTVSPropertyOp43
 70
     1
102
RTVSPropertyOp44
 70
     1
102
RTVSPropertyOp45
 70
     1
102
RTVSPropertyOp46
 70
     1
102
RTVSPropertyOp47
 70
     1
102
RTVSPropertyOp48
 70
     1
102
RTVSPropertyOp49
 70
     1
102
RTVSPropertyOp50
 70
     1
102
RTVSPropertyOp51
 70
     0
102
RTVSPropertyOp52
 70
     0
102
RTVSPropertyOp53
 70
     1
102
RTVSPropertyOp54
 70
     1
102
RTVSPropertyOp55
 70
     1
102
RTVSPropertyOp56
 70
     1
102
RTVSPropertyOp57
 70
     1
102
RTVSPropertyOp58
 70
     1
102
RTVSPropertyOp59
 70
     1
102
RTVSPropertyOp60
 70
     1
102
RTVSPropertyOp61
 70
     1
102
RTVSPropertyOp62
 70
     1
  0
XRECORD
  5
114E9
102
{ACAD_REACTORS
330
114E8
102
}
330
114E8
100
AcDbXrecord
280
     1
102
RTVSPost2010Prop28
280
     0
102
RTVSPost2010PropOp28
 70
     1
102
RTVSPost2010Prop29
280
     1
102
RTVSPost2010PropOp29
 70
     1
102
RTVSPost2010Prop30
280
     1
102
RTVSPost2010PropOp30
 70
     1
102
RTVSPost2010Prop31
280
     0
102
RTVSPost2010PropOp31
 70
     1
102
RTVSPost2010Prop32
280
     0
102
RTVSPost2010PropOp32
 70
     1
102
RTVSPost2010Prop33
280
     0
102
RTVSPost2010PropOp33
 70
     1
102
RTVSPost2010Prop34
280
     0
102
RTVSPost2010PropOp34
 70
     1
102
RTVSPost2010Prop35
280
     0
102
RTVSPost2010PropOp35
 70
     1
102
RTVSPost2010Prop36
280
     0
102
RTVSPost2010PropOp36
 70
     1
102
RTVSPost2010Prop37
 90
       50
102
RTVSPost2010PropOp37
 70
     0
102
RTVSPost2010Prop38
140
0.0
102
RTVSPost2010PropOp38
 70
     0
102
RTVSPost2010Prop39
140
1.0
102
RTVSPost2010PropOp39
 70
     0
102
RTVSPost2010Prop40
 90
        0
102
RTVSPost2010PropOp40
 70
     0
102
RTVSPost2010Prop41ColorIndex
 90
       18
102
RTVSPost2010Prop41ColorRGB
 90
        0
102
RTVSPost2010PropOp41
 70
     0
102
RTVSPost2010Prop42
 90
       50
102
RTVSPost2010PropOp42
 70
     0
102
RTVSPost2010Prop43
 90
        3
102
RTVSPost2010PropOp43
 70
     0
102
RTVSPost2010Prop44ColorIndex
 90
        5
102
RTVSPost2010Prop44ColorRGB
 90
      255
102
RTVSPost2010PropOp44
 70
     0
102
RTVSPost2010Prop45
280
     0
102
RTVSPost2010PropOp45
 70
     1
102
RTVSPost2010Prop46
 90
       50
102
RTVSPost2010PropOp46
 70
     0
102
RTVSPost2010Prop47
 90
       50
102
RTVSPost2010PropOp47
 70
     0
102
RTVSPost2010Prop48
 90
       50
102
RTVSPost2010PropOp48
 70
     0
102
RTVSPost2010Prop49
280
     0
102
RTVSPost2010PropOp49
 70
     1
102
RTVSPost2010Prop50
 90
       50
102
RTVSPost2010PropOp50
 70
     0
102
RTVSPost2010Prop51ColorIndex
 90
      256
102
RTVSPost2010Prop51ColorRGB
 90
-16777216
102
RTVSPost2010PropOp51
 70
     0
102
RTVSPost2010Prop52
140
1.0
102
RTVSPost2010PropOp52
 70
     0
102
RTVSPost2010Prop53
 90
        2
102
RTVSPost2010PropOp53
 70
     0
102
RTVSPost2010Prop54
  1
strokes_ogs.tif
102
RTVSPost2010PropOp54
 70
     0
102
RTVSPost2010Prop55
280
     0
102
RTVSPost2010PropOp55
 70
     1
102
RTVSPost2010Prop56
140
1.0
102
RTVSPost2010PropOp56
 70
     0
102
RTVSPost2010Prop57
140
1.0
102
RTVSPost2010PropOp57
 70
     0
102
RTVSPropertyOp0
 70
     0
102
RTVSPropertyOp1
 70
     0
102
RTVSPropertyOp2
 70
     0
102
RTVSPropertyOp3
 70
     0
102
RTVSPropertyOp4
 70
     0
102
RTVSPropertyOp5
 70
     0
102
RTVSPropertyOp6
 70
     0
102
RTVSPropertyOp7
 70
     0
102
RTVSPropertyOp8
 70
     0
102
RTVSPropertyOp9
 70
     0
102
RTVSPropertyOp10
 70
     0
102
RTVSPropertyOp11
 70
     0
102
RTVSPropertyOp12
 70
     0
102
RTVSPropertyOp13
 70
     0
102
RTVSPropertyOp14
 70
     2
102
RTVSPropertyOp15
 70
     0
102
RTVSPropertyOp16
 70
     0
102
RTVSPropertyOp17
 70
     0
102
RTVSPropertyOp18
 70
     0
102
RTVSPropertyOp19
 70
     0
102
RTVSPropertyOp20
 70
     0
102
RTVSPropertyOp21
 70
     0
102
RTVSPropertyOp22
 70
     0
102
RTVSPropertyOp23
 70
     0
102
RTVSPropertyOp24
 70
     0
102
RTVSPropertyOp25
 70
     0
102
RTVSPropertyOp26
 70
     0
102
RTVSPropertyOp27
 70
     0
102
RTVSPropertyOp28
 70
     1
102
RTVSPropertyOp29
 70
     1
102
RTVSPropertyOp30
 70
     1
102
RTVSPropertyOp31
 70
     1
102
RTVSPropertyOp32
 70
     1
102
RTVSPropertyOp33
 70
     1
102
RTVSPropertyOp34
 70
     1
102
RTVSPropertyOp35
 70
     1
102
RTVSPropertyOp36
 70
     1
102
RTVSPropertyOp37
 70
     0
102
RTVSPropertyOp38
 70
     0
102
RTVSPropertyOp39
 70
     0
102
RTVSPropertyOp40
 70
     0
102
RTVSPropertyOp41
 70
     0
102
RTVSPropertyOp42
 70
     0
102
RTVSPropertyOp43
 70
     0
102
RTVSPropertyOp44
 70
     0
102
RTVSPropertyOp45
 70
     1
102
RTVSPropertyOp46
 70
     0
102
RTVSPropertyOp47
 70
     0
102
RTVSPropertyOp48
 70
     0
102
RTVSPropertyOp49
 70
     1
102
RTVSPropertyOp50
 70
     0
102
RTVSPropertyOp51
 70
     0
102
RTVSPropertyOp52
 70
     0
102
RTVSPropertyOp53
 70
     0
102
RTVSPropertyOp54
 70
     0
102
RTVSPropertyOp55
 70
     1
102
RTVSPropertyOp56
 70
     0
102
RTVSPropertyOp57
 70
     0
102
RTVSPropertyOp58
 70
     0
102
RTVSPropertyOp59
 70
     0
102
RTVSPropertyOp60
 70
     0
102
RTVSPropertyOp61
 70
     0
102
RTVSPropertyOp62
 70
     0
  0
XRECORD
  5
114D9
102
{ACAD_REACTORS
330
114D8
102
}
330
114D8
100
AcDbXrecord
280
     1
102
RTVSPost2010Prop28
280
     0
102
RTVSPost2010PropOp28
 70
     1
102
RTVSPost2010Prop29
280
     1
102
RTVSPost2010PropOp29
 70
     1
102
RTVSPost2010Prop30
280
     1
102
RTVSPost2010PropOp30
 70
     1
102
RTVSPost2010Prop31
280
     0
102
RTVSPost2010PropOp31
 70
     1
102
RTVSPost2010Prop32
280
     0
102
RTVSPost2010PropOp32
 70
     1
102
RTVSPost2010Prop33
280
     0
102
RTVSPost2010PropOp33
 70
     1
102
RTVSPost2010Prop34
280
     0
102
RTVSPost2010PropOp34
 70
     1
102
RTVSPost2010Prop35
280
     0
102
RTVSPost2010PropOp35
 70
     1
102
RTVSPost2010Prop36
280
     0
102
RTVSPost2010PropOp36
 70
     1
102
RTVSPost2010Prop37
 90
       50
102
RTVSPost2010PropOp37
 70
     1
102
RTVSPost2010Prop38
140
0.0
102
RTVSPost2010PropOp38
 70
     1
102
RTVSPost2010Prop39
140
1.0
102
RTVSPost2010PropOp39
 70
     1
102
RTVSPost2010Prop40
 90
        0
102
RTVSPost2010PropOp40
 70
     1
102
RTVSPost2010Prop41ColorIndex
 90
       18
102
RTVSPost2010Prop41ColorRGB
 90
        0
102
RTVSPost2010PropOp41
 70
     1
102
RTVSPost2010Prop42
 90
       50
102
RTVSPost2010PropOp42
 70
     1
102
RTVSPost2010Prop43
 90
        3
102
RTVSPost2010PropOp43
 70
     1
102
RTVSPost2010Prop44ColorIndex
 90
        5
102
RTVSPost2010Prop44ColorRGB
 90
      255
102
RTVSPost2010PropOp44
 70
     1
102
RTVSPost2010Prop45
280
     0
102
RTVSPost2010PropOp45
 70
     1
102
RTVSPost2010Prop46
 90
       50
102
RTVSPost2010PropOp46
 70
     1
102
RTVSPost2010Prop47
 90
       50
102
RTVSPost2010PropOp47
 70
     1
102
RTVSPost2010Prop48
 90
       50
102
RTVSPost2010PropOp48
 70
     1
102
RTVSPost2010Prop49
280
     0
102
RTVSPost2010PropOp49
 70
     1
102
RTVSPost2010Prop50
 90
       50
102
RTVSPost2010PropOp50
 70
     1
102
RTVSPost2010Prop51ColorIndex
 90
      256
102
RTVSPost2010Prop51ColorRGB
 90
-16777216
102
RTVSPost2010PropOp51
 70
     0
102
RTVSPost2010Prop52
140
1.0
102
RTVSPost2010PropOp52
 70
     0
102
RTVSPost2010Prop53
 90
        2
102
RTVSPost2010PropOp53
 70
     1
102
RTVSPost2010Prop54
  1
strokes_ogs.tif
102
RTVSPost2010PropOp54
 70
     1
102
RTVSPost2010Prop55
280
     0
102
RTVSPost2010PropOp55
 70
     1
102
RTVSPost2010Prop56
140
1.0
102
RTVSPost2010PropOp56
 70
     1
102
RTVSPost2010Prop57
140
1.0
102
RTVSPost2010PropOp57
 70
     1
102
RTVSPropertyOp0
 70
     1
102
RTVSPropertyOp1
 70
     1
102
RTVSPropertyOp2
 70
     1
102
RTVSPropertyOp3
 70
     1
102
RTVSPropertyOp4
 70
     1
102
RTVSPropertyOp5
 70
     1
102
RTVSPropertyOp6
 70
     1
102
RTVSPropertyOp7
 70
     1
102
RTVSPropertyOp8
 70
     1
102
RTVSPropertyOp9
 70
     1
102
RTVSPropertyOp10
 70
     1
102
RTVSPropertyOp11
 70
     1
102
RTVSPropertyOp12
 70
     1
102
RTVSPropertyOp13
 70
     1
102
RTVSPropertyOp14
 70
     1
102
RTVSPropertyOp15
 70
     1
102
RTVSPropertyOp16
 70
     1
102
RTVSPropertyOp17
 70
     1
102
RTVSPropertyOp18
 70
     1
102
RTVSPropertyOp19
 70
     1
102
RTVSPropertyOp20
 70
     1
102
RTVSPropertyOp21
 70
     1
102
RTVSPropertyOp22
 70
     1
102
RTVSPropertyOp23
 70
     1
102
RTVSPropertyOp24
 70
     1
102
RTVSPropertyOp25
 70
     1
102
RTVSPropertyOp26
 70
     1
102
RTVSPropertyOp27
 70
     1
102
RTVSPropertyOp28
 70
     1
102
RTVSPropertyOp29
 70
     1
102
RTVSPropertyOp30
 70
     1
102
RTVSPropertyOp31
 70
     1
102
RTVSPropertyOp32
 70
     1
102
RTVSPropertyOp33
 70
     1
102
RTVSPropertyOp34
 70
     1
102
RTVSPropertyOp35
 70
     1
102
RTVSPropertyOp36
 70
     1
102
RTVSPropertyOp37
 70
     1
102
RTVSPropertyOp38
 70
     1
102
RTVSPropertyOp39
 70
     1
102
RTVSPropertyOp40
 70
     1
102
RTVSPropertyOp41
 70
     1
102
RTVSPropertyOp42
 70
     1
102
RTVSPropertyOp43
 70
     1
102
RTVSPropertyOp44
 70
     1
102
RTVSPropertyOp45
 70
     1
102
RTVSPropertyOp46
 70
     1
102
RTVSPropertyOp47
 70
     1
102
RTVSPropertyOp48
 70
     1
102
RTVSPropertyOp49
 70
     1
102
RTVSPropertyOp50
 70
     1
102
RTVSPropertyOp51
 70
     0
102
RTVSPropertyOp52
 70
     0
102
RTVSPropertyOp53
 70
     1
102
RTVSPropertyOp54
 70
     1
102
RTVSPropertyOp55
 70
     1
102
RTVSPropertyOp56
 70
     1
102
RTVSPropertyOp57
 70
     1
102
RTVSPropertyOp58
 70
     1
102
RTVSPropertyOp59
 70
     1
102
RTVSPropertyOp60
 70
     1
102
RTVSPropertyOp61
 70
     1
102
RTVSPropertyOp62
 70
     1
  0
XRECORD
  5
114EB
102
{ACAD_REACTORS
330
114EA
102
}
330
114EA
100
AcDbXrecord
280
     1
102
RTVSPost2010Prop28
280
     0
102
RTVSPost2010PropOp28
 70
     1
102
RTVSPost2010Prop29
280
     1
102
RTVSPost2010PropOp29
 70
     1
102
RTVSPost2010Prop30
280
     1
102
RTVSPost2010PropOp30
 70
     1
102
RTVSPost2010Prop31
280
     0
102
RTVSPost2010PropOp31
 70
     1
102
RTVSPost2010Prop32
280
     0
102
RTVSPost2010PropOp32
 70
     1
102
RTVSPost2010Prop33
280
     0
102
RTVSPost2010PropOp33
 70
     1
102
RTVSPost2010Prop34
280
     0
102
RTVSPost2010PropOp34
 70
     1
102
RTVSPost2010Prop35
280
     0
102
RTVSPost2010PropOp35
 70
     1
102
RTVSPost2010Prop36
280
     0
102
RTVSPost2010PropOp36
 70
     1
102
RTVSPost2010Prop37
 90
       50
102
RTVSPost2010PropOp37
 70
     0
102
RTVSPost2010Prop38
140
0.0
102
RTVSPost2010PropOp38
 70
     0
102
RTVSPost2010Prop39
140
1.0
102
RTVSPost2010PropOp39
 70
     0
102
RTVSPost2010Prop40
 90
        0
102
RTVSPost2010PropOp40
 70
     0
102
RTVSPost2010Prop41ColorIndex
 90
       18
102
RTVSPost2010Prop41ColorRGB
 90
        0
102
RTVSPost2010PropOp41
 70
     0
102
RTVSPost2010Prop42
 90
       50
102
RTVSPost2010PropOp42
 70
     0
102
RTVSPost2010Prop43
 90
        3
102
RTVSPost2010PropOp43
 70
     0
102
RTVSPost2010Prop44ColorIndex
 90
        5
102
RTVSPost2010Prop44ColorRGB
 90
      255
102
RTVSPost2010PropOp44
 70
     0
102
RTVSPost2010Prop45
280
     0
102
RTVSPost2010PropOp45
 70
     1
102
RTVSPost2010Prop46
 90
       50
102
RTVSPost2010PropOp46
 70
     0
102
RTVSPost2010Prop47
 90
       50
102
RTVSPost2010PropOp47
 70
     0
102
RTVSPost2010Prop48
 90
       50
102
RTVSPost2010PropOp48
 70
     0
102
RTVSPost2010Prop49
280
     0
102
RTVSPost2010PropOp49
 70
     1
102
RTVSPost2010Prop50
 90
       50
102
RTVSPost2010PropOp50
 70
     0
102
RTVSPost2010Prop51ColorIndex
 90
      256
102
RTVSPost2010Prop51ColorRGB
 90
-16777216
102
RTVSPost2010PropOp51
 70
     0
102
RTVSPost2010Prop52
140
1.0
102
RTVSPost2010PropOp52
 70
     0
102
RTVSPost2010Prop53
 90
        2
102
RTVSPost2010PropOp53
 70
     0
102
RTVSPost2010Prop54
  1
strokes_ogs.tif
102
RTVSPost2010PropOp54
 70
     0
102
RTVSPost2010Prop55
280
     0
102
RTVSPost2010PropOp55
 70
     1
102
RTVSPost2010Prop56
140
1.0
102
RTVSPost2010PropOp56
 70
     0
102
RTVSPost2010Prop57
140
1.0
102
RTVSPost2010PropOp57
 70
     0
102
RTVSPropertyOp0
 70
     0
102
RTVSPropertyOp1
 70
     0
102
RTVSPropertyOp2
 70
     0
102
RTVSPropertyOp3
 70
     0
102
RTVSPropertyOp4
 70
     0
102
RTVSPropertyOp5
 70
     0
102
RTVSPropertyOp6
 70
     0
102
RTVSPropertyOp7
 70
     0
102
RTVSPropertyOp8
 70
     0
102
RTVSPropertyOp9
 70
     0
102
RTVSPropertyOp10
 70
     0
102
RTVSPropertyOp11
 70
     0
102
RTVSPropertyOp12
 70
     0
102
RTVSPropertyOp13
 70
     0
102
RTVSPropertyOp14
 70
     2
102
RTVSPropertyOp15
 70
     0
102
RTVSPropertyOp16
 70
     0
102
RTVSPropertyOp17
 70
     0
102
RTVSPropertyOp18
 70
     0
102
RTVSPropertyOp19
 70
     0
102
RTVSPropertyOp20
 70
     0
102
RTVSPropertyOp21
 70
     0
102
RTVSPropertyOp22
 70
     0
102
RTVSPropertyOp23
 70
     0
102
RTVSPropertyOp24
 70
     0
102
RTVSPropertyOp25
 70
     0
102
RTVSPropertyOp26
 70
     0
102
RTVSPropertyOp27
 70
     0
102
RTVSPropertyOp28
 70
     1
102
RTVSPropertyOp29
 70
     1
102
RTVSPropertyOp30
 70
     1
102
RTVSPropertyOp31
 70
     1
102
RTVSPropertyOp32
 70
     1
102
RTVSPropertyOp33
 70
     1
102
RTVSPropertyOp34
 70
     1
102
RTVSPropertyOp35
 70
     1
102
RTVSPropertyOp36
 70
     1
102
RTVSPropertyOp37
 70
     0
102
RTVSPropertyOp38
 70
     0
102
RTVSPropertyOp39
 70
     0
102
RTVSPropertyOp40
 70
     0
102
RTVSPropertyOp41
 70
     0
102
RTVSPropertyOp42
 70
     0
102
RTVSPropertyOp43
 70
     0
102
RTVSPropertyOp44
 70
     0
102
RTVSPropertyOp45
 70
     1
102
RTVSPropertyOp46
 70
     0
102
RTVSPropertyOp47
 70
     0
102
RTVSPropertyOp48
 70
     0
102
RTVSPropertyOp49
 70
     1
102
RTVSPropertyOp50
 70
     0
102
RTVSPropertyOp51
 70
     0
102
RTVSPropertyOp52
 70
     0
102
RTVSPropertyOp53
 70
     0
102
RTVSPropertyOp54
 70
     0
102
RTVSPropertyOp55
 70
     1
102
RTVSPropertyOp56
 70
     0
102
RTVSPropertyOp57
 70
     0
102
RTVSPropertyOp58
 70
     0
102
RTVSPropertyOp59
 70
     0
102
RTVSPropertyOp60
 70
     0
102
RTVSPropertyOp61
 70
     0
102
RTVSPropertyOp62
 70
     0
  0
XRECORD
  5
114D1
102
{ACAD_REACTORS
330
114D0
102
}
330
114D0
100
AcDbXrecord
280
     1
102
RTVSPost2010Prop28
280
     0
102
RTVSPost2010PropOp28
 70
     1
102
RTVSPost2010Prop29
280
     1
102
RTVSPost2010PropOp29
 70
     1
102
RTVSPost2010Prop30
280
     1
102
RTVSPost2010PropOp30
 70
     1
102
RTVSPost2010Prop31
280
     0
102
RTVSPost2010PropOp31
 70
     1
102
RTVSPost2010Prop32
280
     0
102
RTVSPost2010PropOp32
 70
     1
102
RTVSPost2010Prop33
280
     0
102
RTVSPost2010PropOp33
 70
     1
102
RTVSPost2010Prop34
280
     0
102
RTVSPost2010PropOp34
 70
     1
102
RTVSPost2010Prop35
280
     0
102
RTVSPost2010PropOp35
 70
     1
102
RTVSPost2010Prop36
280
     0
102
RTVSPost2010PropOp36
 70
     1
102
RTVSPost2010Prop37
 90
       50
102
RTVSPost2010PropOp37
 70
     1
102
RTVSPost2010Prop38
140
0.0
102
RTVSPost2010PropOp38
 70
     1
102
RTVSPost2010Prop39
140
1.0
102
RTVSPost2010PropOp39
 70
     1
102
RTVSPost2010Prop40
 90
        0
102
RTVSPost2010PropOp40
 70
     1
102
RTVSPost2010Prop41ColorIndex
 90
       18
102
RTVSPost2010Prop41ColorRGB
 90
        0
102
RTVSPost2010PropOp41
 70
     1
102
RTVSPost2010Prop42
 90
       50
102
RTVSPost2010PropOp42
 70
     1
102
RTVSPost2010Prop43
 90
        3
102
RTVSPost2010PropOp43
 70
     1
102
RTVSPost2010Prop44ColorIndex
 90
        5
102
RTVSPost2010Prop44ColorRGB
 90
      255
102
RTVSPost2010PropOp44
 70
     1
102
RTVSPost2010Prop45
280
     0
102
RTVSPost2010PropOp45
 70
     1
102
RTVSPost2010Prop46
 90
       50
102
RTVSPost2010PropOp46
 70
     1
102
RTVSPost2010Prop47
 90
       50
102
RTVSPost2010PropOp47
 70
     1
102
RTVSPost2010Prop48
 90
       50
102
RTVSPost2010PropOp48
 70
     1
102
RTVSPost2010Prop49
280
     0
102
RTVSPost2010PropOp49
 70
     1
102
RTVSPost2010Prop50
 90
       50
102
RTVSPost2010PropOp50
 70
     1
102
RTVSPost2010Prop51ColorIndex
 90
      256
102
RTVSPost2010Prop51ColorRGB
 90
-16777216
102
RTVSPost2010PropOp51
 70
     0
102
RTVSPost2010Prop52
140
1.0
102
RTVSPost2010PropOp52
 70
     0
102
RTVSPost2010Prop53
 90
        2
102
RTVSPost2010PropOp53
 70
     1
102
RTVSPost2010Prop54
  1
strokes_ogs.tif
102
RTVSPost2010PropOp54
 70
     1
102
RTVSPost2010Prop55
280
     0
102
RTVSPost2010PropOp55
 70
     1
102
RTVSPost2010Prop56
140
1.0
102
RTVSPost2010PropOp56
 70
     1
102
RTVSPost2010Prop57
140
1.0
102
RTVSPost2010PropOp57
 70
     1
102
RTVSPropertyOp0
 70
     1
102
RTVSPropertyOp1
 70
     1
102
RTVSPropertyOp2
 70
     1
102
RTVSPropertyOp3
 70
     1
102
RTVSPropertyOp4
 70
     1
102
RTVSPropertyOp5
 70
     1
102
RTVSPropertyOp6
 70
     1
102
RTVSPropertyOp7
 70
     1
102
RTVSPropertyOp8
 70
     1
102
RTVSPropertyOp9
 70
     1
102
RTVSPropertyOp10
 70
     1
102
RTVSPropertyOp11
 70
     1
102
RTVSPropertyOp12
 70
     1
102
RTVSPropertyOp13
 70
     1
102
RTVSPropertyOp14
 70
     1
102
RTVSPropertyOp15
 70
     1
102
RTVSPropertyOp16
 70
     1
102
RTVSPropertyOp17
 70
     1
102
RTVSPropertyOp18
 70
     1
102
RTVSPropertyOp19
 70
     1
102
RTVSPropertyOp20
 70
     1
102
RTVSPropertyOp21
 70
     1
102
RTVSPropertyOp22
 70
     1
102
RTVSPropertyOp23
 70
     1
102
RTVSPropertyOp24
 70
     1
102
RTVSPropertyOp25
 70
     1
102
RTVSPropertyOp26
 70
     1
102
RTVSPropertyOp27
 70
     1
102
RTVSPropertyOp28
 70
     1
102
RTVSPropertyOp29
 70
     1
102
RTVSPropertyOp30
 70
     1
102
RTVSPropertyOp31
 70
     1
102
RTVSPropertyOp32
 70
     1
102
RTVSPropertyOp33
 70
     1
102
RTVSPropertyOp34
 70
     1
102
RTVSPropertyOp35
 70
     1
102
RTVSPropertyOp36
 70
     1
102
RTVSPropertyOp37
 70
     1
102
RTVSPropertyOp38
 70
     1
102
RTVSPropertyOp39
 70
     1
102
RTVSPropertyOp40
 70
     1
102
RTVSPropertyOp41
 70
     1
102
RTVSPropertyOp42
 70
     1
102
RTVSPropertyOp43
 70
     1
102
RTVSPropertyOp44
 70
     1
102
RTVSPropertyOp45
 70
     1
102
RTVSPropertyOp46
 70
     1
102
RTVSPropertyOp47
 70
     1
102
RTVSPropertyOp48
 70
     1
102
RTVSPropertyOp49
 70
     1
102
RTVSPropertyOp50
 70
     1
102
RTVSPropertyOp51
 70
     0
102
RTVSPropertyOp52
 70
     0
102
RTVSPropertyOp53
 70
     1
102
RTVSPropertyOp54
 70
     1
102
RTVSPropertyOp55
 70
     1
102
RTVSPropertyOp56
 70
     1
102
RTVSPropertyOp57
 70
     1
102
RTVSPropertyOp58
 70
     1
102
RTVSPropertyOp59
 70
     1
102
RTVSPropertyOp60
 70
     1
102
RTVSPropertyOp61
 70
     1
102
RTVSPropertyOp62
 70
     1
  0
XRECORD
  5
114E7
102
{ACAD_REACTORS
330
114E6
102
}
330
114E6
100
AcDbXrecord
280
     1
102
RTVSPost2010Prop28
280
     0
102
RTVSPost2010PropOp28
 70
     1
102
RTVSPost2010Prop29
280
     1
102
RTVSPost2010PropOp29
 70
     1
102
RTVSPost2010Prop30
280
     1
102
RTVSPost2010PropOp30
 70
     1
102
RTVSPost2010Prop31
280
     0
102
RTVSPost2010PropOp31
 70
     1
102
RTVSPost2010Prop32
280
     0
102
RTVSPost2010PropOp32
 70
     1
102
RTVSPost2010Prop33
280
     0
102
RTVSPost2010PropOp33
 70
     1
102
RTVSPost2010Prop34
280
     0
102
RTVSPost2010PropOp34
 70
     1
102
RTVSPost2010Prop35
280
     0
102
RTVSPost2010PropOp35
 70
     1
102
RTVSPost2010Prop36
280
     0
102
RTVSPost2010PropOp36
 70
     1
102
RTVSPost2010Prop37
 90
       50
102
RTVSPost2010PropOp37
 70
     1
102
RTVSPost2010Prop38
140
0.0
102
RTVSPost2010PropOp38
 70
     1
102
RTVSPost2010Prop39
140
1.0
102
RTVSPost2010PropOp39
 70
     1
102
RTVSPost2010Prop40
 90
        0
102
RTVSPost2010PropOp40
 70
     1
102
RTVSPost2010Prop41ColorIndex
 90
       18
102
RTVSPost2010Prop41ColorRGB
 90
        0
102
RTVSPost2010PropOp41
 70
     1
102
RTVSPost2010Prop42
 90
       50
102
RTVSPost2010PropOp42
 70
     1
102
RTVSPost2010Prop43
 90
        3
102
RTVSPost2010PropOp43
 70
     1
102
RTVSPost2010Prop44ColorIndex
 90
        5
102
RTVSPost2010Prop44ColorRGB
 90
      255
102
RTVSPost2010PropOp44
 70
     1
102
RTVSPost2010Prop45
280
     0
102
RTVSPost2010PropOp45
 70
     1
102
RTVSPost2010Prop46
 90
       50
102
RTVSPost2010PropOp46
 70
     1
102
RTVSPost2010Prop47
 90
       50
102
RTVSPost2010PropOp47
 70
     1
102
RTVSPost2010Prop48
 90
       50
102
RTVSPost2010PropOp48
 70
     1
102
RTVSPost2010Prop49
280
     0
102
RTVSPost2010PropOp49
 70
     1
102
RTVSPost2010Prop50
 90
       50
102
RTVSPost2010PropOp50
 70
     1
102
RTVSPost2010Prop51ColorIndex
 90
      256
102
RTVSPost2010Prop51ColorRGB
 90
-16777216
102
RTVSPost2010PropOp51
 70
     0
102
RTVSPost2010Prop52
140
1.0
102
RTVSPost2010PropOp52
 70
     0
102
RTVSPost2010Prop53
 90
        2
102
RTVSPost2010PropOp53
 70
     1
102
RTVSPost2010Prop54
  1
strokes_ogs.tif
102
RTVSPost2010PropOp54
 70
     1
102
RTVSPost2010Prop55
280
     0
102
RTVSPost2010PropOp55
 70
     1
102
RTVSPost2010Prop56
140
1.0
102
RTVSPost2010PropOp56
 70
     1
102
RTVSPost2010Prop57
140
1.0
102
RTVSPost2010PropOp57
 70
     1
102
RTVSPropertyOp0
 70
     1
102
RTVSPropertyOp1
 70
     1
102
RTVSPropertyOp2
 70
     1
102
RTVSPropertyOp3
 70
     1
102
RTVSPropertyOp4
 70
     1
102
RTVSPropertyOp5
 70
     1
102
RTVSPropertyOp6
 70
     1
102
RTVSPropertyOp7
 70
     1
102
RTVSPropertyOp8
 70
     1
102
RTVSPropertyOp9
 70
     1
102
RTVSPropertyOp10
 70
     1
102
RTVSPropertyOp11
 70
     1
102
RTVSPropertyOp12
 70
     1
102
RTVSPropertyOp13
 70
     1
102
RTVSPropertyOp14
 70
     1
102
RTVSPropertyOp15
 70
     1
102
RTVSPropertyOp16
 70
     1
102
RTVSPropertyOp17
 70
     1
102
RTVSPropertyOp18
 70
     1
102
RTVSPropertyOp19
 70
     1
102
RTVSPropertyOp20
 70
     1
102
RTVSPropertyOp21
 70
     1
102
RTVSPropertyOp22
 70
     1
102
RTVSPropertyOp23
 70
     1
102
RTVSPropertyOp24
 70
     1
102
RTVSPropertyOp25
 70
     1
102
RTVSPropertyOp26
 70
     1
102
RTVSPropertyOp27
 70
     1
102
RTVSPropertyOp28
 70
     1
102
RTVSPropertyOp29
 70
     1
102
RTVSPropertyOp30
 70
     1
102
RTVSPropertyOp31
 70
     1
102
RTVSPropertyOp32
 70
     1
102
RTVSPropertyOp33
 70
     1
102
RTVSPropertyOp34
 70
     1
102
RTVSPropertyOp35
 70
     1
102
RTVSPropertyOp36
 70
     1
102
RTVSPropertyOp37
 70
     1
102
RTVSPropertyOp38
 70
     1
102
RTVSPropertyOp39
 70
     1
102
RTVSPropertyOp40
 70
     1
102
RTVSPropertyOp41
 70
     1
102
RTVSPropertyOp42
 70
     1
102
RTVSPropertyOp43
 70
     1
102
RTVSPropertyOp44
 70
     1
102
RTVSPropertyOp45
 70
     1
102
RTVSPropertyOp46
 70
     1
102
RTVSPropertyOp47
 70
     1
102
RTVSPropertyOp48
 70
     1
102
RTVSPropertyOp49
 70
     1
102
RTVSPropertyOp50
 70
     1
102
RTVSPropertyOp51
 70
     0
102
RTVSPropertyOp52
 70
     0
102
RTVSPropertyOp53
 70
     1
102
RTVSPropertyOp54
 70
     1
102
RTVSPropertyOp55
 70
     1
102
RTVSPropertyOp56
 70
     1
102
RTVSPropertyOp57
 70
     1
102
RTVSPropertyOp58
 70
     1
102
RTVSPropertyOp59
 70
     1
102
RTVSPropertyOp60
 70
     1
102
RTVSPropertyOp61
 70
     1
102
RTVSPropertyOp62
 70
     1
  0
XRECORD
  5
114E5
102
{ACAD_REACTORS
330
114E4
102
}
330
114E4
100
AcDbXrecord
280
     1
102
RTVSPost2010Prop28
280
     0
102
RTVSPost2010PropOp28
 70
     1
102
RTVSPost2010Prop29
280
     1
102
RTVSPost2010PropOp29
 70
     1
102
RTVSPost2010Prop30
280
     1
102
RTVSPost2010PropOp30
 70
     1
102
RTVSPost2010Prop31
280
     0
102
RTVSPost2010PropOp31
 70
     1
102
RTVSPost2010Prop32
280
     0
102
RTVSPost2010PropOp32
 70
     1
102
RTVSPost2010Prop33
280
     0
102
RTVSPost2010PropOp33
 70
     1
102
RTVSPost2010Prop34
280
     0
102
RTVSPost2010PropOp34
 70
     1
102
RTVSPost2010Prop35
280
     0
102
RTVSPost2010PropOp35
 70
     1
102
RTVSPost2010Prop36
280
     0
102
RTVSPost2010PropOp36
 70
     1
102
RTVSPost2010Prop37
 90
       50
102
RTVSPost2010PropOp37
 70
     1
102
RTVSPost2010Prop38
140
0.0
102
RTVSPost2010PropOp38
 70
     1
102
RTVSPost2010Prop39
140
1.0
102
RTVSPost2010PropOp39
 70
     1
102
RTVSPost2010Prop40
 90
        0
102
RTVSPost2010PropOp40
 70
     1
102
RTVSPost2010Prop41ColorIndex
 90
       18
102
RTVSPost2010Prop41ColorRGB
 90
        0
102
RTVSPost2010PropOp41
 70
     1
102
RTVSPost2010Prop42
 90
       50
102
RTVSPost2010PropOp42
 70
     1
102
RTVSPost2010Prop43
 90
        3
102
RTVSPost2010PropOp43
 70
     1
102
RTVSPost2010Prop44ColorIndex
 90
        5
102
RTVSPost2010Prop44ColorRGB
 90
      255
102
RTVSPost2010PropOp44
 70
     1
102
RTVSPost2010Prop45
280
     0
102
RTVSPost2010PropOp45
 70
     1
102
RTVSPost2010Prop46
 90
       50
102
RTVSPost2010PropOp46
 70
     1
102
RTVSPost2010Prop47
 90
       50
102
RTVSPost2010PropOp47
 70
     1
102
RTVSPost2010Prop48
 90
       50
102
RTVSPost2010PropOp48
 70
     1
102
RTVSPost2010Prop49
280
     0
102
RTVSPost2010PropOp49
 70
     1
102
RTVSPost2010Prop50
 90
       50
102
RTVSPost2010PropOp50
 70
     1
102
RTVSPost2010Prop51ColorIndex
 90
      256
102
RTVSPost2010Prop51ColorRGB
 90
-16777216
102
RTVSPost2010PropOp51
 70
     0
102
RTVSPost2010Prop52
140
1.0
102
RTVSPost2010PropOp52
 70
     0
102
RTVSPost2010Prop53
 90
        2
102
RTVSPost2010PropOp53
 70
     1
102
RTVSPost2010Prop54
  1
strokes_ogs.tif
102
RTVSPost2010PropOp54
 70
     1
102
RTVSPost2010Prop55
280
     0
102
RTVSPost2010PropOp55
 70
     1
102
RTVSPost2010Prop56
140
1.0
102
RTVSPost2010PropOp56
 70
     1
102
RTVSPost2010Prop57
140
1.0
102
RTVSPost2010PropOp57
 70
     1
102
RTVSPropertyOp0
 70
     1
102
RTVSPropertyOp1
 70
     1
102
RTVSPropertyOp2
 70
     1
102
RTVSPropertyOp3
 70
     1
102
RTVSPropertyOp4
 70
     1
102
RTVSPropertyOp5
 70
     1
102
RTVSPropertyOp6
 70
     1
102
RTVSPropertyOp7
 70
     1
102
RTVSPropertyOp8
 70
     1
102
RTVSPropertyOp9
 70
     1
102
RTVSPropertyOp10
 70
     1
102
RTVSPropertyOp11
 70
     1
102
RTVSPropertyOp12
 70
     1
102
RTVSPropertyOp13
 70
     1
102
RTVSPropertyOp14
 70
     1
102
RTVSPropertyOp15
 70
     1
102
RTVSPropertyOp16
 70
     1
102
RTVSPropertyOp17
 70
     1
102
RTVSPropertyOp18
 70
     1
102
RTVSPropertyOp19
 70
     1
102
RTVSPropertyOp20
 70
     1
102
RTVSPropertyOp21
 70
     1
102
RTVSPropertyOp22
 70
     1
102
RTVSPropertyOp23
 70
     1
102
RTVSPropertyOp24
 70
     1
102
RTVSPropertyOp25
 70
     1
102
RTVSPropertyOp26
 70
     1
102
RTVSPropertyOp27
 70
     1
102
RTVSPropertyOp28
 70
     1
102
RTVSPropertyOp29
 70
     1
102
RTVSPropertyOp30
 70
     1
102
RTVSPropertyOp31
 70
     1
102
RTVSPropertyOp32
 70
     1
102
RTVSPropertyOp33
 70
     1
102
RTVSPropertyOp34
 70
     1
102
RTVSPropertyOp35
 70
     1
102
RTVSPropertyOp36
 70
     1
102
RTVSPropertyOp37
 70
     1
102
RTVSPropertyOp38
 70
     1
102
RTVSPropertyOp39
 70
     1
102
RTVSPropertyOp40
 70
     1
102
RTVSPropertyOp41
 70
     1
102
RTVSPropertyOp42
 70
     1
102
RTVSPropertyOp43
 70
     1
102
RTVSPropertyOp44
 70
     1
102
RTVSPropertyOp45
 70
     1
102
RTVSPropertyOp46
 70
     1
102
RTVSPropertyOp47
 70
     1
102
RTVSPropertyOp48
 70
     1
102
RTVSPropertyOp49
 70
     1
102
RTVSPropertyOp50
 70
     1
102
RTVSPropertyOp51
 70
     0
102
RTVSPropertyOp52
 70
     0
102
RTVSPropertyOp53
 70
     1
102
RTVSPropertyOp54
 70
     1
102
RTVSPropertyOp55
 70
     1
102
RTVSPropertyOp56
 70
     1
102
RTVSPropertyOp57
 70
     1
102
RTVSPropertyOp58
 70
     1
102
RTVSPropertyOp59
 70
     1
102
RTVSPropertyOp60
 70
     1
102
RTVSPropertyOp61
 70
     1
102
RTVSPropertyOp62
 70
     1
  0
XRECORD
  5
114DF
102
{ACAD_REACTORS
330
114DE
102
}
330
114DE
100
AcDbXrecord
280
     1
102
RTVSPost2010Prop28
280
     0
102
RTVSPost2010PropOp28
 70
     1
102
RTVSPost2010Prop29
280
     1
102
RTVSPost2010PropOp29
 70
     1
102
RTVSPost2010Prop30
280
     1
102
RTVSPost2010PropOp30
 70
     1
102
RTVSPost2010Prop31
280
     0
102
RTVSPost2010PropOp31
 70
     1
102
RTVSPost2010Prop32
280
     0
102
RTVSPost2010PropOp32
 70
     1
102
RTVSPost2010Prop33
280
     0
102
RTVSPost2010PropOp33
 70
     1
102
RTVSPost2010Prop34
280
     0
102
RTVSPost2010PropOp34
 70
     1
102
RTVSPost2010Prop35
280
     0
102
RTVSPost2010PropOp35
 70
     1
102
RTVSPost2010Prop36
280
     0
102
RTVSPost2010PropOp36
 70
     1
102
RTVSPost2010Prop37
 90
       50
102
RTVSPost2010PropOp37
 70
     1
102
RTVSPost2010Prop38
140
0.0
102
RTVSPost2010PropOp38
 70
     1
102
RTVSPost2010Prop39
140
1.0
102
RTVSPost2010PropOp39
 70
     1
102
RTVSPost2010Prop40
 90
        0
102
RTVSPost2010PropOp40
 70
     1
102
RTVSPost2010Prop41ColorIndex
 90
       18
102
RTVSPost2010Prop41ColorRGB
 90
        0
102
RTVSPost2010PropOp41
 70
     1
102
RTVSPost2010Prop42
 90
       50
102
RTVSPost2010PropOp42
 70
     1
102
RTVSPost2010Prop43
 90
        3
102
RTVSPost2010PropOp43
 70
     1
102
RTVSPost2010Prop44ColorIndex
 90
        5
102
RTVSPost2010Prop44ColorRGB
 90
      255
102
RTVSPost2010PropOp44
 70
     1
102
RTVSPost2010Prop45
280
     0
102
RTVSPost2010PropOp45
 70
     1
102
RTVSPost2010Prop46
 90
       50
102
RTVSPost2010PropOp46
 70
     1
102
RTVSPost2010Prop47
 90
       50
102
RTVSPost2010PropOp47
 70
     1
102
RTVSPost2010Prop48
 90
       50
102
RTVSPost2010PropOp48
 70
     1
102
RTVSPost2010Prop49
280
     0
102
RTVSPost2010PropOp49
 70
     1
102
RTVSPost2010Prop50
 90
       50
102
RTVSPost2010PropOp50
 70
     1
102
RTVSPost2010Prop51ColorIndex
 90
      256
102
RTVSPost2010Prop51ColorRGB
 90
-16777216
102
RTVSPost2010PropOp51
 70
     0
102
RTVSPost2010Prop52
140
1.0
102
RTVSPost2010PropOp52
 70
     0
102
RTVSPost2010Prop53
 90
        2
102
RTVSPost2010PropOp53
 70
     1
102
RTVSPost2010Prop54
  1
strokes_ogs.tif
102
RTVSPost2010PropOp54
 70
     1
102
RTVSPost2010Prop55
280
     0
102
RTVSPost2010PropOp55
 70
     1
102
RTVSPost2010Prop56
140
1.0
102
RTVSPost2010PropOp56
 70
     1
102
RTVSPost2010Prop57
140
1.0
102
RTVSPost2010PropOp57
 70
     1
102
RTVSPropertyOp0
 70
     1
102
RTVSPropertyOp1
 70
     1
102
RTVSPropertyOp2
 70
     1
102
RTVSPropertyOp3
 70
     1
102
RTVSPropertyOp4
 70
     1
102
RTVSPropertyOp5
 70
     1
102
RTVSPropertyOp6
 70
     1
102
RTVSPropertyOp7
 70
     1
102
RTVSPropertyOp8
 70
     1
102
RTVSPropertyOp9
 70
     1
102
RTVSPropertyOp10
 70
     1
102
RTVSPropertyOp11
 70
     1
102
RTVSPropertyOp12
 70
     1
102
RTVSPropertyOp13
 70
     1
102
RTVSPropertyOp14
 70
     1
102
RTVSPropertyOp15
 70
     1
102
RTVSPropertyOp16
 70
     1
102
RTVSPropertyOp17
 70
     1
102
RTVSPropertyOp18
 70
     1
102
RTVSPropertyOp19
 70
     1
102
RTVSPropertyOp20
 70
     1
102
RTVSPropertyOp21
 70
     1
102
RTVSPropertyOp22
 70
     1
102
RTVSPropertyOp23
 70
     1
102
RTVSPropertyOp24
 70
     1
102
RTVSPropertyOp25
 70
     1
102
RTVSPropertyOp26
 70
     1
102
RTVSPropertyOp27
 70
     1
102
RTVSPropertyOp28
 70
     1
102
RTVSPropertyOp29
 70
     1
102
RTVSPropertyOp30
 70
     1
102
RTVSPropertyOp31
 70
     1
102
RTVSPropertyOp32
 70
     1
102
RTVSPropertyOp33
 70
     1
102
RTVSPropertyOp34
 70
     1
102
RTVSPropertyOp35
 70
     1
102
RTVSPropertyOp36
 70
     1
102
RTVSPropertyOp37
 70
     1
102
RTVSPropertyOp38
 70
     1
102
RTVSPropertyOp39
 70
     1
102
RTVSPropertyOp40
 70
     1
102
RTVSPropertyOp41
 70
     1
102
RTVSPropertyOp42
 70
     1
102
RTVSPropertyOp43
 70
     1
102
RTVSPropertyOp44
 70
     1
102
RTVSPropertyOp45
 70
     1
102
RTVSPropertyOp46
 70
     1
102
RTVSPropertyOp47
 70
     1
102
RTVSPropertyOp48
 70
     1
102
RTVSPropertyOp49
 70
     1
102
RTVSPropertyOp50
 70
     1
102
RTVSPropertyOp51
 70
     0
102
RTVSPropertyOp52
 70
     0
102
RTVSPropertyOp53
 70
     1
102
RTVSPropertyOp54
 70
     1
102
RTVSPropertyOp55
 70
     1
102
RTVSPropertyOp56
 70
     1
102
RTVSPropertyOp57
 70
     1
102
RTVSPropertyOp58
 70
     1
102
RTVSPropertyOp59
 70
     1
102
RTVSPropertyOp60
 70
     1
102
RTVSPropertyOp61
 70
     1
102
RTVSPropertyOp62
 70
     1
  0
XRECORD
  5
114E1
102
{ACAD_REACTORS
330
114E0
102
}
330
114E0
100
AcDbXrecord
280
     1
102
RTVSPost2010Prop28
280
     0
102
RTVSPost2010PropOp28
 70
     1
102
RTVSPost2010Prop29
280
     1
102
RTVSPost2010PropOp29
 70
     1
102
RTVSPost2010Prop30
280
     1
102
RTVSPost2010PropOp30
 70
     1
102
RTVSPost2010Prop31
280
     0
102
RTVSPost2010PropOp31
 70
     1
102
RTVSPost2010Prop32
280
     0
102
RTVSPost2010PropOp32
 70
     1
102
RTVSPost2010Prop33
280
     0
102
RTVSPost2010PropOp33
 70
     1
102
RTVSPost2010Prop34
280
     0
102
RTVSPost2010PropOp34
 70
     1
102
RTVSPost2010Prop35
280
     0
102
RTVSPost2010PropOp35
 70
     1
102
RTVSPost2010Prop36
280
     0
102
RTVSPost2010PropOp36
 70
     1
102
RTVSPost2010Prop37
 90
       50
102
RTVSPost2010PropOp37
 70
     1
102
RTVSPost2010Prop38
140
0.0
102
RTVSPost2010PropOp38
 70
     1
102
RTVSPost2010Prop39
140
1.0
102
RTVSPost2010PropOp39
 70
     1
102
RTVSPost2010Prop40
 90
        0
102
RTVSPost2010PropOp40
 70
     1
102
RTVSPost2010Prop41ColorIndex
 90
       18
102
RTVSPost2010Prop41ColorRGB
 90
        0
102
RTVSPost2010PropOp41
 70
     1
102
RTVSPost2010Prop42
 90
       50
102
RTVSPost2010PropOp42
 70
     1
102
RTVSPost2010Prop43
 90
        3
102
RTVSPost2010PropOp43
 70
     1
102
RTVSPost2010Prop44ColorIndex
 90
        5
102
RTVSPost2010Prop44ColorRGB
 90
      255
102
RTVSPost2010PropOp44
 70
     1
102
RTVSPost2010Prop45
280
     0
102
RTVSPost2010PropOp45
 70
     1
102
RTVSPost2010Prop46
 90
       50
102
RTVSPost2010PropOp46
 70
     1
102
RTVSPost2010Prop47
 90
       50
102
RTVSPost2010PropOp47
 70
     1
102
RTVSPost2010Prop48
 90
       50
102
RTVSPost2010PropOp48
 70
     1
102
RTVSPost2010Prop49
280
     0
102
RTVSPost2010PropOp49
 70
     1
102
RTVSPost2010Prop50
 90
       50
102
RTVSPost2010PropOp50
 70
     1
102
RTVSPost2010Prop51ColorIndex
 90
      256
102
RTVSPost2010Prop51ColorRGB
 90
-16777216
102
RTVSPost2010PropOp51
 70
     0
102
RTVSPost2010Prop52
140
1.0
102
RTVSPost2010PropOp52
 70
     0
102
RTVSPost2010Prop53
 90
        2
102
RTVSPost2010PropOp53
 70
     1
102
RTVSPost2010Prop54
  1
strokes_ogs.tif
102
RTVSPost2010PropOp54
 70
     1
102
RTVSPost2010Prop55
280
     0
102
RTVSPost2010PropOp55
 70
     1
102
RTVSPost2010Prop56
140
1.0
102
RTVSPost2010PropOp56
 70
     1
102
RTVSPost2010Prop57
140
1.0
102
RTVSPost2010PropOp57
 70
     1
102
RTVSPropertyOp0
 70
     1
102
RTVSPropertyOp1
 70
     1
102
RTVSPropertyOp2
 70
     1
102
RTVSPropertyOp3
 70
     1
102
RTVSPropertyOp4
 70
     1
102
RTVSPropertyOp5
 70
     1
102
RTVSPropertyOp6
 70
     1
102
RTVSPropertyOp7
 70
     1
102
RTVSPropertyOp8
 70
     1
102
RTVSPropertyOp9
 70
     1
102
RTVSPropertyOp10
 70
     1
102
RTVSPropertyOp11
 70
     1
102
RTVSPropertyOp12
 70
     1
102
RTVSPropertyOp13
 70
     1
102
RTVSPropertyOp14
 70
     1
102
RTVSPropertyOp15
 70
     1
102
RTVSPropertyOp16
 70
     1
102
RTVSPropertyOp17
 70
     1
102
RTVSPropertyOp18
 70
     1
102
RTVSPropertyOp19
 70
     1
102
RTVSPropertyOp20
 70
     1
102
RTVSPropertyOp21
 70
     1
102
RTVSPropertyOp22
 70
     1
102
RTVSPropertyOp23
 70
     1
102
RTVSPropertyOp24
 70
     1
102
RTVSPropertyOp25
 70
     1
102
RTVSPropertyOp26
 70
     1
102
RTVSPropertyOp27
 70
     1
102
RTVSPropertyOp28
 70
     1
102
RTVSPropertyOp29
 70
     1
102
RTVSPropertyOp30
 70
     1
102
RTVSPropertyOp31
 70
     1
102
RTVSPropertyOp32
 70
     1
102
RTVSPropertyOp33
 70
     1
102
RTVSPropertyOp34
 70
     1
102
RTVSPropertyOp35
 70
     1
102
RTVSPropertyOp36
 70
     1
102
RTVSPropertyOp37
 70
     1
102
RTVSPropertyOp38
 70
     1
102
RTVSPropertyOp39
 70
     1
102
RTVSPropertyOp40
 70
     1
102
RTVSPropertyOp41
 70
     1
102
RTVSPropertyOp42
 70
     1
102
RTVSPropertyOp43
 70
     1
102
RTVSPropertyOp44
 70
     1
102
RTVSPropertyOp45
 70
     1
102
RTVSPropertyOp46
 70
     1
102
RTVSPropertyOp47
 70
     1
102
RTVSPropertyOp48
 70
     1
102
RTVSPropertyOp49
 70
     1
102
RTVSPropertyOp50
 70
     1
102
RTVSPropertyOp51
 70
     0
102
RTVSPropertyOp52
 70
     0
102
RTVSPropertyOp53
 70
     1
102
RTVSPropertyOp54
 70
     1
102
RTVSPropertyOp55
 70
     1
102
RTVSPropertyOp56
 70
     1
102
RTVSPropertyOp57
 70
     1
102
RTVSPropertyOp58
 70
     1
102
RTVSPropertyOp59
 70
     1
102
RTVSPropertyOp60
 70
     1
102
RTVSPropertyOp61
 70
     1
102
RTVSPropertyOp62
 70
     1
  0
XRECORD
  5
114D7
102
{ACAD_REACTORS
330
114D6
102
}
330
114D6
100
AcDbXrecord
280
     1
102
RTVSPost2010Prop28
280
     0
102
RTVSPost2010PropOp28
 70
     1
102
RTVSPost2010Prop29
280
     1
102
RTVSPost2010PropOp29
 70
     1
102
RTVSPost2010Prop30
280
     1
102
RTVSPost2010PropOp30
 70
     1
102
RTVSPost2010Prop31
280
     0
102
RTVSPost2010PropOp31
 70
     1
102
RTVSPost2010Prop32
280
     0
102
RTVSPost2010PropOp32
 70
     1
102
RTVSPost2010Prop33
280
     0
102
RTVSPost2010PropOp33
 70
     1
102
RTVSPost2010Prop34
280
     0
102
RTVSPost2010PropOp34
 70
     1
102
RTVSPost2010Prop35
280
     0
102
RTVSPost2010PropOp35
 70
     1
102
RTVSPost2010Prop36
280
     0
102
RTVSPost2010PropOp36
 70
     1
102
RTVSPost2010Prop37
 90
       50
102
RTVSPost2010PropOp37
 70
     1
102
RTVSPost2010Prop38
140
0.0
102
RTVSPost2010PropOp38
 70
     1
102
RTVSPost2010Prop39
140
1.0
102
RTVSPost2010PropOp39
 70
     1
102
RTVSPost2010Prop40
 90
        0
102
RTVSPost2010PropOp40
 70
     1
102
RTVSPost2010Prop41ColorIndex
 90
       18
102
RTVSPost2010Prop41ColorRGB
 90
        0
102
RTVSPost2010PropOp41
 70
     1
102
RTVSPost2010Prop42
 90
       50
102
RTVSPost2010PropOp42
 70
     1
102
RTVSPost2010Prop43
 90
        3
102
RTVSPost2010PropOp43
 70
     1
102
RTVSPost2010Prop44ColorIndex
 90
        5
102
RTVSPost2010Prop44ColorRGB
 90
      255
102
RTVSPost2010PropOp44
 70
     1
102
RTVSPost2010Prop45
280
     0
102
RTVSPost2010PropOp45
 70
     1
102
RTVSPost2010Prop46
 90
       50
102
RTVSPost2010PropOp46
 70
     1
102
RTVSPost2010Prop47
 90
       50
102
RTVSPost2010PropOp47
 70
     1
102
RTVSPost2010Prop48
 90
       50
102
RTVSPost2010PropOp48
 70
     1
102
RTVSPost2010Prop49
280
     0
102
RTVSPost2010PropOp49
 70
     1
102
RTVSPost2010Prop50
 90
       50
102
RTVSPost2010PropOp50
 70
     1
102
RTVSPost2010Prop51ColorIndex
 90
      256
102
RTVSPost2010Prop51ColorRGB
 90
-16777216
102
RTVSPost2010PropOp51
 70
     0
102
RTVSPost2010Prop52
140
1.0
102
RTVSPost2010PropOp52
 70
     0
102
RTVSPost2010Prop53
 90
        2
102
RTVSPost2010PropOp53
 70
     1
102
RTVSPost2010Prop54
  1
strokes_ogs.tif
102
RTVSPost2010PropOp54
 70
     1
102
RTVSPost2010Prop55
280
     0
102
RTVSPost2010PropOp55
 70
     1
102
RTVSPost2010Prop56
140
1.0
102
RTVSPost2010PropOp56
 70
     1
102
RTVSPost2010Prop57
140
1.0
102
RTVSPost2010PropOp57
 70
     1
102
RTVSPropertyOp0
 70
     1
102
RTVSPropertyOp1
 70
     1
102
RTVSPropertyOp2
 70
     1
102
RTVSPropertyOp3
 70
     1
102
RTVSPropertyOp4
 70
     1
102
RTVSPropertyOp5
 70
     1
102
RTVSPropertyOp6
 70
     1
102
RTVSPropertyOp7
 70
     1
102
RTVSPropertyOp8
 70
     1
102
RTVSPropertyOp9
 70
     1
102
RTVSPropertyOp10
 70
     1
102
RTVSPropertyOp11
 70
     1
102
RTVSPropertyOp12
 70
     1
102
RTVSPropertyOp13
 70
     1
102
RTVSPropertyOp14
 70
     1
102
RTVSPropertyOp15
 70
     1
102
RTVSPropertyOp16
 70
     1
102
RTVSPropertyOp17
 70
     1
102
RTVSPropertyOp18
 70
     1
102
RTVSPropertyOp19
 70
     1
102
RTVSPropertyOp20
 70
     1
102
RTVSPropertyOp21
 70
     1
102
RTVSPropertyOp22
 70
     1
102
RTVSPropertyOp23
 70
     1
102
RTVSPropertyOp24
 70
     1
102
RTVSPropertyOp25
 70
     1
102
RTVSPropertyOp26
 70
     1
102
RTVSPropertyOp27
 70
     1
102
RTVSPropertyOp28
 70
     1
102
RTVSPropertyOp29
 70
     1
102
RTVSPropertyOp30
 70
     1
102
RTVSPropertyOp31
 70
     1
102
RTVSPropertyOp32
 70
     1
102
RTVSPropertyOp33
 70
     1
102
RTVSPropertyOp34
 70
     1
102
RTVSPropertyOp35
 70
     1
102
RTVSPropertyOp36
 70
     1
102
RTVSPropertyOp37
 70
     1
102
RTVSPropertyOp38
 70
     1
102
RTVSPropertyOp39
 70
     1
102
RTVSPropertyOp40
 70
     1
102
RTVSPropertyOp41
 70
     1
102
RTVSPropertyOp42
 70
     1
102
RTVSPropertyOp43
 70
     1
102
RTVSPropertyOp44
 70
     1
102
RTVSPropertyOp45
 70
     1
102
RTVSPropertyOp46
 70
     1
102
RTVSPropertyOp47
 70
     1
102
RTVSPropertyOp48
 70
     1
102
RTVSPropertyOp49
 70
     1
102
RTVSPropertyOp50
 70
     1
102
RTVSPropertyOp51
 70
     0
102
RTVSPropertyOp52
 70
     0
102
RTVSPropertyOp53
 70
     1
102
RTVSPropertyOp54
 70
     1
102
RTVSPropertyOp55
 70
     1
102
RTVSPropertyOp56
 70
     1
102
RTVSPropertyOp57
 70
     1
102
RTVSPropertyOp58
 70
     1
102
RTVSPropertyOp59
 70
     1
102
RTVSPropertyOp60
 70
     1
102
RTVSPropertyOp61
 70
     1
102
RTVSPropertyOp62
 70
     1
  0
XRECORD
  5
114CB
102
{ACAD_REACTORS
330
114CA
102
}
330
114CA
100
AcDbXrecord
280
     1
102
RTVSPost2010Prop28
280
     0
102
RTVSPost2010PropOp28
 70
     1
102
RTVSPost2010Prop29
280
     1
102
RTVSPost2010PropOp29
 70
     1
102
RTVSPost2010Prop30
280
     1
102
RTVSPost2010PropOp30
 70
     1
102
RTVSPost2010Prop31
280
     0
102
RTVSPost2010PropOp31
 70
     1
102
RTVSPost2010Prop32
280
     0
102
RTVSPost2010PropOp32
 70
     1
102
RTVSPost2010Prop33
280
     0
102
RTVSPost2010PropOp33
 70
     1
102
RTVSPost2010Prop34
280
     0
102
RTVSPost2010PropOp34
 70
     1
102
RTVSPost2010Prop35
280
     0
102
RTVSPost2010PropOp35
 70
     1
102
RTVSPost2010Prop36
280
     0
102
RTVSPost2010PropOp36
 70
     1
102
RTVSPost2010Prop37
 90
       50
102
RTVSPost2010PropOp37
 70
     1
102
RTVSPost2010Prop38
140
0.0
102
RTVSPost2010PropOp38
 70
     1
102
RTVSPost2010Prop39
140
1.0
102
RTVSPost2010PropOp39
 70
     1
102
RTVSPost2010Prop40
 90
        0
102
RTVSPost2010PropOp40
 70
     1
102
RTVSPost2010Prop41ColorIndex
 90
       18
102
RTVSPost2010Prop41ColorRGB
 90
        0
102
RTVSPost2010PropOp41
 70
     1
102
RTVSPost2010Prop42
 90
       50
102
RTVSPost2010PropOp42
 70
     1
102
RTVSPost2010Prop43
 90
        3
102
RTVSPost2010PropOp43
 70
     1
102
RTVSPost2010Prop44ColorIndex
 90
        5
102
RTVSPost2010Prop44ColorRGB
 90
      255
102
RTVSPost2010PropOp44
 70
     1
102
RTVSPost2010Prop45
280
     0
102
RTVSPost2010PropOp45
 70
     1
102
RTVSPost2010Prop46
 90
       50
102
RTVSPost2010PropOp46
 70
     1
102
RTVSPost2010Prop47
 90
       50
102
RTVSPost2010PropOp47
 70
     1
102
RTVSPost2010Prop48
 90
       50
102
RTVSPost2010PropOp48
 70
     1
102
RTVSPost2010Prop49
280
     0
102
RTVSPost2010PropOp49
 70
     1
102
RTVSPost2010Prop50
 90
       50
102
RTVSPost2010PropOp50
 70
     1
102
RTVSPost2010Prop51ColorIndex
 90
      256
102
RTVSPost2010Prop51ColorRGB
 90
-16777216
102
RTVSPost2010PropOp51
 70
     0
102
RTVSPost2010Prop52
140
1.0
102
RTVSPost2010PropOp52
 70
     0
102
RTVSPost2010Prop53
 90
        2
102
RTVSPost2010PropOp53
 70
     1
102
RTVSPost2010Prop54
  1
strokes_ogs.tif
102
RTVSPost2010PropOp54
 70
     1
102
RTVSPost2010Prop55
280
     0
102
RTVSPost2010PropOp55
 70
     1
102
RTVSPost2010Prop56
140
1.0
102
RTVSPost2010PropOp56
 70
     1
102
RTVSPost2010Prop57
140
1.0
102
RTVSPost2010PropOp57
 70
     1
102
RTVSPropertyOp0
 70
     1
102
RTVSPropertyOp1
 70
     1
102
RTVSPropertyOp2
 70
     1
102
RTVSPropertyOp3
 70
     1
102
RTVSPropertyOp4
 70
     1
102
RTVSPropertyOp5
 70
     1
102
RTVSPropertyOp6
 70
     1
102
RTVSPropertyOp7
 70
     1
102
RTVSPropertyOp8
 70
     1
102
RTVSPropertyOp9
 70
     1
102
RTVSPropertyOp10
 70
     1
102
RTVSPropertyOp11
 70
     1
102
RTVSPropertyOp12
 70
     1
102
RTVSPropertyOp13
 70
     1
102
RTVSPropertyOp14
 70
     1
102
RTVSPropertyOp15
 70
     1
102
RTVSPropertyOp16
 70
     1
102
RTVSPropertyOp17
 70
     1
102
RTVSPropertyOp18
 70
     1
102
RTVSPropertyOp19
 70
     1
102
RTVSPropertyOp20
 70
     1
102
RTVSPropertyOp21
 70
     1
102
RTVSPropertyOp22
 70
     1
102
RTVSPropertyOp23
 70
     1
102
RTVSPropertyOp24
 70
     1
102
RTVSPropertyOp25
 70
     1
102
RTVSPropertyOp26
 70
     1
102
RTVSPropertyOp27
 70
     1
102
RTVSPropertyOp28
 70
     1
102
RTVSPropertyOp29
 70
     1
102
RTVSPropertyOp30
 70
     1
102
RTVSPropertyOp31
 70
     1
102
RTVSPropertyOp32
 70
     1
102
RTVSPropertyOp33
 70
     1
102
RTVSPropertyOp34
 70
     1
102
RTVSPropertyOp35
 70
     1
102
RTVSPropertyOp36
 70
     1
102
RTVSPropertyOp37
 70
     1
102
RTVSPropertyOp38
 70
     1
102
RTVSPropertyOp39
 70
     1
102
RTVSPropertyOp40
 70
     1
102
RTVSPropertyOp41
 70
     1
102
RTVSPropertyOp42
 70
     1
102
RTVSPropertyOp43
 70
     1
102
RTVSPropertyOp44
 70
     1
102
RTVSPropertyOp45
 70
     1
102
RTVSPropertyOp46
 70
     1
102
RTVSPropertyOp47
 70
     1
102
RTVSPropertyOp48
 70
     1
102
RTVSPropertyOp49
 70
     1
102
RTVSPropertyOp50
 70
     1
102
RTVSPropertyOp51
 70
     0
102
RTVSPropertyOp52
 70
     0
102
RTVSPropertyOp53
 70
     1
102
RTVSPropertyOp54
 70
     1
102
RTVSPropertyOp55
 70
     1
102
RTVSPropertyOp56
 70
     1
102
RTVSPropertyOp57
 70
     1
102
RTVSPropertyOp58
 70
     1
102
RTVSPropertyOp59
 70
     1
102
RTVSPropertyOp60
 70
     1
102
RTVSPropertyOp61
 70
     1
102
RTVSPropertyOp62
 70
     1
  0
XRECORD
  5
114E3
102
{ACAD_REACTORS
330
114E2
102
}
330
114E2
100
AcDbXrecord
280
     1
102
RTVSPost2010Prop28
280
     0
102
RTVSPost2010PropOp28
 70
     1
102
RTVSPost2010Prop29
280
     1
102
RTVSPost2010PropOp29
 70
     1
102
RTVSPost2010Prop30
280
     1
102
RTVSPost2010PropOp30
 70
     1
102
RTVSPost2010Prop31
280
     0
102
RTVSPost2010PropOp31
 70
     1
102
RTVSPost2010Prop32
280
     0
102
RTVSPost2010PropOp32
 70
     1
102
RTVSPost2010Prop33
280
     0
102
RTVSPost2010PropOp33
 70
     1
102
RTVSPost2010Prop34
280
     0
102
RTVSPost2010PropOp34
 70
     1
102
RTVSPost2010Prop35
280
     0
102
RTVSPost2010PropOp35
 70
     1
102
RTVSPost2010Prop36
280
     0
102
RTVSPost2010PropOp36
 70
     1
102
RTVSPost2010Prop37
 90
       50
102
RTVSPost2010PropOp37
 70
     1
102
RTVSPost2010Prop38
140
0.0
102
RTVSPost2010PropOp38
 70
     1
102
RTVSPost2010Prop39
140
1.0
102
RTVSPost2010PropOp39
 70
     1
102
RTVSPost2010Prop40
 90
        0
102
RTVSPost2010PropOp40
 70
     1
102
RTVSPost2010Prop41ColorIndex
 90
       18
102
RTVSPost2010Prop41ColorRGB
 90
        0
102
RTVSPost2010PropOp41
 70
     1
102
RTVSPost2010Prop42
 90
       50
102
RTVSPost2010PropOp42
 70
     1
102
RTVSPost2010Prop43
 90
        3
102
RTVSPost2010PropOp43
 70
     1
102
RTVSPost2010Prop44ColorIndex
 90
        5
102
RTVSPost2010Prop44ColorRGB
 90
      255
102
RTVSPost2010PropOp44
 70
     1
102
RTVSPost2010Prop45
280
     0
102
RTVSPost2010PropOp45
 70
     1
102
RTVSPost2010Prop46
 90
       50
102
RTVSPost2010PropOp46
 70
     1
102
RTVSPost2010Prop47
 90
       50
102
RTVSPost2010PropOp47
 70
     1
102
RTVSPost2010Prop48
 90
       50
102
RTVSPost2010PropOp48
 70
     1
102
RTVSPost2010Prop49
280
     0
102
RTVSPost2010PropOp49
 70
     1
102
RTVSPost2010Prop50
 90
       50
102
RTVSPost2010PropOp50
 70
     1
102
RTVSPost2010Prop51ColorIndex
 90
      256
102
RTVSPost2010Prop51ColorRGB
 90
-16777216
102
RTVSPost2010PropOp51
 70
     0
102
RTVSPost2010Prop52
140
1.0
102
RTVSPost2010PropOp52
 70
     0
102
RTVSPost2010Prop53
 90
        2
102
RTVSPost2010PropOp53
 70
     1
102
RTVSPost2010Prop54
  1
strokes_ogs.tif
102
RTVSPost2010PropOp54
 70
     1
102
RTVSPost2010Prop55
280
     0
102
RTVSPost2010PropOp55
 70
     1
102
RTVSPost2010Prop56
140
1.0
102
RTVSPost2010PropOp56
 70
     1
102
RTVSPost2010Prop57
140
1.0
102
RTVSPost2010PropOp57
 70
     1
102
RTVSPropertyOp0
 70
     1
102
RTVSPropertyOp1
 70
     1
102
RTVSPropertyOp2
 70
     1
102
RTVSPropertyOp3
 70
     1
102
RTVSPropertyOp4
 70
     1
102
RTVSPropertyOp5
 70
     1
102
RTVSPropertyOp6
 70
     1
102
RTVSPropertyOp7
 70
     1
102
RTVSPropertyOp8
 70
     1
102
RTVSPropertyOp9
 70
     1
102
RTVSPropertyOp10
 70
     1
102
RTVSPropertyOp11
 70
     1
102
RTVSPropertyOp12
 70
     1
102
RTVSPropertyOp13
 70
     1
102
RTVSPropertyOp14
 70
     1
102
RTVSPropertyOp15
 70
     1
102
RTVSPropertyOp16
 70
     1
102
RTVSPropertyOp17
 70
     1
102
RTVSPropertyOp18
 70
     1
102
RTVSPropertyOp19
 70
     1
102
RTVSPropertyOp20
 70
     1
102
RTVSPropertyOp21
 70
     1
102
RTVSPropertyOp22
 70
     1
102
RTVSPropertyOp23
 70
     1
102
RTVSPropertyOp24
 70
     1
102
RTVSPropertyOp25
 70
     1
102
RTVSPropertyOp26
 70
     1
102
RTVSPropertyOp27
 70
     1
102
RTVSPropertyOp28
 70
     1
102
RTVSPropertyOp29
 70
     1
102
RTVSPropertyOp30
 70
     1
102
RTVSPropertyOp31
 70
     1
102
RTVSPropertyOp32
 70
     1
102
RTVSPropertyOp33
 70
     1
102
RTVSPropertyOp34
 70
     1
102
RTVSPropertyOp35
 70
     1
102
RTVSPropertyOp36
 70
     1
102
RTVSPropertyOp37
 70
     1
102
RTVSPropertyOp38
 70
     1
102
RTVSPropertyOp39
 70
     1
102
RTVSPropertyOp40
 70
     1
102
RTVSPropertyOp41
 70
     1
102
RTVSPropertyOp42
 70
     1
102
RTVSPropertyOp43
 70
     1
102
RTVSPropertyOp44
 70
     1
102
RTVSPropertyOp45
 70
     1
102
RTVSPropertyOp46
 70
     1
102
RTVSPropertyOp47
 70
     1
102
RTVSPropertyOp48
 70
     1
102
RTVSPropertyOp49
 70
     1
102
RTVSPropertyOp50
 70
     1
102
RTVSPropertyOp51
 70
     0
102
RTVSPropertyOp52
 70
     0
102
RTVSPropertyOp53
 70
     1
102
RTVSPropertyOp54
 70
     1
102
RTVSPropertyOp55
 70
     1
102
RTVSPropertyOp56
 70
     1
102
RTVSPropertyOp57
 70
     1
102
RTVSPropertyOp58
 70
     1
102
RTVSPropertyOp59
 70
     1
102
RTVSPropertyOp60
 70
     1
102
RTVSPropertyOp61
 70
     1
102
RTVSPropertyOp62
 70
     1
  0
ENDSEC
  0
EOF
