  0
SECTION
  2
HEADER
  9
$ACADVER
  1
AC1015
  9
$ACADMAINTVER
 70
    20
  9
$DWGCODEPAGE
  3
ANSI_932
  9
$INSBASE
 10
0.0
 20
0.0
 30
0.0
  9
$EXTMIN
 10
9.99995
 20
9.999999999999998
 30
0.0
  9
$EXTMAX
 10
792.5874629999997
 20
540.9030759999999
 30
0.0
  9
$LIMMIN
 10
0.0
 20
0.0
  9
$LIMMAX
 10
792.0
 20
546.0
  9
$ORTHOMODE
 70
     1
  9
$REGENMODE
 70
     1
  9
$FILLMODE
 70
     1
  9
$QTEXTMODE
 70
     0
  9
$MIRRTEXT
 70
     1
  9
$LTSCALE
 40
20.0
  9
$ATTMODE
 70
     1
  9
$TEXTSIZE
 40
5.0
  9
$TRACEWID
 40
1.0
  9
$TEXTSTYLE
  7
STANDARD
  9
$CLAYER
  8
0
  9
$CELTYPE
  6
BYLAYER
  9
$CECOLOR
 62
   256
  9
$CELTSCALE
 40
1.0
  9
$DISPSILH
 70
     0
  9
$DIMSCALE
 40
1.0
  9
$DIMASZ
 40
3.0
  9
$DIMEXO
 40
1.0
  9
$DIMDLI
 40
10.0
  9
$DIMRND
 40
0.0
  9
$DIMDLE
 40
0.0
  9
$DIMEXE
 40
1.0
  9
$DIMTP
 40
0.0
  9
$DIMTM
 40
0.0
  9
$DIMTXT
 40
3.2
  9
$DIMCEN
 40
0.0
  9
$DIMTSZ
 40
0.0
  9
$DIMTOL
 70
     0
  9
$DIMLIM
 70
     0
  9
$DIMTIH
 70
     0
  9
$DIMTOH
 70
     0
  9
$DIMSE1
 70
     0
  9
$DIMSE2
 70
     0
  9
$DIMTAD
 70
     3
  9
$DIMZIN
 70
     8
  9
$DIMBLK
  1

  9
$DIMASO
 70
     1
  9
$DIMSHO
 70
     1
  9
$DIMPOST
  1

  9
$DIMAPOST
  1

  9
$DIMALT
 70
     0
  9
$DIMALTD
 70
     2
  9
$DIMALTF
 40
25.4
  9
$DIMLFAC
 40
1.0
  9
$DIMTOFL
 70
     1
  9
$DIMTVP
 40
0.0
  9
$DIMTIX
 70
     0
  9
$DIMSOXD
 70
     0
  9
$DIMSAH
 70
     1
  9
$DIMBLK1
  1

  9
$DIMBLK2
  1

  9
$DIMSTYLE
  2
STANDARD
  9
$DIMCLRD
 70
     0
  9
$DIMCLRE
 70
     0
  9
$DIMCLRT
 70
     0
  9
$DIMTFAC
 40
1.0
  9
$DIMGAP
 40
1.0
  9
$DIMJUST
 70
     0
  9
$DIMSD1
 70
     0
  9
$DIMSD2
 70
     0
  9
$DIMTOLJ
 70
     1
  9
$DIMTZIN
 70
     0
  9
$DIMALTZ
 70
     0
  9
$DIMALTTZ
 70
     0
  9
$DIMUPT
 70
     0
  9
$DIMDEC
 70
     4
  9
$DIMTDEC
 70
     4
  9
$DIMALTU
 70
     2
  9
$DIMALTTD
 70
     2
  9
$DIMTXSTY
  7
STANDARD
  9
$DIMAUNIT
 70
     0
  9
$DIMADEC
 70
     0
  9
$DIMALTRND
 40
0.0
  9
$DIMAZIN
 70
     0
  9
$DIMDSEP
 70
    46
  9
$DIMATFIT
 70
     3
  9
$DIMFRAC
 70
     0
  9
$DIMLDRBLK
  1

  9
$DIMLUNIT
 70
     2
  9
$DIMLWD
 70
    -2
  9
$DIMLWE
 70
    -2
  9
$DIMTMOVE
 70
     0
  9
$LUNITS
 70
     2
  9
$LUPREC
 70
     4
  9
$SKETCHINC
 40
1.0
  9
$FILLETRAD
 40
2.5
  9
$AUNITS
 70
     0
  9
$AUPREC
 70
     2
  9
$MENU
  1
.
  9
$ELEVATION
 40
0.0
  9
$PELEVATION
 40
0.0
  9
$THICKNESS
 40
0.0
  9
$LIMCHECK
 70
     0
  9
$CHAMFERA
 40
10.0
  9
$CHAMFERB
 40
10.0
  9
$CHAMFERC
 40
0.0
  9
$CHAMFERD
 40
0.0
  9
$SKPOLY
 70
     0
  9
$TDCREATE
 40
2451065.511194213
  9
$TDUCREATE
 40
2451065.136194213
  9
$TDUPDATE
 40
2457192.622884075
  9
$TDUUPDATE
 40
2457192.247884075
  9
$TDINDWG
 40
0.0000185764
  9
$TDUSRTIMER
 40
0.0000178472
  9
$USRTIMER
 70
     1
  9
$ANGBASE
 50
0.0
  9
$ANGDIR
 70
     0
  9
$PDMODE
 70
     0
  9
$PDSIZE
 40
0.0
  9
$PLINEWID
 40
0.0
  9
$SPLFRAME
 70
     0
  9
$SPLINETYPE
 70
     6
  9
$SPLINESEGS
 70
     8
  9
$HANDSEED
  5
9D5A
  9
$SURFTAB1
 70
     6
  9
$SURFTAB2
 70
     6
  9
$SURFTYPE
 70
     6
  9
$SURFU
 70
     6
  9
$SURFV
 70
     6
  9
$UCSBASE
  2

  9
$UCSNAME
  2

  9
$UCSORG
 10
0.0
 20
0.0
 30
0.0
  9
$UCSXDIR
 10
1.0
 20
0.0
 30
0.0
  9
$UCSYDIR
 10
0.0
 20
1.0
 30
0.0
  9
$UCSORTHOREF
  2

  9
$UCSORTHOVIEW
 70
     0
  9
$UCSORGTOP
 10
0.0
 20
0.0
 30
0.0
  9
$UCSORGBOTTOM
 10
0.0
 20
0.0
 30
0.0
  9
$UCSORGLEFT
 10
0.0
 20
0.0
 30
0.0
  9
$UCSORGRIGHT
 10
0.0
 20
0.0
 30
0.0
  9
$UCSORGFRONT
 10
0.0
 20
0.0
 30
0.0
  9
$UCSORGBACK
 10
0.0
 20
0.0
 30
0.0
  9
$PUCSBASE
  2

  9
$PUCSNAME
  2

  9
$PUCSORG
 10
0.0
 20
0.0
 30
0.0
  9
$PUCSXDIR
 10
1.0
 20
0.0
 30
0.0
  9
$PUCSYDIR
 10
0.0
 20
1.0
 30
0.0
  9
$PUCSORTHOREF
  2

  9
$PUCSORTHOVIEW
 70
     0
  9
$PUCSORGTOP
 10
0.0
 20
0.0
 30
0.0
  9
$PUCSORGBOTTOM
 10
0.0
 20
0.0
 30
0.0
  9
$PUCSORGLEFT
 10
0.0
 20
0.0
 30
0.0
  9
$PUCSORGRIGHT
 10
0.0
 20
0.0
 30
0.0
  9
$PUCSORGFRONT
 10
0.0
 20
0.0
 30
0.0
  9
$PUCSORGBACK
 10
0.0
 20
0.0
 30
0.0
  9
$USERI1
 70
     0
  9
$USERI2
 70
     0
  9
$USERI3
 70
     0
  9
$USERI4
 70
     0
  9
$USERI5
 70
     0
  9
$USERR1
 40
0.0
  9
$USERR2
 40
0.0
  9
$USERR3
 40
0.0
  9
$USERR4
 40
0.0
  9
$USERR5
 40
0.0
  9
$WORLDVIEW
 70
     1
  9
$SHADEDGE
 70
     3
  9
$SHADEDIF
 70
    70
  9
$TILEMODE
 70
     1
  9
$MAXACTVP
 70
    16
  9
$PINSBASE
 10
0.0
 20
0.0
 30
0.0
  9
$PLIMCHECK
 70
     0
  9
$PEXTMIN
 10
1.000000000000000E+20
 20
1.000000000000000E+20
 30
1.000000000000000E+20
  9
$PEXTMAX
 10
-1.000000000000000E+20
 20
-1.000000000000000E+20
 30
-1.000000000000000E+20
  9
$PLIMMIN
 10
0.0
 20
0.0
  9
$PLIMMAX
 10
420.0
 20
297.0
  9
$UNITMODE
 70
     0
  9
$VISRETAIN
 70
     0
  9
$PLINEGEN
 70
     0
  9
$PSLTSCALE
 70
     0
  9
$TREEDEPTH
 70
  3020
  9
$CMLSTYLE
  2
STANDARD
  9
$CMLJUST
 70
     0
  9
$CMLSCALE
 40
1.0
  9
$PROXYGRAPHICS
 70
     1
  9
$MEASUREMENT
 70
     0
  9
$CELWEIGHT
370
    -1
  9
$ENDCAPS
280
     0
  9
$JOINSTYLE
280
     0
  9
$LWDISPLAY
290
     0
  9
$INSUNITS
 70
     0
  9
$HYPERLINKBASE
  1

  9
$STYLESHEET
  1

  9
$XEDIT
290
     1
  9
$CEPSNTYPE
380
     0
  9
$PSTYLEMODE
290
     1
  9
$FINGERPRINTGUID
  2
{416738E9-C374-4595-8D0B-558B9DA6860D}
  9
$VERSIONGUID
  2
{579DA107-CCE9-46FC-A228-876230738CFD}
  9
$EXTNAMES
290
     1
  9
$PSVPSCALE
 40
0.0
  9
$OLESTARTUP
290
     0
  0
ENDSEC
  0
SECTION
  2
CLASSES
  0
CLASS
  1
ACDBDICTIONARYWDFLT
  2
AcDbDictionaryWithDefault
  3
ObjectDBX Classes
 90
        0
280
     0
281
     0
  0
CLASS
  1
ACDBPLACEHOLDER
  2
AcDbPlaceHolder
  3
ObjectDBX Classes
 90
        0
280
     0
281
     0
  0
CLASS
  1
LAYOUT
  2
AcDbLayout
  3
ObjectDBX Classes
 90
        0
280
     0
281
     0
  0
CLASS
  1
DICTIONARYVAR
  2
AcDbDictionaryVar
  3
ObjectDBX Classes
 90
        0
280
     0
281
     0
  0
CLASS
  1
MATERIAL
  2
AcDbMaterial
  3
ObjectDBX Classes
 90
     1153
280
     0
281
     0
  0
CLASS
  1
VISUALSTYLE
  2
AcDbVisualStyle
  3
ObjectDBX Classes
 90
     4095
280
     0
281
     0
  0
CLASS
  1
TABLESTYLE
  2
AcDbTableStyle
  3
ObjectDBX Classes
 90
     4095
280
     0
281
     0
  0
CLASS
  1
SCALE
  2
AcDbScale
  3
ObjectDBX Classes
 90
     1153
280
     0
281
     0
  0
CLASS
  1
MLEADERSTYLE
  2
AcDbMLeaderStyle
  3
ACDB_MLEADERSTYLE_CLASS
 90
     4095
280
     0
281
     0
  0
CLASS
  1
ACDBSECTIONVIEWSTYLE
  2
AcDbSectionViewStyle
  3
ObjectDBX Classes
 90
     1025
280
     0
281
     0
  0
CLASS
  1
ACDBDETAILVIEWSTYLE
  2
AcDbDetailViewStyle
  3
ObjectDBX Classes
 90
     1025
280
     0
281
     0
  0
CLASS
  1
CELLSTYLEMAP
  2
AcDbCellStyleMap
  3
ObjectDBX Classes
 90
     1152
280
     0
281
     0
  0
ENDSEC
  0
SECTION
  2
TABLES
  0
TABLE
  2
VPORT
  5
9894
330
0
100
AcDbSymbolTable
 70
     1
  0
VPORT
  5
9CA3
330
9894
100
AcDbSymbolTableRecord
100
AcDbViewportTableRecord
  2
*ACTIVE
 70
     0
 10
0.0
 20
0.0
 11
1.0
 21
1.0
 12
562.1034595689296
 22
275.4577344284133
 13
0.0
 23
0.0
 14
10.0
 24
10.0
 15
10.0
 25
10.0
 16
0.0
 26
0.0
 36
1.0
 17
0.0
 27
0.0
 37
0.0
 40
536.8920819614967
 41
1.899603698811096
 42
50.0
 43
0.0
 44
0.0
 50
0.0
 51
0.0
 71
     0
 72
   100
 73
     1
 74
     0
 75
     0
 76
     0
 77
     0
 78
     0
281
     0
 65
     1
110
0.0
120
0.0
130
0.0
111
1.0
121
0.0
131
0.0
112
0.0
122
1.0
132
0.0
 79
     0
146
0.0
1001
ACAD_NAV_VCDISPLAY
1070
     3
  0
ENDTAB
  0
TABLE
  2
LTYPE
  5
9891
330
0
100
AcDbSymbolTable
 70
     4
  0
LTYPE
  5
989F
330
9891
100
AcDbSymbolTableRecord
100
AcDbLinetypeTableRecord
  2
BYBLOCK
 70
     0
  3

 72
    65
 73
     0
 40
0.0
  0
LTYPE
  5
98A0
330
9891
100
AcDbSymbolTableRecord
100
AcDbLinetypeTableRecord
  2
BYLAYER
 70
     0
  3

 72
    65
 73
     0
 40
0.0
  0
LTYPE
  5
98A1
330
9891
100
AcDbSymbolTableRecord
100
AcDbLinetypeTableRecord
  2
CONTINUOUS
 70
     0
  3
Solid line
 72
    65
 73
     0
 40
0.0
  0
LTYPE
  5
98AF
330
9891
100
AcDbSymbolTableRecord
100
AcDbLinetypeTableRecord
  2
DASHED
 70
     0
  3
__ __ __ __ __ __ __ __ __ __ __ __ __ __ __ __
 72
    65
 73
     2
 40
0.75
 49
0.5
 74
     0
 49
-0.25
 74
     0
  0
LTYPE
  5
98B0
330
9891
100
AcDbSymbolTableRecord
100
AcDbLinetypeTableRecord
  2
CENTER
 70
     0
  3
____ _ ____ _ ____ _ ____ _ ____ _ ____ _ ____ 
 72
    65
 73
     4
 40
2.0
 49
1.25
 74
     0
 49
-0.25
 74
     0
 49
0.25
 74
     0
 49
-0.25
 74
     0
  0
LTYPE
  5
98B1
330
9891
100
AcDbSymbolTableRecord
100
AcDbLinetypeTableRecord
  2
PHANTOM
 70
     0
  3
______  __  __  ______  __  __  ______  __  __ 
 72
    65
 73
     6
 40
2.5
 49
1.25
 74
     0
 49
-0.25
 74
     0
 49
0.25
 74
     0
 49
-0.25
 74
     0
 49
0.25
 74
     0
 49
-0.25
 74
     0
  0
ENDTAB
  0
TABLE
  2
LAYER
  5
988E
330
0
100
AcDbSymbolTable
 70
     8
  0
LAYER
  5
989C
102
{ACAD_XDICTIONARY
360
9CFE
102
}
330
988E
100
AcDbSymbolTableRecord
100
AcDbLayerTableRecord
  2
0
 70
     0
 62
     7
  6
CONTINUOUS
370
    -3
390
9CAC
  0
LAYER
  5
98B2
102
{ACAD_XDICTIONARY
360
9D00
102
}
330
988E
100
AcDbSymbolTableRecord
100
AcDbLayerTableRecord
  2
4
 70
     0
 62
     1
  6
CENTER
370
    -3
390
9CAC
  0
LAYER
  5
98B3
102
{ACAD_XDICTIONARY
360
9D02
102
}
330
988E
100
AcDbSymbolTableRecord
100
AcDbLayerTableRecord
  2
5
 70
     0
 62
     6
  6
PHANTOM
370
    -3
390
9CAC
  0
LAYER
  5
98B4
102
{ACAD_XDICTIONARY
360
9D04
102
}
330
988E
100
AcDbSymbolTableRecord
100
AcDbLayerTableRecord
  2
1
 70
     0
 62
     7
  6
CONTINUOUS
370
    -3
390
9CAC
  0
LAYER
  5
98B5
102
{ACAD_XDICTIONARY
360
9D06
102
}
330
988E
100
AcDbSymbolTableRecord
100
AcDbLayerTableRecord
  2
2
 70
     0
 62
     4
  6
CONTINUOUS
370
    -3
390
9CAC
  0
LAYER
  5
98B6
102
{ACAD_XDICTIONARY
360
9D08
102
}
330
988E
100
AcDbSymbolTableRecord
100
AcDbLayerTableRecord
  2
3
 70
     0
 62
     2
  6
DASHED
370
    -3
390
9CAC
  0
LAYER
  5
98B7
102
{ACAD_XDICTIONARY
360
9D0A
102
}
330
988E
100
AcDbSymbolTableRecord
100
AcDbLayerTableRecord
  2
6
 70
     0
 62
     5
  6
CONTINUOUS
370
    -3
390
9CAC
  0
LAYER
  5
98B8
102
{ACAD_XDICTIONARY
360
9D0C
102
}
330
988E
100
AcDbSymbolTableRecord
100
AcDbLayerTableRecord
  2
7
 70
     0
 62
     3
  6
CONTINUOUS
370
    -3
390
9CAC
  0
ENDTAB
  0
TABLE
  2
STYLE
  5
988F
330
0
100
AcDbSymbolTable
 70
     1
  0
STYLE
  5
989D
330
988F
100
AcDbSymbolTableRecord
100
AcDbTextStyleTableRecord
  2
STANDARD
 70
     0
 40
0.0
 41
1.0
 50
0.0
 71
     0
 42
5.0
  3
txt
  4

  0
ENDTAB
  0
TABLE
  2
VIEW
  5
9892
330
0
100
AcDbSymbolTable
 70
     0
  0
ENDTAB
  0
TABLE
  2
UCS
  5
9893
330
0
100
AcDbSymbolTable
 70
     0
  0
ENDTAB
  0
TABLE
  2
APPID
  5
9895
330
0
100
AcDbSymbolTable
 70
     3
  0
APPID
  5
989E
330
9895
100
AcDbSymbolTableRecord
100
AcDbRegAppTableRecord
  2
ACAD
 70
     0
  0
APPID
  5
9D18
330
9895
100
AcDbSymbolTableRecord
100
AcDbRegAppTableRecord
  2
ACAD_NAV_VCDISPLAY
 70
     0
  0
APPID
  5
9D51
330
9895
100
AcDbSymbolTableRecord
100
AcDbRegAppTableRecord
  2
ACAD_MLEADERVER
 70
     0
  0
ENDTAB
  0
TABLE
  2
DIMSTYLE
  5
9896
330
0
100
AcDbSymbolTable
 70
     1
100
AcDbDimStyleTable
 71
     0
  0
DIMSTYLE
105
98BA
330
9896
100
AcDbSymbolTableRecord
100
AcDbDimStyleTableRecord
  2
STANDARD
 70
     0
 41
3.0
 42
1.0
 43
10.0
 44
1.0
 73
     0
 74
     0
 77
     3
 78
     8
140
3.2
141
0.0
147
1.0
172
     1
173
     1
284
     8
285
     8
286
     8
340
989D
  0
ENDTAB
  0
TABLE
  2
BLOCK_RECORD
  5
988D
330
0
100
AcDbSymbolTable
 70
     0
  0
BLOCK_RECORD
  5
98AA
102
{ACAD_XDICTIONARY
360
9CA6
102
}
330
988D
100
AcDbSymbolTableRecord
100
AcDbBlockTableRecord
  2
*MODEL_SPACE
340
9CFA
  0
BLOCK_RECORD
  5
98A6
102
{ACAD_XDICTIONARY
360
9CA4
102
}
330
988D
100
AcDbSymbolTableRecord
100
AcDbBlockTableRecord
  2
*PAPER_SPACE
340
9CFB
  0
ENDTAB
  0
ENDSEC
  0
SECTION
  2
BLOCKS
  0
BLOCK
  5
98AB
330
98AA
100
AcDbEntity
  8
0
100
AcDbBlockBegin
  2
*MODEL_SPACE
 70
     0
 10
0.0
 20
0.0
 30
0.0
  3
*MODEL_SPACE
  1

  0
ENDBLK
  5
98AC
330
98AA
100
AcDbEntity
  8
0
100
AcDbBlockEnd
  0
BLOCK
  5
98A7
330
98A6
100
AcDbEntity
 67
     1
  8
0
100
AcDbBlockBegin
  2
*PAPER_SPACE
 70
     0
 10
0.0
 20
0.0
 30
0.0
  3
*PAPER_SPACE
  1

  0
ENDBLK
  5
98A8
330
98A6
100
AcDbEntity
 67
     1
  8
0
100
AcDbBlockEnd
  0
ENDSEC
  0
SECTION
  2
ENTITIES
  0
LINE
  5
98C2
330
98AA
100
AcDbEntity
  8
4
  6
CENTER
100
AcDbLine
 10
469.6316219999998
 20
420.903076
 30
0.0
 11
469.6316219999998
 21
155.903061
 31
0.0
  0
LINE
  5
98C3
330
98AA
100
AcDbEntity
  8
1
  6
Continuous
100
AcDbLine
 10
616.1046139999997
 20
415.903076
 30
0.0
 11
619.304626
 21
415.903076
 31
0.0
  0
LINE
  5
98C4
330
98AA
100
AcDbEntity
  8
1
  6
Continuous
100
AcDbLine
 10
616.1046139999997
 20
160.903061
 30
0.0
 11
619.304626
 21
160.903061
 31
0.0
  0
LINE
  5
98C5
330
98AA
100
AcDbEntity
  8
1
  6
Continuous
100
AcDbLine
 10
454.631622
 20
400.9030759999998
 30
0.0
 11
454.631622
 21
175.903061
 31
0.0
  0
LINE
  5
98C6
330
98AA
100
AcDbEntity
  8
1
  6
Continuous
100
AcDbLine
 10
484.631622
 20
400.9030759999998
 30
0.0
 11
484.631622
 21
175.903061
 31
0.0
  0
LINE
  5
98C7
330
98AA
100
AcDbEntity
  8
1
  6
Continuous
100
AcDbLine
 10
451.43161
 20
400.9030759999998
 30
0.0
 11
451.43161
 21
175.903061
 31
0.0
  0
LINE
  5
98C8
330
98AA
100
AcDbEntity
  8
1
  6
Continuous
100
AcDbLine
 10
451.43161
 20
400.9030759999998
 30
0.0
 11
454.631622
 21
400.9030759999998
 31
0.0
  0
LINE
  5
98C9
330
98AA
100
AcDbEntity
  8
1
  6
Continuous
100
AcDbLine
 10
451.43161
 20
175.903061
 30
0.0
 11
454.631622
 21
175.903061
 31
0.0
  0
LINE
  5
98CA
330
98AA
100
AcDbEntity
  8
1
  6
Continuous
100
AcDbLine
 10
474.6316219999997
 20
300.9030759999999
 30
0.0
 11
474.6316219999997
 21
183.386383
 31
0.0
  0
LINE
  5
98CB
330
98AA
100
AcDbEntity
  8
1
  6
Continuous
100
AcDbLine
 10
464.631622
 20
300.9030759999999
 30
0.0
 11
464.631622
 21
183.386383
 31
0.0
  0
LINE
  5
98CC
330
98AA
100
AcDbEntity
  8
1
  6
Continuous
100
AcDbLine
 10
619.304626
 20
415.903076
 30
0.0
 11
619.304626
 21
160.903061
 31
0.0
  0
LINE
  5
98CD
330
98AA
100
AcDbEntity
  8
1
  6
Continuous
100
AcDbLine
 10
616.1046139999997
 20
415.903076
 30
0.0
 11
616.1046139999997
 21
160.903061
 31
0.0
  0
LINE
  5
98CE
330
98AA
100
AcDbEntity
  8
1
  6
Continuous
100
AcDbLine
 10
602.104614
 20
398.9030759999998
 30
0.0
 11
602.104614
 21
184.9030609999998
 31
0.0
  0
LINE
  5
98CF
330
98AA
100
AcDbEntity
  8
1
  6
Continuous
100
AcDbLine
 10
604.1046139999997
 20
400.9030759999998
 30
0.0
 11
608.3046259999997
 21
400.9030759999998
 31
0.0
  0
LINE
  5
98D0
330
98AA
100
AcDbEntity
  8
4
  6
CENTER
100
AcDbLine
 10
40.0
 20
420.903076
 30
0.0
 11
40.0
 21
155.903061
 31
0.0
  0
LINE
  5
98D1
330
98AA
100
AcDbEntity
  8
1
  6
Continuous
100
AcDbLine
 10
25.0
 20
400.9030759999998
 30
0.0
 11
25.0
 21
175.903061
 31
0.0
  0
LINE
  5
98D2
330
98AA
100
AcDbEntity
  8
1
  6
Continuous
100
AcDbLine
 10
58.200001
 20
400.9030759999998
 30
0.0
 11
58.200001
 21
175.903061
 31
0.0
  0
LINE
  5
98D3
330
98AA
100
AcDbEntity
  8
1
  6
Continuous
100
AcDbLine
 10
58.200001
 20
400.9030759999998
 30
0.0
 11
55.0
 21
400.9030759999998
 31
0.0
  0
LINE
  5
98D4
330
98AA
100
AcDbEntity
  8
1
  6
Continuous
100
AcDbLine
 10
58.200001
 20
175.903061
 30
0.0
 11
55.0
 21
175.903061
 31
0.0
  0
LINE
  5
98D5
330
98AA
100
AcDbEntity
  8
1
  6
Continuous
100
AcDbLine
 10
35.0
 20
300.9030759999999
 30
0.0
 11
35.0
 21
183.386383
 31
0.0
  0
LINE
  5
98D6
330
98AA
100
AcDbEntity
  8
1
  6
Continuous
100
AcDbLine
 10
45.0
 20
300.9030759999999
 30
0.0
 11
45.0
 21
183.386383
 31
0.0
  0
LINE
  5
98D7
330
98AA
100
AcDbEntity
  8
1
  6
Continuous
100
AcDbLine
 10
603.3046259999998
 20
184.9030609999998
 30
0.0
 11
603.3046259999998
 21
166.903061
 31
0.0
  0
LINE
  5
98D8
330
98AA
100
AcDbEntity
  8
1
  6
Continuous
100
AcDbLine
 10
308.158569
 20
52.700005
 30
0.0
 11
308.158569
 21
65.699997
 31
0.0
  0
LINE
  5
98D9
330
98AA
100
AcDbEntity
  8
1
  6
Continuous
100
AcDbLine
 10
318.1585689999999
 20
54.450001
 30
0.0
 11
308.158569
 21
54.450001
 31
0.0
  0
LINE
  5
98DA
330
98AA
100
AcDbEntity
  8
1
  6
Continuous
100
AcDbLine
 10
318.1585689999999
 20
63.950001
 30
0.0
 11
308.158569
 21
63.950001
 31
0.0
  0
LINE
  5
98DB
330
98AA
100
AcDbEntity
  8
1
  6
Continuous
100
AcDbLine
 10
307.6585689999999
 20
66.199997
 30
0.0
 11
305.3585819999999
 21
66.199997
 31
0.0
  0
LINE
  5
98DC
330
98AA
100
AcDbEntity
  8
1
  6
Continuous
100
AcDbLine
 10
307.6585689999999
 20
52.200005
 30
0.0
 11
305.3585819999999
 21
52.200005
 31
0.0
  0
LINE
  5
98DD
330
98AA
100
AcDbEntity
  8
1
  6
Continuous
100
AcDbLine
 10
308.1585999999999
 20
65.700005
 30
0.0
 11
307.6585999999999
 21
66.200005
 31
0.0
  0
LINE
  5
98DE
330
98AA
100
AcDbEntity
  8
1
  6
Continuous
100
AcDbLine
 10
308.158569
 20
52.700008
 30
0.0
 11
307.6585689999999
 21
52.20000800000001
 31
0.0
  0
LINE
  5
98DF
330
98AA
100
AcDbEntity
  8
1
  6
Continuous
100
AcDbLine
 10
307.6585689999999
 20
52.200005
 30
0.0
 11
307.6585689999999
 21
66.199997
 31
0.0
  0
LINE
  5
98E0
330
98AA
100
AcDbEntity
  8
1
  6
Continuous
100
AcDbLine
 10
318.1585689999999
 20
50.200005
 30
0.0
 11
318.1585689999999
 21
68.199997
 31
0.0
  0
LINE
  5
98E1
330
98AA
100
AcDbEntity
  8
1
  6
Continuous
100
AcDbLine
 10
320.1585689999999
 20
50.200005
 30
0.0
 11
320.1585689999999
 21
68.199997
 31
0.0
  0
LINE
  5
98E2
330
98AA
100
AcDbEntity
  8
1
  6
Continuous
100
AcDbLine
 10
320.1585689999999
 20
68.199997
 30
0.0
 11
318.1585689999999
 21
68.199997
 31
0.0
  0
LINE
  5
98E3
330
98AA
100
AcDbEntity
  8
1
  6
Continuous
100
AcDbLine
 10
320.1585689999999
 20
50.200005
 30
0.0
 11
318.1585689999999
 21
50.200005
 31
0.0
  0
LINE
  5
98E4
330
98AA
100
AcDbEntity
  8
1
  6
Continuous
100
AcDbLine
 10
276.4585569999999
 20
56.200001
 30
0.0
 11
276.4585569999999
 21
62.200001
 31
0.0
  0
LINE
  5
98E5
330
98AA
100
AcDbEntity
  8
1
  6
Continuous
100
AcDbLine
 10
268.1585689999999
 20
56.700001
 30
0.0
 11
268.1585689999999
 21
61.700001
 31
0.0
  0
LINE
  5
98E6
330
98AA
100
AcDbEntity
  8
1
  6
Continuous
100
AcDbLine
 10
268.658569
 20
56.200001
 30
0.0
 11
268.1585689999999
 21
56.700001
 31
0.0
  0
LINE
  5
98E7
330
98AA
100
AcDbEntity
  8
1
  6
Continuous
100
AcDbLine
 10
268.1585689999999
 20
61.69999699999999
 30
0.0
 11
268.658569
 21
62.19999699999998
 31
0.0
  0
LINE
  5
98E8
330
98AA
100
AcDbEntity
  8
1
  6
Continuous
100
AcDbLine
 10
277.158569
 20
61.700001
 30
0.0
 11
277.1085819999999
 21
61.700001
 31
0.0
  0
LINE
  5
98E9
330
98AA
100
AcDbEntity
  8
1
  6
Continuous
100
AcDbLine
 10
277.158569
 20
56.700001
 30
0.0
 11
277.1085819999999
 21
56.700001
 31
0.0
  0
LINE
  5
98EA
330
98AA
100
AcDbEntity
  8
1
  6
Continuous
100
AcDbLine
 10
276.4585569999999
 20
56.200001
 30
0.0
 11
268.658569
 21
56.200001
 31
0.0
  0
LINE
  5
98EB
330
98AA
100
AcDbEntity
  8
1
  6
Continuous
100
AcDbLine
 10
276.4585569999999
 20
62.200001
 30
0.0
 11
268.658569
 21
62.200001
 31
0.0
  0
LINE
  5
98EC
330
98AA
100
AcDbEntity
  8
1
  6
Continuous
100
AcDbLine
 10
268.658569
 20
56.200001
 30
0.0
 11
268.658569
 21
62.200001
 31
0.0
  0
LINE
  5
98ED
330
98AA
100
AcDbEntity
  8
1
  6
Continuous
100
AcDbLine
 10
302.158569
 20
50.200005
 30
0.0
 11
293.1585689999998
 21
50.200005
 31
0.0
  0
LINE
  5
98EE
330
98AA
100
AcDbEntity
  8
1
  6
Continuous
100
AcDbLine
 10
302.158569
 20
68.199997
 30
0.0
 11
293.1585689999998
 21
68.199997
 31
0.0
  0
LINE
  5
98EF
330
98AA
100
AcDbEntity
  8
1
  6
Continuous
100
AcDbLine
 10
293.1585689999998
 20
50.200005
 30
0.0
 11
293.1585689999998
 21
68.199997
 31
0.0
  0
LINE
  5
98F0
330
98AA
100
AcDbEntity
  8
1
  6
Continuous
100
AcDbLine
 10
277.158569
 20
55.200001
 30
0.0
 11
277.158569
 21
63.200001
 31
0.0
  0
LINE
  5
98F1
330
98AA
100
AcDbEntity
  8
1
  6
Continuous
100
AcDbLine
 10
293.1585689999998
 20
54.200005
 30
0.0
 11
278.1585689999999
 21
54.200005
 31
0.0
  0
LINE
  5
98F2
330
98AA
100
AcDbEntity
  8
1
  6
Continuous
100
AcDbLine
 10
293.1585689999998
 20
64.19999699999999
 30
0.0
 11
278.1585689999999
 21
64.19999699999999
 31
0.0
  0
LINE
  5
98F3
330
98AA
100
AcDbEntity
  8
2
  6
Continuous
100
AcDbLine
 10
293.1585689999998
 20
55.012001
 30
0.0
 11
277.346558
 21
55.012001
 31
0.0
  0
LINE
  5
98F4
330
98AA
100
AcDbEntity
  8
2
  6
Continuous
100
AcDbLine
 10
293.1585689999998
 20
63.38799999999999
 30
0.0
 11
277.346558
 21
63.38799999999999
 31
0.0
  0
LINE
  5
98F5
330
98AA
100
AcDbEntity
  8
1
  6
Continuous
100
AcDbLine
 10
278.1585999999999
 20
54.200001
 30
0.0
 11
277.158569
 21
55.200012
 31
0.0
  0
LINE
  5
98F6
330
98AA
100
AcDbEntity
  8
1
  6
Continuous
100
AcDbLine
 10
278.1585999999999
 20
64.200005
 30
0.0
 11
277.1585999999999
 21
63.200001
 31
0.0
  0
LINE
  5
98F7
330
98AA
100
AcDbEntity
  8
1
  6
Continuous
100
AcDbLine
 10
278.1585689999999
 20
54.200005
 30
0.0
 11
278.1585689999999
 21
64.19999699999999
 31
0.0
  0
LINE
  5
98F8
330
98AA
100
AcDbEntity
  8
4
  6
CENTER
100
AcDbLine
 10
594.304626
 20
400.9030759999998
 30
0.0
 11
792.5874629999997
 21
400.9030759999998
 31
0.0
  0
LINE
  5
98F9
330
98AA
100
AcDbEntity
  8
1
  6
Continuous
100
AcDbLine
 10
609.304626
 20
409.9030759999997
 30
0.0
 11
609.304626
 21
391.903076
 31
0.0
  0
LINE
  5
98FA
330
98AA
100
AcDbEntity
  8
1
  6
Continuous
100
AcDbLine
 10
607.3046259999999
 20
391.903076
 30
0.0
 11
609.304626
 21
391.903076
 31
0.0
  0
LINE
  5
98FB
330
98AA
100
AcDbEntity
  8
1
  6
Continuous
100
AcDbLine
 10
607.3046259999999
 20
409.9030759999997
 30
0.0
 11
609.304626
 21
409.9030759999997
 31
0.0
  0
LINE
  5
98FC
330
98AA
100
AcDbEntity
  8
1
  6
Continuous
100
AcDbLine
 10
607.3046259999999
 20
409.9030759999997
 30
0.0
 11
607.3046259999999
 21
402.403076
 31
0.0
  0
LINE
  5
98FD
330
98AA
100
AcDbEntity
  8
1
  6
Continuous
100
AcDbLine
 10
604.379822
 20
399.403076
 30
0.0
 11
608.3046259999997
 21
399.403076
 31
0.0
  0
LINE
  5
98FE
330
98AA
100
AcDbEntity
  8
1
  6
Continuous
100
AcDbLine
 10
604.379822
 20
402.403076
 30
0.0
 11
608.3046259999997
 21
402.403076
 31
0.0
  0
LINE
  5
98FF
330
98AA
100
AcDbEntity
  8
1
  6
Continuous
100
AcDbLine
 10
608.3046259999997
 20
402.403076
 30
0.0
 11
608.3046259999997
 21
399.403076
 31
0.0
  0
LINE
  5
9900
330
98AA
100
AcDbEntity
  8
1
  6
Continuous
100
AcDbLine
 10
610.14093
 20
395.903076
 30
0.0
 11
610.2432250000001
 21
395.903076
 31
0.0
  0
LINE
  5
9901
330
98AA
100
AcDbEntity
  8
1
  6
Continuous
100
AcDbLine
 10
609.304626
 20
405.9030759999997
 30
0.0
 11
609.368347
 21
405.9030759999997
 31
0.0
  0
LINE
  5
9902
330
98AA
100
AcDbEntity
  8
1
  6
Continuous
100
AcDbLine
 10
621.3046259999997
 20
405.9030759999997
 30
0.0
 11
621.3046259999997
 21
395.903076
 31
0.0
  0
LINE
  5
9903
330
98AA
100
AcDbEntity
  8
1
  6
Continuous
100
AcDbLine
 10
638.304626
 20
403.903076
 30
0.0
 11
638.304626
 21
397.903076
 31
0.0
  0
LINE
  5
9904
330
98AA
100
AcDbEntity
  8
1
  6
Continuous
100
AcDbLine
 10
637.3046259999997
 20
404.9030759999998
 30
0.0
 11
638.304626
 21
403.903076
 31
0.0
  0
LINE
  5
9905
330
98AA
100
AcDbEntity
  8
1
  6
Continuous
100
AcDbLine
 10
638.304626
 20
397.903046
 30
0.0
 11
637.3046259999997
 21
396.9030759999998
 31
0.0
  0
LINE
  5
9906
330
98AA
100
AcDbEntity
  8
1
  6
Continuous
100
AcDbLine
 10
607.3046259999999
 20
399.403076
 30
0.0
 11
607.3046259999999
 21
391.903076
 31
0.0
  0
LINE
  5
9907
330
98AA
100
AcDbEntity
  8
1
  6
Continuous
100
AcDbLine
 10
730.304626
 20
411.403076
 30
0.0
 11
730.304626
 21
390.4030759999998
 31
0.0
  0
LINE
  5
9908
330
98AA
100
AcDbEntity
  8
1
  6
Continuous
100
AcDbLine
 10
198.1585689999998
 20
515.4030759999999
 30
0.0
 11
196.1585689999998
 21
515.4030759999999
 31
0.0
  0
LINE
  5
9909
330
98AA
100
AcDbEntity
  8
1
  6
Continuous
100
AcDbLine
 10
198.1585689999998
 20
536.4030759999999
 30
0.0
 11
196.1585689999998
 21
536.4030759999999
 31
0.0
  0
LINE
  5
990A
330
98AA
100
AcDbEntity
  8
1
  6
Continuous
100
AcDbLine
 10
732.3046259999999
 20
408.603058
 30
0.0
 11
732.3046259999999
 21
393.2030639999999
 31
0.0
  0
LINE
  5
990B
330
98AA
100
AcDbEntity
  8
1
  6
Continuous
100
AcDbLine
 10
609.304626
 20
400.9030759999998
 30
0.0
 11
609.7034909999997
 21
400.9030759999998
 31
0.0
  0
LINE
  5
990C
330
98AA
100
AcDbEntity
  8
1
  6
Continuous
100
AcDbLine
 10
610.3126219999998
 20
395.1094969999999
 30
0.0
 11
609.3065189999999
 21
406.609467
 31
0.0
  0
LINE
  5
990D
330
98AA
100
AcDbEntity
  8
1
  6
Continuous
100
AcDbLine
 10
611.308838
 20
395.1966549999998
 30
0.0
 11
610.3027339999997
 21
406.696625
 31
0.0
  0
LINE
  5
990E
330
98AA
100
AcDbEntity
  8
1
  6
Continuous
100
AcDbLine
 10
615.1083980000001
 20
395.109467
 30
0.0
 11
614.1022949999998
 21
406.6094969999999
 31
0.0
  0
LINE
  5
990F
330
98AA
100
AcDbEntity
  8
1
  6
Continuous
100
AcDbLine
 10
616.1046139999997
 20
395.1966249999999
 30
0.0
 11
615.098511
 21
406.696655
 31
0.0
  0
LINE
  5
9910
330
98AA
100
AcDbEntity
  8
1
  6
Continuous
100
AcDbLine
 10
612.7105709999997
 20
395.1094969999999
 30
0.0
 11
611.7044069999998
 21
406.6094969999999
 31
0.0
  0
LINE
  5
9911
330
98AA
100
AcDbEntity
  8
1
  6
Continuous
100
AcDbLine
 10
613.706726
 20
395.1966549999998
 30
0.0
 11
612.7006229999998
 21
406.696625
 31
0.0
  0
LINE
  5
9912
330
98AA
100
AcDbEntity
  8
1
  6
Continuous
100
AcDbLine
 10
610.2026980000001
 20
395.1966549999998
 30
0.0
 11
609.70343
 21
400.9030459999998
 31
0.0
  0
LINE
  5
9913
330
98AA
100
AcDbEntity
  8
1
  6
Continuous
100
AcDbLine
 10
610.2045900000002
 20
395.1487119999999
 30
0.0
 11
610.211182
 21
395.903046
 31
0.0
  0
LINE
  5
9914
330
98AA
100
AcDbEntity
  8
1
  6
Continuous
100
AcDbLine
 10
616.1065059999997
 20
400.9030759999998
 30
0.0
 11
615.707642
 21
400.9030759999998
 31
0.0
  0
LINE
  5
9915
330
98AA
100
AcDbEntity
  8
1
  6
Continuous
100
AcDbLine
 10
615.2084349999999
 20
406.6094969999999
 30
0.0
 11
615.707703
 21
400.9030459999998
 31
0.0
  0
LINE
  5
9916
330
98AA
100
AcDbEntity
  8
1
  6
Continuous
100
AcDbLine
 10
615.197083
 20
405.5697939999998
 30
0.0
 11
615.206543
 21
406.65741
 31
0.0
  0
LINE
  5
9917
330
98AA
100
AcDbEntity
  8
1
  6
Continuous
100
AcDbLine
 10
611.6080929999999
 20
405.903046
 30
0.0
 11
611.7061159999998
 21
406.713135
 31
0.0
  0
LINE
  5
9918
330
98AA
100
AcDbEntity
  8
1
  6
Continuous
100
AcDbLine
 10
611.4051509999998
 20
395.903046
 30
0.0
 11
611.307129
 21
395.0929869999998
 31
0.0
  0
LINE
  5
9919
330
98AA
100
AcDbEntity
  8
1
  6
Continuous
100
AcDbLine
 10
614.0059809999997
 20
405.9030759999997
 30
0.0
 11
614.104004
 21
406.713135
 31
0.0
  0
LINE
  5
991A
330
98AA
100
AcDbEntity
  8
1
  6
Continuous
100
AcDbLine
 10
613.8030399999998
 20
395.903046
 30
0.0
 11
613.705017
 21
395.0929869999998
 31
0.0
  0
LINE
  5
991B
330
98AA
100
AcDbEntity
  8
1
  6
Continuous
100
AcDbLine
 10
31.5
 20
180.8105469999999
 30
0.0
 11
31.5
 21
170.9955899999999
 31
0.0
  0
LINE
  5
991C
330
98AA
100
AcDbEntity
  8
1
  6
Continuous
100
AcDbLine
 10
48.5
 20
180.8105469999999
 30
0.0
 11
48.5
 21
170.9955899999999
 31
0.0
  0
LINE
  5
991D
330
98AA
100
AcDbEntity
  8
1
  6
Continuous
100
AcDbLine
 10
40.0
 20
166.08812
 30
0.0
 11
48.499996
 21
170.9955899999999
 31
0.0
  0
LINE
  5
991E
330
98AA
100
AcDbEntity
  8
1
  6
Continuous
100
AcDbLine
 10
31.50000399999999
 20
180.8105319999999
 30
0.0
 11
40.0
 21
185.718018
 31
0.0
  0
LINE
  5
991F
330
98AA
100
AcDbEntity
  8
1
  6
Continuous
100
AcDbLine
 10
31.49999799999999
 20
170.9955899999999
 30
0.0
 11
40.0
 21
166.0881039999999
 31
0.0
  0
LINE
  5
9920
330
98AA
100
AcDbEntity
  8
1
  6
Continuous
100
AcDbLine
 10
39.99999600000001
 20
185.718018
 30
0.0
 11
48.5
 21
180.8105319999999
 31
0.0
  0
LINE
  5
9921
330
98AA
100
AcDbEntity
  8
1
  6
Continuous
100
AcDbLine
 10
730.304626
 20
393.2030639999999
 30
0.0
 11
732.3046259999999
 21
393.2030639999999
 31
0.0
  0
LINE
  5
9922
330
98AA
100
AcDbEntity
  8
1
  6
Continuous
100
AcDbLine
 10
730.304626
 20
408.603058
 30
0.0
 11
732.3046259999999
 21
408.603058
 31
0.0
  0
LINE
  5
9923
330
98AA
100
AcDbEntity
  8
1
  6
Continuous
100
AcDbLine
 10
40.0
 20
408.4086
 30
0.0
 11
46.5
 21
404.655823
 31
0.0
  0
LINE
  5
9924
330
98AA
100
AcDbEntity
  8
1
  6
Continuous
100
AcDbLine
 10
33.5
 20
397.1502689999999
 30
0.0
 11
40.0
 21
393.397491
 31
0.0
  0
LINE
  5
9925
330
98AA
100
AcDbEntity
  8
1
  6
Continuous
100
AcDbLine
 10
39.99999600000001
 20
408.4086
 30
0.0
 11
33.499996
 21
404.655823
 31
0.0
  0
LINE
  5
9926
330
98AA
100
AcDbEntity
  8
1
  6
Continuous
100
AcDbLine
 10
46.499996
 20
397.1502689999999
 30
0.0
 11
39.99999600000001
 21
393.397491
 31
0.0
  0
LINE
  5
9927
330
98AA
100
AcDbEntity
  8
1
  6
Continuous
100
AcDbLine
 10
33.5
 20
404.6558529999998
 30
0.0
 11
33.5
 21
397.150299
 31
0.0
  0
LINE
  5
9928
330
98AA
100
AcDbEntity
  8
1
  6
Continuous
100
AcDbLine
 10
46.5
 20
404.6558529999998
 30
0.0
 11
46.5
 21
397.150299
 31
0.0
  0
LINE
  5
9929
330
98AA
100
AcDbEntity
  8
1
  6
Continuous
100
AcDbLine
 10
738.804626
 20
407.403076
 30
0.0
 11
738.804626
 21
394.403076
 31
0.0
  0
LINE
  5
992A
330
98AA
100
AcDbEntity
  8
1
  6
Continuous
100
AcDbLine
 10
187.6585689999998
 20
532.4030759999999
 30
0.0
 11
187.6585689999998
 21
519.4030759999999
 31
0.0
  0
LINE
  5
992B
330
98AA
100
AcDbEntity
  8
1
  6
Continuous
100
AcDbLine
 10
194.158569
 20
533.603058
 30
0.0
 11
194.158569
 21
518.2030639999998
 31
0.0
  0
LINE
  5
992C
330
98AA
100
AcDbEntity
  8
1
  6
Continuous
100
AcDbLine
 10
738.22406
 20
408.40863
 30
0.0
 11
732.3046259999999
 21
408.40863
 31
0.0
  0
LINE
  5
992D
330
98AA
100
AcDbEntity
  8
1
  6
Continuous
100
AcDbLine
 10
738.22406
 20
393.3975219999999
 30
0.0
 11
732.3046259999999
 21
393.3975219999999
 31
0.0
  0
LINE
  5
992E
330
98AA
100
AcDbEntity
  8
1
  6
Continuous
100
AcDbLine
 10
738.22406
 20
397.150299
 30
0.0
 11
732.3046259999999
 21
397.150299
 31
0.0
  0
LINE
  5
992F
330
98AA
100
AcDbEntity
  8
1
  6
Continuous
100
AcDbLine
 10
738.22406
 20
404.6558529999998
 30
0.0
 11
732.3046259999999
 21
404.6558529999998
 31
0.0
  0
LINE
  5
9930
330
98AA
100
AcDbEntity
  8
1
  6
Continuous
100
AcDbLine
 10
194.158569
 20
532.4030759999999
 30
0.0
 11
187.6585689999998
 21
532.4030759999999
 31
0.0
  0
LINE
  5
9931
330
98AA
100
AcDbEntity
  8
1
  6
Continuous
100
AcDbLine
 10
194.158569
 20
519.4030759999999
 30
0.0
 11
187.6585689999998
 21
519.4030759999999
 31
0.0
  0
LINE
  5
9932
330
98AA
100
AcDbEntity
  8
1
  6
Continuous
100
AcDbLine
 10
738.804626
 20
407.403046
 30
0.0
 11
738.22406
 21
408.4086
 31
0.0
  0
LINE
  5
9933
330
98AA
100
AcDbEntity
  8
1
  6
Continuous
100
AcDbLine
 10
738.804626
 20
394.403076
 30
0.0
 11
738.22406
 21
393.397491
 31
0.0
  0
LINE
  5
9934
330
98AA
100
AcDbEntity
  8
1
  6
Continuous
100
AcDbLine
 10
732.3046259999999
 20
401.5210269999998
 30
0.0
 11
730.304626
 21
400.9851379999998
 31
0.0
  0
LINE
  5
9935
330
98AA
100
AcDbEntity
  8
1
  6
Continuous
100
AcDbLine
 10
732.3046259999999
 20
400.821014
 30
0.0
 11
730.3046879999997
 21
400.2851259999998
 31
0.0
  0
LINE
  5
9936
330
98AA
100
AcDbEntity
  8
1
  6
Continuous
100
AcDbLine
 10
783.3046259999997
 20
407.403076
 30
0.0
 11
783.3046259999997
 21
394.403076
 31
0.0
  0
LINE
  5
9937
330
98AA
100
AcDbEntity
  8
1
  6
Continuous
100
AcDbLine
 10
778.885132
 20
408.40863
 30
0.0
 11
782.72406
 21
408.40863
 31
0.0
  0
LINE
  5
9938
330
98AA
100
AcDbEntity
  8
1
  6
Continuous
100
AcDbLine
 10
778.885132
 20
393.3975219999999
 30
0.0
 11
782.72406
 21
393.3975219999999
 31
0.0
  0
LINE
  5
9939
330
98AA
100
AcDbEntity
  8
1
  6
Continuous
100
AcDbLine
 10
778.885132
 20
404.6558529999998
 30
0.0
 11
782.72406
 21
404.6558529999998
 31
0.0
  0
LINE
  5
993A
330
98AA
100
AcDbEntity
  8
1
  6
Continuous
100
AcDbLine
 10
778.885132
 20
397.150299
 30
0.0
 11
782.72406
 21
397.150299
 31
0.0
  0
LINE
  5
993B
330
98AA
100
AcDbEntity
  8
1
  6
Continuous
100
AcDbLine
 10
778.3046259999996
 20
394.403076
 30
0.0
 11
778.8851929999997
 21
393.3975219999999
 31
0.0
  0
LINE
  5
993C
330
98AA
100
AcDbEntity
  8
1
  6
Continuous
100
AcDbLine
 10
778.3046259999996
 20
407.403046
 30
0.0
 11
778.8851929999997
 21
408.4086
 31
0.0
  0
LINE
  5
993D
330
98AA
100
AcDbEntity
  8
1
  6
Continuous
100
AcDbLine
 10
783.3046259999997
 20
407.403076
 30
0.0
 11
782.72406
 21
408.40863
 31
0.0
  0
LINE
  5
993E
330
98AA
100
AcDbEntity
  8
1
  6
Continuous
100
AcDbLine
 10
783.3046259999997
 20
394.403076
 30
0.0
 11
782.72406
 21
393.397491
 31
0.0
  0
LINE
  5
993F
330
98AA
100
AcDbEntity
  8
1
  6
Continuous
100
AcDbLine
 10
460.7574769999998
 20
402.403076
 30
0.0
 11
478.505737
 21
402.403076
 31
0.0
  0
LINE
  5
9940
330
98AA
100
AcDbEntity
  8
1
  6
Continuous
100
AcDbLine
 10
460.7574769999998
 20
399.403076
 30
0.0
 11
478.505737
 21
399.403076
 31
0.0
  0
LINE
  5
9941
330
98AA
100
AcDbEntity
  8
1
  6
Continuous
100
AcDbLine
 10
460.7574769999998
 20
177.403061
 30
0.0
 11
478.505737
 21
177.403061
 31
0.0
  0
LINE
  5
9942
330
98AA
100
AcDbEntity
  8
1
  6
Continuous
100
AcDbLine
 10
460.7574769999998
 20
174.403061
 30
0.0
 11
478.505737
 21
174.403061
 31
0.0
  0
LINE
  5
9943
330
98AA
100
AcDbEntity
  8
1
  6
Continuous
100
AcDbLine
 10
305.3585819999999
 20
510.903076
 30
0.0
 11
305.3585819999999
 21
540.9030759999999
 31
0.0
  0
LINE
  5
9944
330
98AA
100
AcDbEntity
  8
1
  6
Continuous
100
AcDbLine
 10
302.158569
 20
510.903076
 30
0.0
 11
302.158569
 21
540.9030759999999
 31
0.0
  0
LINE
  5
9945
330
98AA
100
AcDbEntity
  8
1
  6
Continuous
100
AcDbLine
 10
319.3585819999999
 20
510.903076
 30
0.0
 11
302.158569
 21
510.903076
 31
0.0
  0
LINE
  5
9946
330
98AA
100
AcDbEntity
  8
1
  6
Continuous
100
AcDbLine
 10
305.3585819999999
 20
540.9030759999999
 30
0.0
 11
302.158569
 21
540.9030759999999
 31
0.0
  0
LINE
  5
9947
330
98AA
100
AcDbEntity
  8
1
  6
Continuous
100
AcDbLine
 10
319.3585819999999
 20
507.703064
 30
0.0
 11
305.3585819999999
 21
507.703064
 31
0.0
  0
LINE
  5
9948
330
98AA
100
AcDbEntity
  8
1
  6
Continuous
100
AcDbLine
 10
319.3585819999999
 20
507.703064
 30
0.0
 11
319.3585819999999
 21
510.903076
 31
0.0
  0
LINE
  5
9949
330
98AA
100
AcDbEntity
  8
1
  6
Continuous
100
AcDbLine
 10
319.3585819999999
 20
74.19999699999998
 30
0.0
 11
302.158569
 21
74.19999699999998
 31
0.0
  0
LINE
  5
994A
330
98AA
100
AcDbEntity
  8
1
  6
Continuous
100
AcDbLine
 10
302.158569
 20
74.19999699999998
 30
0.0
 11
302.158569
 21
44.20000499999999
 31
0.0
  0
LINE
  5
994B
330
98AA
100
AcDbEntity
  8
1
  6
Continuous
100
AcDbLine
 10
305.3585819999999
 20
74.19999699999998
 30
0.0
 11
305.3585819999999
 21
44.20000499999999
 31
0.0
  0
LINE
  5
994C
330
98AA
100
AcDbEntity
  8
1
  6
Continuous
100
AcDbLine
 10
319.3585819999999
 20
77.400002
 30
0.0
 11
319.3585819999999
 21
74.19999699999998
 31
0.0
  0
LINE
  5
994D
330
98AA
100
AcDbEntity
  8
1
  6
Continuous
100
AcDbLine
 10
319.3585819999999
 20
77.400002
 30
0.0
 11
305.3585819999999
 21
77.400002
 31
0.0
  0
LINE
  5
994E
330
98AA
100
AcDbEntity
  8
1
  6
Continuous
100
AcDbLine
 10
305.3585819999999
 20
44.20000499999999
 30
0.0
 11
302.158569
 21
44.20000499999999
 31
0.0
  0
LINE
  5
994F
330
98AA
100
AcDbEntity
  8
1
  6
Continuous
100
AcDbLine
 10
728.3046259999996
 20
411.403076
 30
0.0
 11
730.304626
 21
411.403076
 31
0.0
  0
LINE
  5
9950
330
98AA
100
AcDbEntity
  8
1
  6
Continuous
100
AcDbLine
 10
728.3046259999996
 20
390.4030759999998
 30
0.0
 11
730.304626
 21
390.4030759999998
 31
0.0
  0
LINE
  5
9951
330
98AA
100
AcDbEntity
  8
1
  6
Continuous
100
AcDbLine
 10
312.1585689999998
 20
516.9030759999999
 30
0.0
 11
312.1585689999998
 21
534.9030759999999
 31
0.0
  0
LINE
  5
9952
330
98AA
100
AcDbEntity
  8
1
  6
Continuous
100
AcDbLine
 10
314.1585689999998
 20
534.9030759999999
 30
0.0
 11
312.1585689999998
 21
534.9030759999999
 31
0.0
  0
LINE
  5
9953
330
98AA
100
AcDbEntity
  8
1
  6
Continuous
100
AcDbLine
 10
314.1585689999998
 20
516.9030759999999
 30
0.0
 11
312.1585689999998
 21
516.9030759999999
 31
0.0
  0
LINE
  5
9954
330
98AA
100
AcDbEntity
  8
1
  6
Continuous
100
AcDbLine
 10
311.258545
 20
530.9030759999999
 30
0.0
 11
310.319946
 21
530.9030759999999
 31
0.0
  0
LINE
  5
9955
330
98AA
100
AcDbEntity
  8
1
  6
Continuous
100
AcDbLine
 10
311.258545
 20
520.9030759999999
 30
0.0
 11
311.1948549999999
 21
520.9030759999999
 31
0.0
  0
LINE
  5
9956
330
98AA
100
AcDbEntity
  8
1
  6
Continuous
100
AcDbLine
 10
314.1585689999998
 20
516.9030759999999
 30
0.0
 11
314.1585689999998
 21
534.9030759999999
 31
0.0
  0
LINE
  5
9957
330
98AA
100
AcDbEntity
  8
1
  6
Continuous
100
AcDbLine
 10
196.1585689999998
 20
518.2030639999998
 30
0.0
 11
194.158569
 21
518.2030639999998
 31
0.0
  0
LINE
  5
9958
330
98AA
100
AcDbEntity
  8
1
  6
Continuous
100
AcDbLine
 10
196.1585689999998
 20
533.603058
 30
0.0
 11
194.158569
 21
533.603058
 31
0.0
  0
LINE
  5
9959
330
98AA
100
AcDbEntity
  8
1
  6
Continuous
100
AcDbLine
 10
194.1586299999999
 20
525.9851679999997
 30
0.0
 11
196.1585689999998
 21
526.5210269999998
 31
0.0
  0
LINE
  5
995A
330
98AA
100
AcDbEntity
  8
1
  6
Continuous
100
AcDbLine
 10
194.1585849999999
 20
525.2851559999998
 30
0.0
 11
196.1585689999998
 21
525.8210449999998
 31
0.0
  0
LINE
  5
995B
330
98AA
100
AcDbEntity
  8
1
  6
Continuous
100
AcDbLine
 10
141.6585689999998
 20
532.4030759999999
 30
0.0
 11
141.6585689999998
 21
519.4030759999999
 31
0.0
  0
LINE
  5
995C
330
98AA
100
AcDbEntity
  8
1
  6
Continuous
100
AcDbLine
 10
310.2505489999999
 20
531.696655
 30
0.0
 11
311.256683
 21
520.1966549999998
 31
0.0
  0
LINE
  5
995D
330
98AA
100
AcDbEntity
  8
1
  6
Continuous
100
AcDbLine
 10
309.254364
 20
531.6094969999998
 30
0.0
 11
310.260468
 21
520.1094969999997
 31
0.0
  0
LINE
  5
995E
330
98AA
100
AcDbEntity
  8
1
  6
Continuous
100
AcDbLine
 10
306.258545
 20
531.6530759999999
 30
0.0
 11
306.258545
 21
520.1530759999999
 31
0.0
  0
LINE
  5
995F
330
98AA
100
AcDbEntity
  8
1
  6
Continuous
100
AcDbLine
 10
311.258545
 20
531.6530759999999
 30
0.0
 11
311.258545
 21
520.1530759999999
 31
0.0
  0
LINE
  5
9960
330
98AA
100
AcDbEntity
  8
1
  6
Continuous
100
AcDbLine
 10
307.750549
 20
531.696655
 30
0.0
 11
308.756683
 21
520.1966549999998
 31
0.0
  0
LINE
  5
9961
330
98AA
100
AcDbEntity
  8
1
  6
Continuous
100
AcDbLine
 10
306.754364
 20
531.6094969999998
 30
0.0
 11
307.7604979999999
 21
520.1094969999997
 31
0.0
  0
LINE
  5
9962
330
98AA
100
AcDbEntity
  8
1
  6
Continuous
100
AcDbLine
 10
311.258545
 20
531.6530759999999
 30
0.0
 11
311.193695
 21
530.9030759999999
 31
0.0
  0
LINE
  5
9963
330
98AA
100
AcDbEntity
  8
1
  6
Continuous
100
AcDbLine
 10
308.860199
 20
520.9030759999999
 30
0.0
 11
308.761383
 21
520.142517
 31
0.0
  0
LINE
  5
9964
330
98AA
100
AcDbEntity
  8
1
  6
Continuous
100
AcDbLine
 10
309.151642
 20
530.903137
 30
0.0
 11
309.2565609999998
 21
531.71698
 31
0.0
  0
LINE
  5
9965
330
98AA
100
AcDbEntity
  8
1
  6
Continuous
100
AcDbLine
 10
306.360168
 20
520.903015
 30
0.0
 11
306.2543949999999
 21
520.0886839999998
 31
0.0
  0
LINE
  5
9966
330
98AA
100
AcDbEntity
  8
1
  6
Continuous
100
AcDbLine
 10
306.756592
 20
531.7174679999999
 30
0.0
 11
306.650818
 21
530.9030759999999
 31
0.0
  0
LINE
  5
9967
330
98AA
100
AcDbEntity
  8
1
  6
Continuous
100
AcDbLine
 10
644.304626
 20
179.903061
 30
0.0
 11
644.304626
 21
171.903061
 31
0.0
  0
LINE
  5
9968
330
98AA
100
AcDbEntity
  8
1
  6
Continuous
100
AcDbLine
 10
598.3798219999997
 20
177.403061
 30
0.0
 11
601.304626
 21
177.403061
 31
0.0
  0
LINE
  5
9969
330
98AA
100
AcDbEntity
  8
1
  6
Continuous
100
AcDbLine
 10
598.3798219999997
 20
174.403061
 30
0.0
 11
601.304626
 21
174.403061
 31
0.0
  0
LINE
  5
996A
330
98AA
100
AcDbEntity
  8
1
  6
Continuous
100
AcDbLine
 10
601.304626
 20
184.9030609999998
 30
0.0
 11
603.3046259999998
 21
184.9030609999998
 31
0.0
  0
LINE
  5
996B
330
98AA
100
AcDbEntity
  8
1
  6
Continuous
100
AcDbLine
 10
601.304626
 20
166.903061
 30
0.0
 11
603.3046259999998
 21
166.903061
 31
0.0
  0
LINE
  5
996C
330
98AA
100
AcDbEntity
  8
1
  6
Continuous
100
AcDbLine
 10
613.804626
 20
168.903061
 30
0.0
 11
616.1046139999997
 21
168.903061
 31
0.0
  0
LINE
  5
996D
330
98AA
100
AcDbEntity
  8
1
  6
Continuous
100
AcDbLine
 10
603.3046259999998
 20
171.153061
 30
0.0
 11
613.304626
 21
171.153061
 31
0.0
  0
LINE
  5
996E
330
98AA
100
AcDbEntity
  8
1
  6
Continuous
100
AcDbLine
 10
603.3046259999998
 20
180.653061
 30
0.0
 11
613.304626
 21
180.653061
 31
0.0
  0
LINE
  5
996F
330
98AA
100
AcDbEntity
  8
1
  6
Continuous
100
AcDbLine
 10
613.304626
 20
182.403061
 30
0.0
 11
613.304626
 21
169.403061
 31
0.0
  0
LINE
  5
9970
330
98AA
100
AcDbEntity
  8
1
  6
Continuous
100
AcDbLine
 10
613.804626
 20
182.903061
 30
0.0
 11
616.1046139999997
 21
182.903061
 31
0.0
  0
LINE
  5
9971
330
98AA
100
AcDbEntity
  8
1
  6
Continuous
100
AcDbLine
 10
613.304626
 20
169.403046
 30
0.0
 11
613.804626
 21
168.903061
 31
0.0
  0
LINE
  5
9972
330
98AA
100
AcDbEntity
  8
1
  6
Continuous
100
AcDbLine
 10
613.304626
 20
182.403076
 30
0.0
 11
613.804626
 21
182.903061
 31
0.0
  0
LINE
  5
9973
330
98AA
100
AcDbEntity
  8
1
  6
Continuous
100
AcDbLine
 10
613.804626
 20
182.903061
 30
0.0
 11
613.804626
 21
168.903061
 31
0.0
  0
LINE
  5
9974
330
98AA
100
AcDbEntity
  8
1
  6
Continuous
100
AcDbLine
 10
653.3046259999998
 20
178.403061
 30
0.0
 11
653.3046259999998
 21
173.403061
 31
0.0
  0
LINE
  5
9975
330
98AA
100
AcDbEntity
  8
1
  6
Continuous
100
AcDbLine
 10
645.0046389999998
 20
178.903061
 30
0.0
 11
645.0046389999998
 21
172.903061
 31
0.0
  0
LINE
  5
9976
330
98AA
100
AcDbEntity
  8
1
  6
Continuous
100
AcDbLine
 10
644.304626
 20
178.403061
 30
0.0
 11
644.3546139999997
 21
178.403061
 31
0.0
  0
LINE
  5
9977
330
98AA
100
AcDbEntity
  8
1
  6
Continuous
100
AcDbLine
 10
601.304626
 20
184.9030609999998
 30
0.0
 11
601.304626
 21
166.903061
 31
0.0
  0
LINE
  5
9978
330
98AA
100
AcDbEntity
  8
1
  6
Continuous
100
AcDbLine
 10
652.8046259999999
 20
178.903061
 30
0.0
 11
652.8046259999999
 21
172.903061
 31
0.0
  0
LINE
  5
9979
330
98AA
100
AcDbEntity
  8
1
  6
Continuous
100
AcDbLine
 10
645.0046389999998
 20
178.903061
 30
0.0
 11
652.8046259999999
 21
178.903061
 31
0.0
  0
LINE
  5
997A
330
98AA
100
AcDbEntity
  8
1
  6
Continuous
100
AcDbLine
 10
644.304626
 20
173.403061
 30
0.0
 11
644.3546139999997
 21
173.403061
 31
0.0
  0
LINE
  5
997B
330
98AA
100
AcDbEntity
  8
1
  6
Continuous
100
AcDbLine
 10
645.0046389999998
 20
172.903061
 30
0.0
 11
652.8046259999999
 21
172.903061
 31
0.0
  0
LINE
  5
997C
330
98AA
100
AcDbEntity
  8
1
  6
Continuous
100
AcDbLine
 10
652.8046259999999
 20
178.903061
 30
0.0
 11
653.3046259999998
 21
178.4030459999999
 31
0.0
  0
LINE
  5
997D
330
98AA
100
AcDbEntity
  8
1
  6
Continuous
100
AcDbLine
 10
653.3046259999998
 20
173.403061
 30
0.0
 11
652.8046259999999
 21
172.903076
 31
0.0
  0
LINE
  5
997E
330
98AA
100
AcDbEntity
  8
4
  6
CENTER
100
AcDbLine
 10
593.304626
 20
175.903061
 30
0.0
 11
747.391113
 21
175.903061
 31
0.0
  0
LINE
  5
997F
330
98AA
100
AcDbEntity
  8
1
  6
Continuous
100
AcDbLine
 10
619.304626
 20
184.9030609999998
 30
0.0
 11
628.3046259999998
 21
184.9030609999998
 31
0.0
  0
LINE
  5
9980
330
98AA
100
AcDbEntity
  8
1
  6
Continuous
100
AcDbLine
 10
619.304626
 20
166.903061
 30
0.0
 11
628.3046259999998
 21
166.903061
 31
0.0
  0
LINE
  5
9981
330
98AA
100
AcDbEntity
  8
1
  6
Continuous
100
AcDbLine
 10
628.3046259999998
 20
180.903061
 30
0.0
 11
643.304626
 21
180.903061
 31
0.0
  0
LINE
  5
9982
330
98AA
100
AcDbEntity
  8
1
  6
Continuous
100
AcDbLine
 10
628.3046259999998
 20
170.903061
 30
0.0
 11
643.304626
 21
170.903061
 31
0.0
  0
LINE
  5
9983
330
98AA
100
AcDbEntity
  8
2
  6
Continuous
100
AcDbLine
 10
628.3046259999998
 20
180.0910639999999
 30
0.0
 11
644.1166379999997
 21
180.0910639999999
 31
0.0
  0
LINE
  5
9984
330
98AA
100
AcDbEntity
  8
2
  6
Continuous
100
AcDbLine
 10
628.3046259999998
 20
171.715073
 30
0.0
 11
644.1166379999997
 21
171.715073
 31
0.0
  0
LINE
  5
9985
330
98AA
100
AcDbEntity
  8
1
  6
Continuous
100
AcDbLine
 10
643.304626
 20
180.903061
 30
0.0
 11
644.304626
 21
179.903061
 31
0.0
  0
LINE
  5
9986
330
98AA
100
AcDbEntity
  8
1
  6
Continuous
100
AcDbLine
 10
643.304626
 20
170.903061
 30
0.0
 11
644.304626
 21
171.9030909999999
 31
0.0
  0
LINE
  5
9987
330
98AA
100
AcDbEntity
  8
1
  6
Continuous
100
AcDbLine
 10
643.304626
 20
180.903061
 30
0.0
 11
643.304626
 21
170.903061
 31
0.0
  0
LINE
  5
9988
330
98AA
100
AcDbEntity
  8
1
  6
Continuous
100
AcDbLine
 10
644.9545900000003
 20
181.403061
 30
0.0
 11
644.9545900000003
 21
170.403061
 31
0.0
  0
LINE
  5
9989
330
98AA
100
AcDbEntity
  8
1
  6
Continuous
100
AcDbLine
 10
644.3546139999997
 20
170.403061
 30
0.0
 11
644.9545900000003
 21
170.403061
 31
0.0
  0
LINE
  5
998A
330
98AA
100
AcDbEntity
  8
1
  6
Continuous
100
AcDbLine
 10
644.3546139999997
 20
181.403061
 30
0.0
 11
644.9545900000003
 21
181.403061
 31
0.0
  0
LINE
  5
998B
330
98AA
100
AcDbEntity
  8
1
  6
Continuous
100
AcDbLine
 10
734.304626
 20
184.403061
 30
0.0
 11
734.304626
 21
167.403061
 31
0.0
  0
LINE
  5
998C
330
98AA
100
AcDbEntity
  8
1
  6
Continuous
100
AcDbLine
 10
729.063843
 20
185.718018
 30
0.0
 11
733.5454099999997
 21
185.718018
 31
0.0
  0
LINE
  5
998D
330
98AA
100
AcDbEntity
  8
1
  6
Continuous
100
AcDbLine
 10
729.063843
 20
166.0881039999999
 30
0.0
 11
733.5454099999997
 21
166.0881039999999
 31
0.0
  0
LINE
  5
998E
330
98AA
100
AcDbEntity
  8
1
  6
Continuous
100
AcDbLine
 10
729.063843
 20
180.8105469999999
 30
0.0
 11
733.5454099999997
 21
180.8105469999999
 31
0.0
  0
LINE
  5
998F
330
98AA
100
AcDbEntity
  8
1
  6
Continuous
100
AcDbLine
 10
729.063843
 20
170.9955899999999
 30
0.0
 11
733.5454099999997
 21
170.9955899999999
 31
0.0
  0
LINE
  5
9990
330
98AA
100
AcDbEntity
  8
1
  6
Continuous
100
AcDbLine
 10
728.3046259999996
 20
167.403061
 30
0.0
 11
729.0637819999997
 21
166.0881039999999
 31
0.0
  0
LINE
  5
9991
330
98AA
100
AcDbEntity
  8
1
  6
Continuous
100
AcDbLine
 10
728.304565
 20
184.403061
 30
0.0
 11
729.0637819999997
 21
185.718063
 31
0.0
  0
LINE
  5
9992
330
98AA
100
AcDbEntity
  8
1
  6
Continuous
100
AcDbLine
 10
734.304626
 20
167.4030759999999
 30
0.0
 11
733.5454099999997
 21
166.08812
 31
0.0
  0
LINE
  5
9993
330
98AA
100
AcDbEntity
  8
1
  6
Continuous
100
AcDbLine
 10
734.304626
 20
184.403076
 30
0.0
 11
733.5454099999997
 21
185.718033
 31
0.0
  0
LINE
  5
9994
330
98AA
100
AcDbEntity
  8
1
  6
Continuous
100
AcDbLine
 10
198.1585689999998
 20
67.69999699999999
 30
0.0
 11
192.158569
 21
67.69999699999999
 31
0.0
  0
LINE
  5
9995
330
98AA
100
AcDbEntity
  8
1
  6
Continuous
100
AcDbLine
 10
198.1585689999998
 20
50.700001
 30
0.0
 11
192.158569
 21
50.700001
 31
0.0
  0
LINE
  5
9996
330
98AA
100
AcDbEntity
  8
1
  6
Continuous
100
AcDbLine
 10
192.158569
 20
67.69999699999999
 30
0.0
 11
192.158569
 21
50.700001
 31
0.0
  0
LINE
  5
9997
330
98AA
100
AcDbEntity
  8
1
  6
Continuous
100
AcDbLine
 10
197.399384
 20
59.200001
 30
0.0
 11
192.917755
 21
59.200001
 31
0.0
  0
LINE
  5
9998
330
98AA
100
AcDbEntity
  8
1
  6
Continuous
100
AcDbLine
 10
276.508575
 20
53.70000499999999
 30
0.0
 11
277.1085819999999
 21
53.70000499999999
 31
0.0
  0
LINE
  5
9999
330
98AA
100
AcDbEntity
  8
1
  6
Continuous
100
AcDbLine
 10
276.508575
 20
62.97475099999999
 30
0.0
 11
277.1085819999999
 21
62.97475099999999
 31
0.0
  0
LINE
  5
999A
330
98AA
100
AcDbEntity
  8
1
  6
Continuous
100
AcDbLine
 10
276.508575
 20
53.70000499999999
 30
0.0
 11
276.508575
 21
62.97475099999999
 31
0.0
  0
LINE
  5
999B
330
98AA
100
AcDbEntity
  8
1
  6
Continuous
100
AcDbLine
 10
277.1085819999999
 20
53.70000499999999
 30
0.0
 11
277.1085819999999
 21
62.97475099999999
 31
0.0
  0
LINE
  5
999C
330
98AA
100
AcDbEntity
  8
1
  6
Continuous
100
AcDbLine
 10
40.0
 20
179.7825009999999
 30
0.0
 11
40.0
 21
178.903061
 31
0.0
  0
LINE
  5
999D
330
98AA
100
AcDbEntity
  8
1
  6
Continuous
100
AcDbLine
 10
41.759914
 20
173.473511
 30
0.0
 11
43.57474899999998
 21
172.4257199999999
 31
0.0
  0
LINE
  5
999E
330
98AA
100
AcDbEntity
  8
1
  6
Continuous
100
AcDbLine
 10
43.57475299999999
 20
179.380417
 30
0.0
 11
41.759918
 21
178.332611
 31
0.0
  0
LINE
  5
999F
330
98AA
100
AcDbEntity
  8
1
  6
Continuous
100
AcDbLine
 10
36.354523
 20
177.229904
 30
0.0
 11
37.18092
 21
176.929123
 31
0.0
  0
LINE
  5
99A0
330
98AA
100
AcDbEntity
  8
1
  6
Continuous
100
AcDbLine
 10
37.18092
 20
174.8770139999998
 30
0.0
 11
36.354523
 21
174.5762329999998
 31
0.0
  0
LINE
  5
99A1
330
98AA
100
AcDbEntity
  8
1
  6
Continuous
100
AcDbLine
 10
40.0
 20
172.903061
 30
0.0
 11
40.0
 21
172.023636
 31
0.0
  0
LINE
  5
99A2
330
98AA
100
AcDbEntity
  8
5
  6
PHANTOM
100
AcDbLine
 10
634.304626
 20
318.072266
 30
0.0
 11
634.304626
 21
283.524994
 31
0.0
  0
LINE
  5
99A3
330
98AA
100
AcDbEntity
  8
1
  6
Continuous
100
AcDbLine
 10
644.9545900000003
 20
178.403061
 30
0.0
 11
645.0046389999998
 21
178.403061
 31
0.0
  0
LINE
  5
99A4
330
98AA
100
AcDbEntity
  8
1
  6
Continuous
100
AcDbLine
 10
644.9545900000003
 20
173.403061
 30
0.0
 11
645.0046389999998
 21
173.403061
 31
0.0
  0
LINE
  5
99A5
330
98AA
100
AcDbEntity
  8
5
  6
PHANTOM
100
AcDbLine
 10
619.8046259999999
 20
307.903076
 30
0.0
 11
619.8046259999999
 21
293.9030759999998
 31
0.0
  0
LINE
  5
99A6
330
98AA
100
AcDbEntity
  8
5
  6
PHANTOM
100
AcDbLine
 10
619.304626
 20
307.4030759999998
 30
0.0
 11
619.8046259999999
 21
307.903076
 31
0.0
  0
LINE
  5
99A7
330
98AA
100
AcDbEntity
  8
5
  6
PHANTOM
100
AcDbLine
 10
619.304626
 20
294.403046
 30
0.0
 11
619.8046259999999
 21
293.903046
 31
0.0
  0
LINE
  5
99A8
330
98AA
100
AcDbEntity
  8
5
  6
PHANTOM
100
AcDbLine
 10
619.8046259999999
 20
307.903076
 30
0.0
 11
625.3046259999997
 21
307.903076
 31
0.0
  0
LINE
  5
99A9
330
98AA
100
AcDbEntity
  8
5
  6
PHANTOM
100
AcDbLine
 10
609.304626
 20
305.653076
 30
0.0
 11
616.1046139999997
 21
305.653076
 31
0.0
  0
LINE
  5
99AA
330
98AA
100
AcDbEntity
  8
5
  6
PHANTOM
100
AcDbLine
 10
607.3046259999999
 20
309.903076
 30
0.0
 11
609.304626
 21
309.903076
 31
0.0
  0
LINE
  5
99AB
330
98AA
100
AcDbEntity
  8
5
  6
PHANTOM
100
AcDbLine
 10
607.3046259999999
 20
291.903076
 30
0.0
 11
609.304626
 21
291.903076
 31
0.0
  0
LINE
  5
99AC
330
98AA
100
AcDbEntity
  8
5
  6
PHANTOM
100
AcDbLine
 10
619.8046259999999
 20
293.9030759999998
 30
0.0
 11
625.3046259999997
 21
293.9030759999998
 31
0.0
  0
LINE
  5
99AD
330
98AA
100
AcDbEntity
  8
5
  6
PHANTOM
100
AcDbLine
 10
604.379822
 20
302.403076
 30
0.0
 11
607.3046259999999
 21
302.403076
 31
0.0
  0
LINE
  5
99AE
330
98AA
100
AcDbEntity
  8
5
  6
PHANTOM
100
AcDbLine
 10
609.304626
 20
296.153076
 30
0.0
 11
616.1046139999997
 21
296.153076
 31
0.0
  0
LINE
  5
99AF
330
98AA
100
AcDbEntity
  8
5
  6
PHANTOM
100
AcDbLine
 10
604.379822
 20
299.403076
 30
0.0
 11
607.3046259999999
 21
299.403076
 31
0.0
  0
LINE
  5
99B0
330
98AA
100
AcDbEntity
  8
5
  6
PHANTOM
100
AcDbLine
 10
607.3046259999999
 20
309.903076
 30
0.0
 11
607.3046259999999
 21
291.903076
 31
0.0
  0
LINE
  5
99B1
330
98AA
100
AcDbEntity
  8
5
  6
PHANTOM
100
AcDbLine
 10
609.304626
 20
309.903076
 30
0.0
 11
609.304626
 21
291.903076
 31
0.0
  0
LINE
  5
99B2
330
98AA
100
AcDbEntity
  8
4
  6
CENTER
100
AcDbLine
 10
599.3046259999998
 20
300.9030759999999
 30
0.0
 11
639.304626
 21
300.9030759999999
 31
0.0
  0
LINE
  5
99B3
330
98AA
100
AcDbEntity
  8
5
  6
PHANTOM
100
AcDbLine
 10
625.3046259999997
 20
309.903076
 30
0.0
 11
634.304626
 21
309.903076
 31
0.0
  0
LINE
  5
99B4
330
98AA
100
AcDbEntity
  8
5
  6
PHANTOM
100
AcDbLine
 10
625.3046259999997
 20
291.903076
 30
0.0
 11
634.304626
 21
291.903076
 31
0.0
  0
LINE
  5
99B5
330
98AA
100
AcDbEntity
  8
5
  6
PHANTOM
100
AcDbLine
 10
625.3046259999997
 20
309.903076
 30
0.0
 11
625.3046259999997
 21
291.903076
 31
0.0
  0
LINE
  5
99B6
330
98AA
100
AcDbEntity
  8
1
  6
Continuous
100
AcDbLine
 10
276.508575
 20
56.700001
 30
0.0
 11
276.4585569999999
 21
56.700001
 31
0.0
  0
LINE
  5
99B7
330
98AA
100
AcDbEntity
  8
1
  6
Continuous
100
AcDbLine
 10
276.508575
 20
61.700001
 30
0.0
 11
276.4585569999999
 21
61.700001
 31
0.0
  0
LINE
  5
99B8
330
98AA
100
AcDbEntity
  8
5
  6
PHANTOM
100
AcDbLine
 10
637.3046259999997
 20
318.072266
 30
0.0
 11
637.3046259999997
 21
283.524994
 31
0.0
  0
LINE
  5
99B9
330
98AA
100
AcDbEntity
  8
1
  6
Continuous
100
AcDbLine
 10
615.167908
 20
405.9030759999997
 30
0.0
 11
615.270264
 21
405.9030759999997
 31
0.0
  0
LINE
  5
99BA
330
98AA
100
AcDbEntity
  8
1
  6
Continuous
100
AcDbLine
 10
612.7700200000001
 20
405.9030759999997
 30
0.0
 11
614.164124
 21
405.9030759999997
 31
0.0
  0
LINE
  5
99BB
330
98AA
100
AcDbEntity
  8
1
  6
Continuous
100
AcDbLine
 10
610.372131
 20
405.9030759999997
 30
0.0
 11
611.7662349999999
 21
405.9030759999997
 31
0.0
  0
LINE
  5
99BC
330
98AA
100
AcDbEntity
  8
1
  6
Continuous
100
AcDbLine
 10
611.2470089999998
 20
395.903076
 30
0.0
 11
612.641113
 21
395.903076
 31
0.0
  0
LINE
  5
99BD
330
98AA
100
AcDbEntity
  8
1
  6
Continuous
100
AcDbLine
 10
613.644897
 20
395.903076
 30
0.0
 11
615.0390009999997
 21
395.903076
 31
0.0
  0
LINE
  5
99BE
330
98AA
100
AcDbEntity
  8
1
  6
Continuous
100
AcDbLine
 10
306.816162
 20
530.9030759999999
 30
0.0
 11
306.258545
 21
530.9030759999999
 31
0.0
  0
LINE
  5
99BF
330
98AA
100
AcDbEntity
  8
1
  6
Continuous
100
AcDbLine
 10
309.316162
 20
530.9030759999999
 30
0.0
 11
307.819946
 21
530.9030759999999
 31
0.0
  0
LINE
  5
99C0
330
98AA
100
AcDbEntity
  8
1
  6
Continuous
100
AcDbLine
 10
310.1910399999998
 20
520.9030759999999
 30
0.0
 11
308.6948549999998
 21
520.9030759999999
 31
0.0
  0
LINE
  5
99C1
330
98AA
100
AcDbEntity
  8
1
  6
Continuous
100
AcDbLine
 10
307.69104
 20
520.9030759999999
 30
0.0
 11
306.258545
 21
520.9030759999999
 31
0.0
  0
LINE
  5
99C2
330
98AA
100
AcDbEntity
  8
1
  6
Continuous
100
AcDbLine
 10
277.158569
 20
529.9030759999999
 30
0.0
 11
277.158569
 21
521.9030759999999
 31
0.0
  0
LINE
  5
99C3
330
98AA
100
AcDbEntity
  8
1
  6
Continuous
100
AcDbLine
 10
320.1585689999999
 20
534.9030759999999
 30
0.0
 11
318.1585689999999
 21
534.9030759999999
 31
0.0
  0
LINE
  5
99C4
330
98AA
100
AcDbEntity
  8
1
  6
Continuous
100
AcDbLine
 10
320.1585689999999
 20
516.9030759999999
 30
0.0
 11
318.1585689999999
 21
516.9030759999999
 31
0.0
  0
LINE
  5
99C5
330
98AA
100
AcDbEntity
  8
1
  6
Continuous
100
AcDbLine
 10
307.6585689999999
 20
518.9030759999999
 30
0.0
 11
305.3585819999999
 21
518.9030759999999
 31
0.0
  0
LINE
  5
99C6
330
98AA
100
AcDbEntity
  8
1
  6
Continuous
100
AcDbLine
 10
318.1585689999999
 20
521.1530759999999
 30
0.0
 11
316.3865969999998
 21
521.1530759999999
 31
0.0
  0
LINE
  5
99C7
330
98AA
100
AcDbEntity
  8
1
  6
Continuous
100
AcDbLine
 10
318.1585689999999
 20
530.6530759999999
 30
0.0
 11
316.3865969999998
 21
530.6530759999999
 31
0.0
  0
LINE
  5
99C8
330
98AA
100
AcDbEntity
  8
1
  6
Continuous
100
AcDbLine
 10
308.158569
 20
532.4030759999999
 30
0.0
 11
308.158569
 21
530.9030759999999
 31
0.0
  0
LINE
  5
99C9
330
98AA
100
AcDbEntity
  8
4
  6
CENTER
100
AcDbLine
 10
328.1585689999999
 20
525.9030759999999
 30
0.0
 11
122.125229
 21
525.9030759999999
 31
0.0
  0
LINE
  5
99CA
330
98AA
100
AcDbEntity
  8
1
  6
Continuous
100
AcDbLine
 10
307.6585689999999
 20
532.9030760000001
 30
0.0
 11
305.3585819999999
 21
532.9030760000001
 31
0.0
  0
LINE
  5
99CB
330
98AA
100
AcDbEntity
  8
1
  6
Continuous
100
AcDbLine
 10
308.1585999999999
 20
519.403137
 30
0.0
 11
307.6585689999999
 21
518.9030759999999
 31
0.0
  0
LINE
  5
99CC
330
98AA
100
AcDbEntity
  8
1
  6
Continuous
100
AcDbLine
 10
308.158539
 20
532.4030759999999
 30
0.0
 11
307.658539
 21
532.9030760000001
 31
0.0
  0
LINE
  5
99CD
330
98AA
100
AcDbEntity
  8
1
  6
Continuous
100
AcDbLine
 10
307.6585689999999
 20
532.9030760000001
 30
0.0
 11
307.6585689999999
 21
531.9447629999998
 31
0.0
  0
LINE
  5
99CE
330
98AA
100
AcDbEntity
  8
1
  6
Continuous
100
AcDbLine
 10
268.1585689999999
 20
528.4030759999999
 30
0.0
 11
268.1585689999999
 21
523.4030759999999
 31
0.0
  0
LINE
  5
99CF
330
98AA
100
AcDbEntity
  8
1
  6
Continuous
100
AcDbLine
 10
276.4585569999999
 20
528.9030760000001
 30
0.0
 11
276.4585569999999
 21
522.9030759999999
 31
0.0
  0
LINE
  5
99D0
330
98AA
100
AcDbEntity
  8
1
  6
Continuous
100
AcDbLine
 10
277.158569
 20
528.4030759999999
 30
0.0
 11
277.1085819999999
 21
528.4030759999999
 31
0.0
  0
LINE
  5
99D1
330
98AA
100
AcDbEntity
  8
1
  6
Continuous
100
AcDbLine
 10
320.1585689999999
 20
534.9030759999999
 30
0.0
 11
320.1585689999999
 21
516.9030759999999
 31
0.0
  0
LINE
  5
99D2
330
98AA
100
AcDbEntity
  8
1
  6
Continuous
100
AcDbLine
 10
318.1585689999999
 20
534.9030759999999
 30
0.0
 11
318.1585689999999
 21
516.9030759999999
 31
0.0
  0
LINE
  5
99D3
330
98AA
100
AcDbEntity
  8
1
  6
Continuous
100
AcDbLine
 10
268.658569
 20
528.9030760000001
 30
0.0
 11
268.658569
 21
522.9030759999999
 31
0.0
  0
LINE
  5
99D4
330
98AA
100
AcDbEntity
  8
1
  6
Continuous
100
AcDbLine
 10
276.4585569999999
 20
528.9030760000001
 30
0.0
 11
268.658569
 21
528.9030760000001
 31
0.0
  0
LINE
  5
99D5
330
98AA
100
AcDbEntity
  8
1
  6
Continuous
100
AcDbLine
 10
277.158569
 20
523.4030759999999
 30
0.0
 11
277.1085819999999
 21
523.4030759999999
 31
0.0
  0
LINE
  5
99D6
330
98AA
100
AcDbEntity
  8
1
  6
Continuous
100
AcDbLine
 10
276.4585569999999
 20
522.9030759999999
 30
0.0
 11
268.658569
 21
522.9030759999999
 31
0.0
  0
LINE
  5
99D7
330
98AA
100
AcDbEntity
  8
1
  6
Continuous
100
AcDbLine
 10
268.658539
 20
528.9030760000001
 30
0.0
 11
268.1585689999999
 21
528.4030759999999
 31
0.0
  0
LINE
  5
99D8
330
98AA
100
AcDbEntity
  8
1
  6
Continuous
100
AcDbLine
 10
268.1585689999999
 20
523.4030759999999
 30
0.0
 11
268.658569
 21
522.9030759999999
 31
0.0
  0
LINE
  5
99D9
330
98AA
100
AcDbEntity
  8
1
  6
Continuous
100
AcDbLine
 10
276.508545
 20
523.4030759999999
 30
0.0
 11
276.4585569999999
 21
523.4030759999999
 31
0.0
  0
LINE
  5
99DA
330
98AA
100
AcDbEntity
  8
1
  6
Continuous
100
AcDbLine
 10
302.158569
 20
534.9030759999999
 30
0.0
 11
293.1585689999998
 21
534.9030759999999
 31
0.0
  0
LINE
  5
99DB
330
98AA
100
AcDbEntity
  8
1
  6
Continuous
100
AcDbLine
 10
302.158569
 20
516.9030759999999
 30
0.0
 11
293.1585689999998
 21
516.9030759999999
 31
0.0
  0
LINE
  5
99DC
330
98AA
100
AcDbEntity
  8
1
  6
Continuous
100
AcDbLine
 10
293.1585689999998
 20
530.9030759999999
 30
0.0
 11
278.1585689999999
 21
530.9030759999999
 31
0.0
  0
LINE
  5
99DD
330
98AA
100
AcDbEntity
  8
1
  6
Continuous
100
AcDbLine
 10
293.1585689999998
 20
520.9030759999999
 30
0.0
 11
278.1585689999999
 21
520.9030759999999
 31
0.0
  0
LINE
  5
99DE
330
98AA
100
AcDbEntity
  8
2
  6
Continuous
100
AcDbLine
 10
293.1585689999998
 20
530.0910639999998
 30
0.0
 11
277.346558
 21
530.0910639999998
 31
0.0
  0
LINE
  5
99DF
330
98AA
100
AcDbEntity
  8
2
  6
Continuous
100
AcDbLine
 10
293.1585689999998
 20
521.715088
 30
0.0
 11
277.346558
 21
521.715088
 31
0.0
  0
LINE
  5
99E0
330
98AA
100
AcDbEntity
  8
1
  6
Continuous
100
AcDbLine
 10
278.158539
 20
530.9030759999999
 30
0.0
 11
277.158569
 21
529.9030759999999
 31
0.0
  0
LINE
  5
99E1
330
98AA
100
AcDbEntity
  8
1
  6
Continuous
100
AcDbLine
 10
278.1585689999999
 20
520.9030759999999
 30
0.0
 11
277.158569
 21
521.9030759999999
 31
0.0
  0
LINE
  5
99E2
330
98AA
100
AcDbEntity
  8
1
  6
Continuous
100
AcDbLine
 10
278.1585689999999
 20
530.9030759999999
 30
0.0
 11
278.1585689999999
 21
520.9030759999999
 31
0.0
  0
LINE
  5
99E3
330
98AA
100
AcDbEntity
  8
1
  6
Continuous
100
AcDbLine
 10
277.1085819999999
 20
531.4030759999999
 30
0.0
 11
277.1085819999999
 21
522.128357
 31
0.0
  0
LINE
  5
99E4
330
98AA
100
AcDbEntity
  8
1
  6
Continuous
100
AcDbLine
 10
276.508545
 20
531.4030759999999
 30
0.0
 11
276.508545
 21
522.128357
 31
0.0
  0
LINE
  5
99E5
330
98AA
100
AcDbEntity
  8
1
  6
Continuous
100
AcDbLine
 10
276.508545
 20
522.128357
 30
0.0
 11
277.1085819999999
 21
522.128357
 31
0.0
  0
LINE
  5
99E6
330
98AA
100
AcDbEntity
  8
1
  6
Continuous
100
AcDbLine
 10
276.508545
 20
531.4030759999999
 30
0.0
 11
277.1085819999999
 21
531.4030759999999
 31
0.0
  0
LINE
  5
99E7
330
98AA
100
AcDbEntity
  8
1
  6
Continuous
100
AcDbLine
 10
276.508545
 20
528.4030759999999
 30
0.0
 11
276.4585569999999
 21
528.4030759999999
 31
0.0
  0
LINE
  5
99E8
330
98AA
100
AcDbEntity
  8
1
  6
Continuous
100
AcDbLine
 10
308.158569
 20
519.663208
 30
0.0
 11
308.158569
 21
519.4030759999999
 31
0.0
  0
LINE
  5
99E9
330
98AA
100
AcDbEntity
  8
1
  6
Continuous
100
AcDbLine
 10
307.6585689999999
 20
520.9030759999999
 30
0.0
 11
307.6585689999999
 21
518.9030759999999
 31
0.0
  0
LINE
  5
99EA
330
98AA
100
AcDbEntity
  8
4
  6
CENTER
100
AcDbLine
 10
328.1585689999999
 20
59.200001
 30
0.0
 11
178.8751829999999
 21
59.200001
 31
0.0
  0
LINE
  5
99EB
330
98AA
100
AcDbEntity
  8
1
  6
Continuous
100
AcDbLine
 10
312.1585689999998
 20
50.200005
 30
0.0
 11
312.1585689999998
 21
54.450001
 31
0.0
  0
LINE
  5
99EC
330
98AA
100
AcDbEntity
  8
1
  6
Continuous
100
AcDbLine
 10
314.1585689999998
 20
68.199997
 30
0.0
 11
312.1585689999998
 21
68.199997
 31
0.0
  0
LINE
  5
99ED
330
98AA
100
AcDbEntity
  8
1
  6
Continuous
100
AcDbLine
 10
314.1585689999998
 20
50.200005
 30
0.0
 11
312.1585689999998
 21
50.200005
 31
0.0
  0
LINE
  5
99EE
330
98AA
100
AcDbEntity
  8
1
  6
Continuous
100
AcDbLine
 10
311.258575
 20
64.19999699999999
 30
0.0
 11
310.3199769999998
 21
64.19999699999999
 31
0.0
  0
LINE
  5
99EF
330
98AA
100
AcDbEntity
  8
1
  6
Continuous
100
AcDbLine
 10
311.258575
 20
54.200005
 30
0.0
 11
311.194885
 21
54.200005
 31
0.0
  0
LINE
  5
99F0
330
98AA
100
AcDbEntity
  8
1
  6
Continuous
100
AcDbLine
 10
314.1585689999998
 20
50.200005
 30
0.0
 11
314.1585689999998
 21
54.450001
 31
0.0
  0
LINE
  5
99F1
330
98AA
100
AcDbEntity
  8
1
  6
Continuous
100
AcDbLine
 10
310.2505489999999
 20
64.993584
 30
0.0
 11
310.341858
 21
63.950001
 31
0.0
  0
LINE
  5
99F2
330
98AA
100
AcDbEntity
  8
1
  6
Continuous
100
AcDbLine
 10
309.151642
 20
64.19999699999999
 30
0.0
 11
309.2565609999998
 21
65.01391600000001
 31
0.0
  0
LINE
  5
99F3
330
98AA
100
AcDbEntity
  8
1
  6
Continuous
100
AcDbLine
 10
311.258575
 20
64.949997
 30
0.0
 11
311.258575
 21
63.950001
 31
0.0
  0
LINE
  5
99F4
330
98AA
100
AcDbEntity
  8
1
  6
Continuous
100
AcDbLine
 10
309.254364
 20
64.90642499999998
 30
0.0
 11
309.338043
 21
63.950005
 31
0.0
  0
LINE
  5
99F5
330
98AA
100
AcDbEntity
  8
1
  6
Continuous
100
AcDbLine
 10
308.860229
 20
54.200001
 30
0.0
 11
308.7614139999999
 21
53.439461
 31
0.0
  0
LINE
  5
99F6
330
98AA
100
AcDbEntity
  8
1
  6
Continuous
100
AcDbLine
 10
311.258575
 20
64.950005
 30
0.0
 11
311.1937259999999
 21
64.200005
 31
0.0
  0
LINE
  5
99F7
330
98AA
100
AcDbEntity
  8
1
  6
Continuous
100
AcDbLine
 10
308.6730039999999
 20
54.45000499999999
 30
0.0
 11
308.756683
 21
53.49358
 31
0.0
  0
LINE
  5
99F8
330
98AA
100
AcDbEntity
  8
1
  6
Continuous
100
AcDbLine
 10
309.316162
 20
64.19999699999999
 30
0.0
 11
308.158569
 21
64.19999699999999
 31
0.0
  0
LINE
  5
99F9
330
98AA
100
AcDbEntity
  8
1
  6
Continuous
100
AcDbLine
 10
310.1910399999998
 20
54.200005
 30
0.0
 11
308.694885
 21
54.200005
 31
0.0
  0
LINE
  5
99FA
330
98AA
100
AcDbEntity
  8
1
  6
Continuous
100
AcDbLine
 10
314.1585689999998
 20
63.950001
 30
0.0
 11
314.1585689999998
 21
68.199997
 31
0.0
  0
LINE
  5
99FB
330
98AA
100
AcDbEntity
  8
1
  6
Continuous
100
AcDbLine
 10
312.1585689999998
 20
63.950001
 30
0.0
 11
312.1585689999998
 21
68.199997
 31
0.0
  0
LINE
  5
99FC
330
98AA
100
AcDbEntity
  8
1
  6
Continuous
100
AcDbLine
 10
311.258575
 20
54.450001
 30
0.0
 11
311.258575
 21
53.45000500000001
 31
0.0
  0
LINE
  5
99FD
330
98AA
100
AcDbEntity
  8
1
  6
Continuous
100
AcDbLine
 10
311.1730039999998
 20
54.450001
 30
0.0
 11
311.256683
 21
53.49358
 31
0.0
  0
LINE
  5
99FE
330
98AA
100
AcDbEntity
  8
1
  6
Continuous
100
AcDbLine
 10
310.169189
 20
54.450001
 30
0.0
 11
310.2604979999999
 21
53.406422
 31
0.0
  0
LINE
  5
99FF
330
98AA
100
AcDbEntity
  8
1
  6
Continuous
100
AcDbLine
 10
305.3585819999999
 20
415.903076
 30
0.0
 11
302.158569
 21
415.903076
 31
0.0
  0
LINE
  5
9A00
330
98AA
100
AcDbEntity
  8
1
  6
Continuous
100
AcDbLine
 10
305.3585819999999
 20
160.903061
 30
0.0
 11
302.158569
 21
160.903061
 31
0.0
  0
LINE
  5
9A01
330
98AA
100
AcDbEntity
  8
1
  6
Continuous
100
AcDbLine
 10
302.158569
 20
415.903076
 30
0.0
 11
302.158569
 21
160.903061
 31
0.0
  0
LINE
  5
9A02
330
98AA
100
AcDbEntity
  8
1
  6
Continuous
100
AcDbLine
 10
305.3585819999999
 20
415.903076
 30
0.0
 11
305.3585819999999
 21
400.9030759999998
 31
0.0
  0
LINE
  5
9A03
330
98AA
100
AcDbEntity
  8
1
  6
Continuous
100
AcDbLine
 10
319.3585819999999
 20
398.9030759999998
 30
0.0
 11
319.3585819999999
 21
177.903061
 31
0.0
  0
LINE
  5
9A04
330
98AA
100
AcDbEntity
  8
1
  6
Continuous
100
AcDbLine
 10
317.3585819999999
 20
400.9030759999998
 30
0.0
 11
302.158569
 21
400.9030759999998
 31
0.0
  0
LINE
  5
9A05
330
98AA
100
AcDbEntity
  8
1
  6
Continuous
100
AcDbLine
 10
317.3585819999999
 20
175.903061
 30
0.0
 11
302.158569
 21
175.903061
 31
0.0
  0
LINE
  5
9A06
330
98AA
100
AcDbEntity
  8
1
  6
Continuous
100
AcDbLine
 10
305.3585819999999
 20
175.903061
 30
0.0
 11
305.3585819999999
 21
160.903061
 31
0.0
  0
LINE
  5
9A07
330
98AA
100
AcDbEntity
  8
1
  6
Continuous
100
AcDbLine
 10
621.3046259999997
 20
396.9030759999998
 30
0.0
 11
637.3046259999997
 21
396.9030759999998
 31
0.0
  0
LINE
  5
9A08
330
98AA
100
AcDbEntity
  8
1
  6
Continuous
100
AcDbLine
 10
621.3046259999997
 20
404.9030759999998
 30
0.0
 11
637.3046259999997
 21
404.9030759999998
 31
0.0
  0
LINE
  5
9A09
330
98AA
100
AcDbEntity
  8
2
  6
Continuous
100
AcDbLine
 10
623.304626
 20
404.226563
 30
0.0
 11
637.98114
 21
404.226563
 31
0.0
  0
LINE
  5
9A0A
330
98AA
100
AcDbEntity
  8
2
  6
Continuous
100
AcDbLine
 10
623.304626
 20
397.5795589999998
 30
0.0
 11
637.98114
 21
397.5795589999998
 31
0.0
  0
LINE
  5
9A0B
330
98AA
100
AcDbEntity
  8
1
  6
Continuous
100
AcDbLine
 10
637.3046259999997
 20
404.9030759999998
 30
0.0
 11
637.3046259999997
 21
396.9030759999998
 31
0.0
  0
LINE
  5
9A0C
330
98AA
100
AcDbEntity
  8
1
  6
Continuous
100
AcDbLine
 10
623.304626
 20
404.9030759999998
 30
0.0
 11
623.304626
 21
396.9030759999998
 31
0.0
  0
LINE
  5
9A0D
330
98AA
100
AcDbEntity
  8
2
  6
Continuous
100
AcDbLine
 10
623.304626
 20
397.5795589999998
 30
0.0
 11
622.132874
 21
396.9030759999998
 31
0.0
  0
LINE
  5
9A0E
330
98AA
100
AcDbEntity
  8
2
  6
Continuous
100
AcDbLine
 10
623.304626
 20
404.226563
 30
0.0
 11
622.132874
 21
404.9030459999998
 31
0.0
  0
LINE
  5
9A0F
330
98AA
100
AcDbEntity
  8
1
  6
Continuous
100
AcDbLine
 10
778.3046259999996
 20
407.403076
 30
0.0
 11
778.3046259999996
 21
394.403076
 31
0.0
  0
LINE
  5
9A10
330
98AA
100
AcDbEntity
  8
1
  6
Continuous
100
AcDbLine
 10
619.304626
 20
405.9030759999997
 30
0.0
 11
621.3046259999997
 21
405.9030759999997
 31
0.0
  0
LINE
  5
9A11
330
98AA
100
AcDbEntity
  8
1
  6
Continuous
100
AcDbLine
 10
619.304626
 20
395.903076
 30
0.0
 11
621.3046259999997
 21
395.903076
 31
0.0
  0
LINE
  5
9A12
330
98AA
100
AcDbEntity
  8
1
  6
Continuous
100
AcDbLine
 10
728.3046259999996
 20
411.403076
 30
0.0
 11
728.3046259999996
 21
390.4030759999998
 31
0.0
  0
LINE
  5
9A13
330
98AA
100
AcDbEntity
  8
1
  6
Continuous
100
AcDbLine
 10
628.3046259999998
 20
184.9030609999998
 30
0.0
 11
628.3046259999998
 21
166.903061
 31
0.0
  0
LINE
  5
9A14
330
98AA
100
AcDbEntity
  8
1
  6
Continuous
100
AcDbLine
 10
196.1585689999998
 20
536.4030759999999
 30
0.0
 11
196.1585689999998
 21
515.4030759999999
 31
0.0
  0
LINE
  5
9A15
330
98AA
100
AcDbEntity
  8
1
  6
Continuous
100
AcDbLine
 10
198.1585689999998
 20
536.4030759999999
 30
0.0
 11
198.1585689999998
 21
515.4030759999999
 31
0.0
  0
LINE
  5
9A16
330
98AA
100
AcDbEntity
  8
1
  6
Continuous
100
AcDbLine
 10
146.658569
 20
532.4030759999999
 30
0.0
 11
146.658569
 21
519.4030759999999
 31
0.0
  0
LINE
  5
9A17
330
98AA
100
AcDbEntity
  8
1
  6
Continuous
100
AcDbLine
 10
146.658569
 20
519.4030759999999
 30
0.0
 11
141.6585689999998
 21
519.4030759999999
 31
0.0
  0
LINE
  5
9A18
330
98AA
100
AcDbEntity
  8
1
  6
Continuous
100
AcDbLine
 10
146.658569
 20
532.4030759999999
 30
0.0
 11
141.6585689999998
 21
532.4030759999999
 31
0.0
  0
LINE
  5
9A19
330
98AA
100
AcDbEntity
  8
1
  6
Continuous
100
AcDbLine
 10
194.158569
 20
525.9030759999999
 30
0.0
 11
188.2391359999998
 21
525.9030759999999
 31
0.0
  0
LINE
  5
9A1A
330
98AA
100
AcDbEntity
  8
1
  6
Continuous
100
AcDbLine
 10
146.078033
 20
525.9030759999999
 30
0.0
 11
142.2391359999998
 21
525.9030759999999
 31
0.0
  0
LINE
  5
9A1B
330
98AA
100
AcDbEntity
  8
1
  6
Continuous
100
AcDbLine
 10
300.158569
 20
520.9030759999999
 30
0.0
 11
300.158569
 21
530.9030759999999
 31
0.0
  0
LINE
  5
9A1C
330
98AA
100
AcDbEntity
  8
1
  6
Continuous
100
AcDbLine
 10
283.158569
 20
522.9030759999999
 30
0.0
 11
283.158569
 21
528.9030760000001
 31
0.0
  0
LINE
  5
9A1D
330
98AA
100
AcDbEntity
  8
1
  6
Continuous
100
AcDbLine
 10
284.158569
 20
521.903137
 30
0.0
 11
283.158569
 21
522.903137
 31
0.0
  0
LINE
  5
9A1E
330
98AA
100
AcDbEntity
  8
1
  6
Continuous
100
AcDbLine
 10
283.158569
 20
528.9030760000001
 30
0.0
 11
284.1585999999999
 21
529.903137
 31
0.0
  0
LINE
  5
9A1F
330
98AA
100
AcDbEntity
  8
1
  6
Continuous
100
AcDbLine
 10
300.158569
 20
529.9030759999999
 30
0.0
 11
284.158569
 21
529.9030759999999
 31
0.0
  0
LINE
  5
9A20
330
98AA
100
AcDbEntity
  8
1
  6
Continuous
100
AcDbLine
 10
300.158569
 20
521.9030759999999
 30
0.0
 11
284.158569
 21
521.9030759999999
 31
0.0
  0
LINE
  5
9A21
330
98AA
100
AcDbEntity
  8
2
  6
Continuous
100
AcDbLine
 10
298.158569
 20
522.57959
 30
0.0
 11
283.482056
 21
522.57959
 31
0.0
  0
LINE
  5
9A22
330
98AA
100
AcDbEntity
  8
2
  6
Continuous
100
AcDbLine
 10
298.158569
 20
529.2265630000001
 30
0.0
 11
283.482056
 21
529.2265630000001
 31
0.0
  0
LINE
  5
9A23
330
98AA
100
AcDbEntity
  8
1
  6
Continuous
100
AcDbLine
 10
284.158569
 20
521.9030759999999
 30
0.0
 11
284.158569
 21
529.9030759999999
 31
0.0
  0
LINE
  5
9A24
330
98AA
100
AcDbEntity
  8
1
  6
Continuous
100
AcDbLine
 10
298.158569
 20
521.9030759999999
 30
0.0
 11
298.158569
 21
529.9030759999999
 31
0.0
  0
LINE
  5
9A25
330
98AA
100
AcDbEntity
  8
2
  6
Continuous
100
AcDbLine
 10
298.158539
 20
529.2265630000001
 30
0.0
 11
299.330292
 21
529.9030759999999
 31
0.0
  0
LINE
  5
9A26
330
98AA
100
AcDbEntity
  8
2
  6
Continuous
100
AcDbLine
 10
298.158569
 20
522.57959
 30
0.0
 11
299.330292
 21
521.9030759999999
 31
0.0
  0
LINE
  5
9A27
330
98AA
100
AcDbEntity
  8
1
  6
Continuous
100
AcDbLine
 10
302.158569
 20
520.9030759999999
 30
0.0
 11
300.158569
 21
520.9030759999999
 31
0.0
  0
LINE
  5
9A28
330
98AA
100
AcDbEntity
  8
1
  6
Continuous
100
AcDbLine
 10
302.158569
 20
530.9030759999999
 30
0.0
 11
300.158569
 21
530.9030759999999
 31
0.0
  0
LINE
  5
9A29
330
98AA
100
AcDbEntity
  8
1
  6
Continuous
100
AcDbLine
 10
293.1585689999998
 20
516.9030759999999
 30
0.0
 11
293.1585689999998
 21
521.9030759999999
 31
0.0
  0
LINE
  5
9A2A
330
98AA
100
AcDbEntity
  8
1
  6
Continuous
100
AcDbLine
 10
293.1585689999998
 20
529.9030759999999
 30
0.0
 11
293.1585689999998
 21
534.9030759999999
 31
0.0
  0
LINE
  5
9A2B
330
98AA
100
AcDbEntity
  8
1
  6
Continuous
100
AcDbLine
 10
318.1585689999999
 20
176.0700379999999
 30
0.0
 11
318.1585689999999
 21
166.903061
 31
0.0
  0
LINE
  5
9A2C
330
98AA
100
AcDbEntity
  8
1
  6
Continuous
100
AcDbLine
 10
198.1585689999998
 20
411.403076
 30
0.0
 11
198.1585689999998
 21
390.4030759999998
 31
0.0
  0
LINE
  5
9A2D
330
98AA
100
AcDbEntity
  8
4
  6
CENTER
100
AcDbLine
 10
327.158569
 20
400.9030759999998
 30
0.0
 11
133.5331419999999
 21
400.9030759999998
 31
0.0
  0
LINE
  5
9A2E
330
98AA
100
AcDbEntity
  8
1
  6
Continuous
100
AcDbLine
 10
312.1585689999998
 20
409.9030759999997
 30
0.0
 11
312.1585689999998
 21
400.9030759999998
 31
0.0
  0
LINE
  5
9A2F
330
98AA
100
AcDbEntity
  8
1
  6
Continuous
100
AcDbLine
 10
314.1585689999998
 20
409.9030759999997
 30
0.0
 11
312.1585689999998
 21
409.9030759999997
 31
0.0
  0
LINE
  5
9A30
330
98AA
100
AcDbEntity
  8
1
  6
Continuous
100
AcDbLine
 10
314.1585689999998
 20
409.9030759999997
 30
0.0
 11
314.1585689999998
 21
402.403076
 31
0.0
  0
LINE
  5
9A31
330
98AA
100
AcDbEntity
  8
1
  6
Continuous
100
AcDbLine
 10
317.083435
 20
402.403076
 30
0.0
 11
313.158569
 21
402.403076
 31
0.0
  0
LINE
  5
9A32
330
98AA
100
AcDbEntity
  8
1
  6
Continuous
100
AcDbLine
 10
313.158569
 20
402.403076
 30
0.0
 11
313.158569
 21
400.9030759999998
 31
0.0
  0
LINE
  5
9A33
330
98AA
100
AcDbEntity
  8
1
  6
Continuous
100
AcDbLine
 10
311.3223269999999
 20
405.9030759999997
 30
0.0
 11
311.2200319999999
 21
405.9030759999997
 31
0.0
  0
LINE
  5
9A34
330
98AA
100
AcDbEntity
  8
1
  6
Continuous
100
AcDbLine
 10
308.752686
 20
406.696655
 30
0.0
 11
309.2595519999999
 21
400.9030759999998
 31
0.0
  0
LINE
  5
9A35
330
98AA
100
AcDbEntity
  8
1
  6
Continuous
100
AcDbLine
 10
300.158569
 20
405.9030759999997
 30
0.0
 11
300.158569
 21
395.903076
 31
0.0
  0
LINE
  5
9A36
330
98AA
100
AcDbEntity
  8
1
  6
Continuous
100
AcDbLine
 10
283.158569
 20
403.903076
 30
0.0
 11
283.158569
 21
397.903076
 31
0.0
  0
LINE
  5
9A37
330
98AA
100
AcDbEntity
  8
1
  6
Continuous
100
AcDbLine
 10
196.1585689999998
 20
411.403076
 30
0.0
 11
196.1585689999998
 21
390.4030759999998
 31
0.0
  0
LINE
  5
9A38
330
98AA
100
AcDbEntity
  8
1
  6
Continuous
100
AcDbLine
 10
284.1585999999999
 20
404.9030759999998
 30
0.0
 11
283.1585999999999
 21
403.903076
 31
0.0
  0
LINE
  5
9A39
330
98AA
100
AcDbEntity
  8
1
  6
Continuous
100
AcDbLine
 10
283.1585999999999
 20
397.903046
 30
0.0
 11
284.1585999999999
 21
396.903046
 31
0.0
  0
LINE
  5
9A3A
330
98AA
100
AcDbEntity
  8
1
  6
Continuous
100
AcDbLine
 10
146.658569
 20
407.403076
 30
0.0
 11
146.658569
 21
394.403076
 31
0.0
  0
LINE
  5
9A3B
330
98AA
100
AcDbEntity
  8
1
  6
Continuous
100
AcDbLine
 10
194.158569
 20
408.603058
 30
0.0
 11
194.158569
 21
393.2030639999999
 31
0.0
  0
LINE
  5
9A3C
330
98AA
100
AcDbEntity
  8
1
  6
Continuous
100
AcDbLine
 10
311.150604
 20
406.696655
 30
0.0
 11
311.657471
 21
400.9030759999998
 31
0.0
  0
LINE
  5
9A3D
330
98AA
100
AcDbEntity
  8
1
  6
Continuous
100
AcDbLine
 10
310.154419
 20
406.6094969999999
 30
0.0
 11
310.653656
 21
400.9030759999998
 31
0.0
  0
LINE
  5
9A3E
330
98AA
100
AcDbEntity
  8
1
  6
Continuous
100
AcDbLine
 10
306.3547669999999
 20
406.696625
 30
0.0
 11
306.8616329999999
 21
400.9030759999998
 31
0.0
  0
LINE
  5
9A3F
330
98AA
100
AcDbEntity
  8
1
  6
Continuous
100
AcDbLine
 10
305.3585819999999
 20
406.609467
 30
0.0
 11
305.8578189999999
 21
400.9030759999998
 31
0.0
  0
LINE
  5
9A40
330
98AA
100
AcDbEntity
  8
1
  6
Continuous
100
AcDbLine
 10
307.7565
 20
406.6094969999999
 30
0.0
 11
308.2557369999999
 21
400.9030759999998
 31
0.0
  0
LINE
  5
9A41
330
98AA
100
AcDbEntity
  8
1
  6
Continuous
100
AcDbLine
 10
311.2604979999999
 20
406.6094969999999
 30
0.0
 11
311.759735
 21
400.9030759999998
 31
0.0
  0
LINE
  5
9A42
330
98AA
100
AcDbEntity
  8
1
  6
Continuous
100
AcDbLine
 10
311.2586059999998
 20
406.6573789999997
 30
0.0
 11
311.252045
 21
405.903046
 31
0.0
  0
LINE
  5
9A43
330
98AA
100
AcDbEntity
  8
1
  6
Continuous
100
AcDbLine
 10
307.6601559999998
 20
405.9030759999997
 30
0.0
 11
307.7581789999999
 21
406.713135
 31
0.0
  0
LINE
  5
9A44
330
98AA
100
AcDbEntity
  8
1
  6
Continuous
100
AcDbLine
 10
310.0580749999999
 20
405.903046
 30
0.0
 11
310.1561279999998
 21
406.713135
 31
0.0
  0
LINE
  5
9A45
330
98AA
100
AcDbEntity
  8
1
  6
Continuous
100
AcDbLine
 10
196.1585689999998
 20
393.2030639999999
 30
0.0
 11
194.158569
 21
393.2030639999999
 31
0.0
  0
LINE
  5
9A46
330
98AA
100
AcDbEntity
  8
1
  6
Continuous
100
AcDbLine
 10
196.1585689999998
 20
408.603058
 30
0.0
 11
194.158569
 21
408.603058
 31
0.0
  0
LINE
  5
9A47
330
98AA
100
AcDbEntity
  8
1
  6
Continuous
100
AcDbLine
 10
187.6586149999999
 20
394.403076
 30
0.0
 11
188.2391659999999
 21
393.3975219999999
 31
0.0
  0
LINE
  5
9A48
330
98AA
100
AcDbEntity
  8
1
  6
Continuous
100
AcDbLine
 10
187.6585849999999
 20
407.403076
 30
0.0
 11
188.2391509999999
 21
408.40863
 31
0.0
  0
LINE
  5
9A49
330
98AA
100
AcDbEntity
  8
1
  6
Continuous
100
AcDbLine
 10
188.2391359999998
 20
404.6558529999998
 30
0.0
 11
194.158569
 21
404.6558529999998
 31
0.0
  0
LINE
  5
9A4A
330
98AA
100
AcDbEntity
  8
1
  6
Continuous
100
AcDbLine
 10
188.2391359999998
 20
397.150299
 30
0.0
 11
194.158569
 21
397.150299
 31
0.0
  0
LINE
  5
9A4B
330
98AA
100
AcDbEntity
  8
1
  6
Continuous
100
AcDbLine
 10
188.2391359999998
 20
393.3975219999999
 30
0.0
 11
194.158569
 21
393.3975219999999
 31
0.0
  0
LINE
  5
9A4C
330
98AA
100
AcDbEntity
  8
1
  6
Continuous
100
AcDbLine
 10
188.2391359999998
 20
408.40863
 30
0.0
 11
194.158569
 21
408.40863
 31
0.0
  0
LINE
  5
9A4D
330
98AA
100
AcDbEntity
  8
1
  6
Continuous
100
AcDbLine
 10
187.6585689999998
 20
407.403076
 30
0.0
 11
187.6585689999998
 21
394.403076
 31
0.0
  0
LINE
  5
9A4E
330
98AA
100
AcDbEntity
  8
1
  6
Continuous
100
AcDbLine
 10
146.6586299999999
 20
407.403076
 30
0.0
 11
146.0780639999998
 21
408.4086609999998
 31
0.0
  0
LINE
  5
9A4F
330
98AA
100
AcDbEntity
  8
1
  6
Continuous
100
AcDbLine
 10
141.658615
 20
394.403076
 30
0.0
 11
142.2391659999999
 21
393.3975219999999
 31
0.0
  0
LINE
  5
9A50
330
98AA
100
AcDbEntity
  8
1
  6
Continuous
100
AcDbLine
 10
141.6586
 20
407.403046
 30
0.0
 11
142.2391659999999
 21
408.40863
 31
0.0
  0
LINE
  5
9A51
330
98AA
100
AcDbEntity
  8
1
  6
Continuous
100
AcDbLine
 10
146.6586299999999
 20
394.403076
 30
0.0
 11
146.0780639999998
 21
393.397491
 31
0.0
  0
LINE
  5
9A52
330
98AA
100
AcDbEntity
  8
1
  6
Continuous
100
AcDbLine
 10
194.1586299999999
 20
400.9851379999998
 30
0.0
 11
196.1585689999998
 21
401.5209959999998
 31
0.0
  0
LINE
  5
9A53
330
98AA
100
AcDbEntity
  8
1
  6
Continuous
100
AcDbLine
 10
194.158569
 20
400.2851869999998
 30
0.0
 11
196.1585389999999
 21
400.8210749999998
 31
0.0
  0
LINE
  5
9A54
330
98AA
100
AcDbEntity
  8
1
  6
Continuous
100
AcDbLine
 10
141.6585689999998
 20
407.403076
 30
0.0
 11
141.6585689999998
 21
394.403076
 31
0.0
  0
LINE
  5
9A55
330
98AA
100
AcDbEntity
  8
1
  6
Continuous
100
AcDbLine
 10
146.0780639999998
 20
408.40863
 30
0.0
 11
142.2391359999998
 21
408.40863
 31
0.0
  0
LINE
  5
9A56
330
98AA
100
AcDbEntity
  8
1
  6
Continuous
100
AcDbLine
 10
146.0780639999998
 20
393.3975219999999
 30
0.0
 11
142.2391359999998
 21
393.3975219999999
 31
0.0
  0
LINE
  5
9A57
330
98AA
100
AcDbEntity
  8
1
  6
Continuous
100
AcDbLine
 10
146.0780639999998
 20
404.6558529999998
 30
0.0
 11
142.2391359999998
 21
404.6558529999998
 31
0.0
  0
LINE
  5
9A58
330
98AA
100
AcDbEntity
  8
1
  6
Continuous
100
AcDbLine
 10
146.0780639999998
 20
397.150299
 30
0.0
 11
142.2391359999998
 21
397.150299
 31
0.0
  0
LINE
  5
9A59
330
98AA
100
AcDbEntity
  8
1
  6
Continuous
100
AcDbLine
 10
307.6585689999999
 20
175.903061
 30
0.0
 11
307.6585689999999
 21
168.903061
 31
0.0
  0
LINE
  5
9A5A
330
98AA
100
AcDbEntity
  8
1
  6
Continuous
100
AcDbLine
 10
308.1586299999999
 20
169.403061
 30
0.0
 11
307.6586299999998
 21
168.903061
 31
0.0
  0
LINE
  5
9A5B
330
98AA
100
AcDbEntity
  8
1
  6
Continuous
100
AcDbLine
 10
198.1585689999998
 20
411.403076
 30
0.0
 11
196.1585689999998
 21
411.403076
 31
0.0
  0
LINE
  5
9A5C
330
98AA
100
AcDbEntity
  8
1
  6
Continuous
100
AcDbLine
 10
198.1585689999998
 20
390.4030759999998
 30
0.0
 11
196.1585689999998
 21
390.4030759999998
 31
0.0
  0
LINE
  5
9A5D
330
98AA
100
AcDbEntity
  8
1
  6
Continuous
100
AcDbLine
 10
277.158569
 20
179.903061
 30
0.0
 11
277.158569
 21
171.903061
 31
0.0
  0
LINE
  5
9A5E
330
98AA
100
AcDbEntity
  8
1
  6
Continuous
100
AcDbLine
 10
308.158569
 20
175.903061
 30
0.0
 11
308.158569
 21
169.403061
 31
0.0
  0
LINE
  5
9A5F
330
98AA
100
AcDbEntity
  8
1
  6
Continuous
100
AcDbLine
 10
320.1585689999999
 20
184.9030609999998
 30
0.0
 11
319.3585819999999
 21
184.9030609999998
 31
0.0
  0
LINE
  5
9A60
330
98AA
100
AcDbEntity
  8
1
  6
Continuous
100
AcDbLine
 10
293.1585689999998
 20
184.9030609999998
 30
0.0
 11
293.1585689999998
 21
166.903061
 31
0.0
  0
LINE
  5
9A61
330
98AA
100
AcDbEntity
  8
1
  6
Continuous
100
AcDbLine
 10
320.1585689999999
 20
166.903061
 30
0.0
 11
318.1585689999999
 21
166.903061
 31
0.0
  0
LINE
  5
9A62
330
98AA
100
AcDbEntity
  8
1
  6
Continuous
100
AcDbLine
 10
307.6585689999999
 20
168.903061
 30
0.0
 11
305.3585819999999
 21
168.903061
 31
0.0
  0
LINE
  5
9A63
330
98AA
100
AcDbEntity
  8
1
  6
Continuous
100
AcDbLine
 10
323.083435
 20
177.403061
 30
0.0
 11
320.1585689999999
 21
177.403061
 31
0.0
  0
LINE
  5
9A64
330
98AA
100
AcDbEntity
  8
1
  6
Continuous
100
AcDbLine
 10
318.1585689999999
 20
171.153061
 30
0.0
 11
308.158569
 21
171.153061
 31
0.0
  0
LINE
  5
9A65
330
98AA
100
AcDbEntity
  8
1
  6
Continuous
100
AcDbLine
 10
323.083435
 20
174.403061
 30
0.0
 11
320.1585689999999
 21
174.403061
 31
0.0
  0
LINE
  5
9A66
330
98AA
100
AcDbEntity
  8
1
  6
Continuous
100
AcDbLine
 10
276.458618
 20
178.903061
 30
0.0
 11
268.658569
 21
178.903061
 31
0.0
  0
LINE
  5
9A67
330
98AA
100
AcDbEntity
  8
1
  6
Continuous
100
AcDbLine
 10
320.1585689999999
 20
184.9030609999998
 30
0.0
 11
320.1585689999999
 21
166.903061
 31
0.0
  0
LINE
  5
9A68
330
98AA
100
AcDbEntity
  8
1
  6
Continuous
100
AcDbLine
 10
268.1585689999999
 20
178.403061
 30
0.0
 11
268.1585689999999
 21
173.403061
 31
0.0
  0
LINE
  5
9A69
330
98AA
100
AcDbEntity
  8
1
  6
Continuous
100
AcDbLine
 10
276.5086059999998
 20
173.403061
 30
0.0
 11
276.458618
 21
173.403061
 31
0.0
  0
LINE
  5
9A6A
330
98AA
100
AcDbEntity
  8
1
  6
Continuous
100
AcDbLine
 10
268.658569
 20
178.903061
 30
0.0
 11
268.658569
 21
172.903061
 31
0.0
  0
LINE
  5
9A6B
330
98AA
100
AcDbEntity
  8
1
  6
Continuous
100
AcDbLine
 10
276.458618
 20
178.903061
 30
0.0
 11
276.458618
 21
172.903061
 31
0.0
  0
LINE
  5
9A6C
330
98AA
100
AcDbEntity
  8
1
  6
Continuous
100
AcDbLine
 10
277.158569
 20
178.403061
 30
0.0
 11
277.1085819999999
 21
178.403061
 31
0.0
  0
LINE
  5
9A6D
330
98AA
100
AcDbEntity
  8
1
  6
Continuous
100
AcDbLine
 10
277.158569
 20
173.403061
 30
0.0
 11
277.1085819999999
 21
173.403061
 31
0.0
  0
LINE
  5
9A6E
330
98AA
100
AcDbEntity
  8
1
  6
Continuous
100
AcDbLine
 10
276.458618
 20
172.903061
 30
0.0
 11
268.658569
 21
172.903061
 31
0.0
  0
LINE
  5
9A6F
330
98AA
100
AcDbEntity
  8
1
  6
Continuous
100
AcDbLine
 10
268.6585999999999
 20
178.903061
 30
0.0
 11
268.1585999999999
 21
178.403061
 31
0.0
  0
LINE
  5
9A70
330
98AA
100
AcDbEntity
  8
1
  6
Continuous
100
AcDbLine
 10
268.1585999999999
 20
173.4030909999999
 30
0.0
 11
268.6585999999999
 21
172.903076
 31
0.0
  0
LINE
  5
9A71
330
98AA
100
AcDbEntity
  8
4
  6
CENTER
100
AcDbLine
 10
328.1585689999999
 20
175.903061
 30
0.0
 11
178.8751829999999
 21
175.903061
 31
0.0
  0
LINE
  5
9A72
330
98AA
100
AcDbEntity
  8
1
  6
Continuous
100
AcDbLine
 10
302.158569
 20
184.9030609999998
 30
0.0
 11
293.1585689999998
 21
184.9030609999998
 31
0.0
  0
LINE
  5
9A73
330
98AA
100
AcDbEntity
  8
1
  6
Continuous
100
AcDbLine
 10
302.158569
 20
166.903061
 30
0.0
 11
293.1585689999998
 21
166.903061
 31
0.0
  0
LINE
  5
9A74
330
98AA
100
AcDbEntity
  8
1
  6
Continuous
100
AcDbLine
 10
276.5086059999998
 20
178.403061
 30
0.0
 11
276.458618
 21
178.403061
 31
0.0
  0
LINE
  5
9A75
330
98AA
100
AcDbEntity
  8
1
  6
Continuous
100
AcDbLine
 10
293.1585689999998
 20
180.903061
 30
0.0
 11
278.1585689999999
 21
180.903061
 31
0.0
  0
LINE
  5
9A76
330
98AA
100
AcDbEntity
  8
1
  6
Continuous
100
AcDbLine
 10
293.1585689999998
 20
170.903061
 30
0.0
 11
278.1585689999999
 21
170.903061
 31
0.0
  0
LINE
  5
9A77
330
98AA
100
AcDbEntity
  8
2
  6
Continuous
100
AcDbLine
 10
293.1585689999998
 20
180.0910639999999
 30
0.0
 11
277.3466189999999
 21
180.0910639999999
 31
0.0
  0
LINE
  5
9A78
330
98AA
100
AcDbEntity
  8
2
  6
Continuous
100
AcDbLine
 10
293.1585689999998
 20
171.715073
 30
0.0
 11
277.3466189999999
 21
171.715073
 31
0.0
  0
LINE
  5
9A79
330
98AA
100
AcDbEntity
  8
1
  6
Continuous
100
AcDbLine
 10
278.1585999999999
 20
180.9031069999998
 30
0.0
 11
277.1585999999999
 21
179.9030759999999
 31
0.0
  0
LINE
  5
9A7A
330
98AA
100
AcDbEntity
  8
1
  6
Continuous
100
AcDbLine
 10
278.1586299999998
 20
170.903076
 30
0.0
 11
277.1586299999999
 21
171.903076
 31
0.0
  0
LINE
  5
9A7B
330
98AA
100
AcDbEntity
  8
1
  6
Continuous
100
AcDbLine
 10
278.1585689999999
 20
180.903061
 30
0.0
 11
278.1585689999999
 21
170.903061
 31
0.0
  0
LINE
  5
9A7C
330
98AA
100
AcDbEntity
  8
1
  6
Continuous
100
AcDbLine
 10
276.5086059999998
 20
181.403061
 30
0.0
 11
276.5086059999998
 21
170.403061
 31
0.0
  0
LINE
  5
9A7D
330
98AA
100
AcDbEntity
  8
1
  6
Continuous
100
AcDbLine
 10
277.1085819999999
 20
170.403061
 30
0.0
 11
276.5086059999998
 21
170.403061
 31
0.0
  0
LINE
  5
9A7E
330
98AA
100
AcDbEntity
  8
1
  6
Continuous
100
AcDbLine
 10
277.1085819999999
 20
181.403061
 30
0.0
 11
276.5086059999998
 21
181.403061
 31
0.0
  0
LINE
  5
9A7F
330
98AA
100
AcDbEntity
  8
1
  6
Continuous
100
AcDbLine
 10
277.1085819999999
 20
181.403061
 30
0.0
 11
277.1085819999999
 21
170.403061
 31
0.0
  0
LINE
  5
9A80
330
98AA
100
AcDbEntity
  8
1
  6
Continuous
100
AcDbLine
 10
192.158569
 20
184.403061
 30
0.0
 11
192.158569
 21
167.403061
 31
0.0
  0
LINE
  5
9A81
330
98AA
100
AcDbEntity
  8
1
  6
Continuous
100
AcDbLine
 10
197.3994139999998
 20
185.718018
 30
0.0
 11
192.917786
 21
185.718018
 31
0.0
  0
LINE
  5
9A82
330
98AA
100
AcDbEntity
  8
1
  6
Continuous
100
AcDbLine
 10
197.3994139999998
 20
166.0881039999999
 30
0.0
 11
192.917786
 21
166.0881039999999
 31
0.0
  0
LINE
  5
9A83
330
98AA
100
AcDbEntity
  8
1
  6
Continuous
100
AcDbLine
 10
197.3994139999998
 20
180.8105469999999
 30
0.0
 11
192.917786
 21
180.8105469999999
 31
0.0
  0
LINE
  5
9A84
330
98AA
100
AcDbEntity
  8
1
  6
Continuous
100
AcDbLine
 10
197.3994139999998
 20
170.9955899999999
 30
0.0
 11
192.917786
 21
170.9955899999999
 31
0.0
  0
LINE
  5
9A85
330
98AA
100
AcDbEntity
  8
1
  6
Continuous
100
AcDbLine
 10
198.1585849999999
 20
167.403061
 30
0.0
 11
197.3993989999999
 21
166.08812
 31
0.0
  0
LINE
  5
9A86
330
98AA
100
AcDbEntity
  8
1
  6
Continuous
100
AcDbLine
 10
198.1586
 20
184.403076
 30
0.0
 11
197.3994139999998
 21
185.718033
 31
0.0
  0
LINE
  5
9A87
330
98AA
100
AcDbEntity
  8
1
  6
Continuous
100
AcDbLine
 10
192.158569
 20
167.403061
 30
0.0
 11
192.9177699999999
 21
166.0881039999999
 31
0.0
  0
LINE
  5
9A88
330
98AA
100
AcDbEntity
  8
1
  6
Continuous
100
AcDbLine
 10
192.1585999999998
 20
184.403061
 30
0.0
 11
192.917786
 21
185.718018
 31
0.0
  0
LINE
  5
9A89
330
98AA
100
AcDbEntity
  8
1
  6
Continuous
100
AcDbLine
 10
310.2161869999998
 20
405.9030759999997
 30
0.0
 11
308.8221439999998
 21
405.9030759999997
 31
0.0
  0
LINE
  5
9A8A
330
98AA
100
AcDbEntity
  8
1
  6
Continuous
100
AcDbLine
 10
307.8182979999999
 20
405.9030759999997
 30
0.0
 11
306.424194
 21
405.9030759999997
 31
0.0
  0
LINE
  5
9A8B
330
98AA
100
AcDbEntity
  8
1
  6
Continuous
100
AcDbLine
 10
300.158569
 20
396.9030759999998
 30
0.0
 11
284.158569
 21
396.9030759999998
 31
0.0
  0
LINE
  5
9A8C
330
98AA
100
AcDbEntity
  8
1
  6
Continuous
100
AcDbLine
 10
300.158569
 20
404.9030759999998
 30
0.0
 11
284.158569
 21
404.9030759999998
 31
0.0
  0
LINE
  5
9A8D
330
98AA
100
AcDbEntity
  8
2
  6
Continuous
100
AcDbLine
 10
298.158569
 20
404.226563
 30
0.0
 11
283.482117
 21
404.226563
 31
0.0
  0
LINE
  5
9A8E
330
98AA
100
AcDbEntity
  8
2
  6
Continuous
100
AcDbLine
 10
298.158569
 20
397.5795589999998
 30
0.0
 11
283.482117
 21
397.5795589999998
 31
0.0
  0
LINE
  5
9A8F
330
98AA
100
AcDbEntity
  8
1
  6
Continuous
100
AcDbLine
 10
284.158569
 20
404.9030759999998
 30
0.0
 11
284.158569
 21
396.9030759999998
 31
0.0
  0
LINE
  5
9A90
330
98AA
100
AcDbEntity
  8
1
  6
Continuous
100
AcDbLine
 10
298.158569
 20
404.9030759999998
 30
0.0
 11
298.158569
 21
396.9030759999998
 31
0.0
  0
LINE
  5
9A91
330
98AA
100
AcDbEntity
  8
2
  6
Continuous
100
AcDbLine
 10
298.1585999999999
 20
397.5795589999998
 30
0.0
 11
299.330353
 21
396.9030759999998
 31
0.0
  0
LINE
  5
9A92
330
98AA
100
AcDbEntity
  8
2
  6
Continuous
100
AcDbLine
 10
298.1585999999999
 20
404.226563
 30
0.0
 11
299.330353
 21
404.9030759999998
 31
0.0
  0
LINE
  5
9A93
330
98AA
100
AcDbEntity
  8
1
  6
Continuous
100
AcDbLine
 10
302.158569
 20
405.9030759999997
 30
0.0
 11
300.158569
 21
405.9030759999997
 31
0.0
  0
LINE
  5
9A94
330
98AA
100
AcDbEntity
  8
1
  6
Continuous
100
AcDbLine
 10
302.158569
 20
395.903076
 30
0.0
 11
300.158569
 21
395.903076
 31
0.0
  0
LINE
  5
9A95
330
98AA
100
AcDbEntity
  8
1
  6
Continuous
100
AcDbLine
 10
472.131622
 20
348.418304
 30
0.0
 11
472.131622
 21
349.900909
 31
0.0
  0
LINE
  5
9A96
330
98AA
100
AcDbEntity
  8
1
  6
Continuous
100
AcDbLine
 10
473.381622
 20
323.674927
 30
0.0
 11
473.381622
 21
324.6068119999999
 31
0.0
  0
LINE
  5
9A97
330
98AA
100
AcDbEntity
  8
1
  6
Continuous
100
AcDbLine
 10
469.131622
 20
350.184387
 30
0.0
 11
469.131622
 21
352.0490419999999
 31
0.0
  0
LINE
  5
9A98
330
98AA
100
AcDbEntity
  8
1
  6
Continuous
100
AcDbLine
 10
473.875122
 20
326.7886349999999
 30
0.0
 11
473.875122
 21
328.1055299999998
 31
0.0
  0
LINE
  5
9A99
330
98AA
100
AcDbEntity
  8
1
  6
Continuous
100
AcDbLine
 10
472.1293949999998
 20
327.458008
 30
0.0
 11
474.629425
 21
328.3828129999998
 31
0.0
  0
LINE
  5
9A9A
330
98AA
100
AcDbEntity
  8
1
  6
Continuous
100
AcDbLine
 10
472.133789
 20
327.4580379999998
 30
0.0
 11
474.629425
 21
326.488922
 31
0.0
  0
LINE
  5
9A9B
330
98AA
100
AcDbEntity
  8
1
  6
Continuous
100
AcDbLine
 10
472.131622
 20
329.9780269999998
 30
0.0
 11
472.131622
 21
331.946747
 31
0.0
  0
LINE
  5
9A9C
330
98AA
100
AcDbEntity
  8
1
  6
Continuous
100
AcDbLine
 10
472.131622
 20
330.9580379999998
 30
0.0
 11
474.6316219999997
 21
330.9580379999998
 31
0.0
  0
LINE
  5
9A9D
330
98AA
100
AcDbEntity
  8
1
  6
Continuous
100
AcDbLine
 10
472.112915
 20
323.674927
 30
0.0
 11
474.6129149999998
 21
323.674927
 31
0.0
  0
LINE
  5
9A9E
330
98AA
100
AcDbEntity
  8
1
  6
Continuous
100
AcDbLine
 10
467.14978
 20
337.569946
 30
0.0
 11
471.14978
 21
337.569946
 31
0.0
  0
LINE
  5
9A9F
330
98AA
100
AcDbEntity
  8
1
  6
Continuous
100
AcDbLine
 10
467.14978
 20
335.1545409999999
 30
0.0
 11
467.14978
 21
340.006683
 31
0.0
  0
LINE
  5
9AA0
330
98AA
100
AcDbEntity
  8
1
  6
Continuous
100
AcDbLine
 10
467.131622
 20
360.8282469999999
 30
0.0
 11
469.2763979999998
 21
360.8282469999999
 31
0.0
  0
LINE
  5
9AA1
330
98AA
100
AcDbEntity
  8
1
  6
Continuous
100
AcDbLine
 10
467.131622
 20
360.804932
 30
0.0
 11
467.131622
 21
363.903076
 31
0.0
  0
LINE
  5
9AA2
330
98AA
100
AcDbEntity
  8
1
  6
Continuous
100
AcDbLine
 10
472.131622
 20
337.4244689999998
 30
0.0
 11
474.6316219999997
 21
337.4244689999998
 31
0.0
  0
LINE
  5
9AA3
330
98AA
100
AcDbEntity
  8
1
  6
Continuous
100
AcDbLine
 10
474.6316219999997
 20
336.87561
 30
0.0
 11
474.6316219999997
 21
337.9733279999999
 31
0.0
  0
LINE
  5
9AA4
330
98AA
100
AcDbEntity
  8
1
  6
Continuous
100
AcDbLine
 10
472.8599549999998
 20
336.7333069999999
 30
0.0
 11
472.131592
 21
337.4244689999998
 31
0.0
  0
LINE
  5
9AA5
330
98AA
100
AcDbEntity
  8
1
  6
Continuous
100
AcDbLine
 10
474.6316219999997
 20
342.4776
 30
0.0
 11
473.265198
 21
343.784485
 31
0.0
  0
LINE
  5
9AA6
330
98AA
100
AcDbEntity
  8
1
  6
Continuous
100
AcDbLine
 10
474.058533
 20
345.088104
 30
0.0
 11
474.058533
 21
346.7143249999999
 31
0.0
  0
LINE
  5
9AA7
330
98AA
100
AcDbEntity
  8
1
  6
Continuous
100
AcDbLine
 10
472.131622
 20
346.4613339999999
 30
0.0
 11
474.6316219999997
 21
346.4613339999999
 31
0.0
  0
LINE
  5
9AA8
330
98AA
100
AcDbEntity
  8
1
  6
Continuous
100
AcDbLine
 10
472.131622
 20
346.4613649999998
 30
0.0
 11
474.0585629999998
 21
345.088104
 31
0.0
  0
LINE
  5
9AA9
330
98AA
100
AcDbEntity
  8
1
  6
Continuous
100
AcDbLine
 10
472.131622
 20
339.4183039999999
 30
0.0
 11
472.131622
 21
340.900909
 31
0.0
  0
LINE
  5
9AAA
330
98AA
100
AcDbEntity
  8
1
  6
Continuous
100
AcDbLine
 10
472.131622
 20
339.4183039999999
 30
0.0
 11
473.559967
 21
339.4183039999999
 31
0.0
  0
LINE
  5
9AAB
330
98AA
100
AcDbEntity
  8
1
  6
Continuous
100
AcDbLine
 10
474.6316219999997
 20
342.4776
 30
0.0
 11
474.6316219999997
 21
343.961517
 31
0.0
  0
LINE
  5
9AAC
330
98AA
100
AcDbEntity
  8
1
  6
Continuous
100
AcDbLine
 10
473.381622
 20
352.154114
 30
0.0
 11
473.381622
 21
352.519989
 31
0.0
  0
LINE
  5
9AAD
330
98AA
100
AcDbEntity
  8
1
  6
Continuous
100
AcDbLine
 10
474.6316219999997
 20
354.4776
 30
0.0
 11
474.6316219999997
 21
355.961517
 31
0.0
  0
LINE
  5
9AAE
330
98AA
100
AcDbEntity
  8
1
  6
Continuous
100
AcDbLine
 10
474.6315919999998
 20
354.47757
 30
0.0
 11
473.265198
 21
355.784485
 31
0.0
  0
LINE
  5
9AAF
330
98AA
100
AcDbEntity
  8
1
  6
Continuous
100
AcDbLine
 10
472.131622
 20
348.418304
 30
0.0
 11
473.559967
 21
348.418304
 31
0.0
  0
LINE
  5
9AB0
330
98AA
100
AcDbEntity
  8
1
  6
Continuous
100
AcDbLine
 10
472.112915
 20
323.674927
 30
0.0
 11
472.112915
 21
324.6068119999999
 31
0.0
  0
LINE
  5
9AB1
330
98AA
100
AcDbEntity
  8
1
  6
Continuous
100
AcDbLine
 10
465.80661
 20
321.2872009999999
 30
0.0
 11
470.4579769999998
 21
321.2872009999999
 31
0.0
  0
LINE
  5
9AB2
330
98AA
100
AcDbEntity
  8
1
  6
Continuous
100
AcDbLine
 10
465.862091
 20
320.621368
 30
0.0
 11
470.4024959999999
 21
320.621368
 31
0.0
  0
LINE
  5
9AB3
330
98AA
100
AcDbEntity
  8
1
  6
Continuous
100
AcDbLine
 10
470.204895
 20
319.9541929999999
 30
0.0
 11
468.9314269999998
 21
319.9541929999999
 31
0.0
  0
LINE
  5
9AB4
330
98AA
100
AcDbEntity
  8
1
  6
Continuous
100
AcDbLine
 10
466.400696
 20
319.2869869999999
 30
0.0
 11
469.8638609999998
 21
319.2869869999999
 31
0.0
  0
LINE
  5
9AB5
330
98AA
100
AcDbEntity
  8
1
  6
Continuous
100
AcDbLine
 10
468.131622
 20
321.2872009999999
 30
0.0
 11
468.131622
 21
320.621368
 31
0.0
  0
LINE
  5
9AB6
330
98AA
100
AcDbEntity
  8
1
  6
Continuous
100
AcDbLine
 10
467.3317869999998
 20
319.9541929999999
 30
0.0
 11
466.0596619999998
 21
319.9541929999999
 31
0.0
  0
LINE
  5
9AB7
330
98AA
100
AcDbEntity
  8
1
  6
Continuous
100
AcDbLine
 10
466.4873049999997
 20
318.6211549999999
 30
0.0
 11
469.7759089999998
 21
318.6211549999999
 31
0.0
  0
LINE
  5
9AB8
330
98AA
100
AcDbEntity
  8
1
  6
Continuous
100
AcDbLine
 10
469.361786
 20
317.953949
 30
0.0
 11
466.9028019999998
 21
317.953949
 31
0.0
  0
LINE
  5
9AB9
330
98AA
100
AcDbEntity
  8
1
  6
Continuous
100
AcDbLine
 10
466.3032529999998
 20
317.288116
 30
0.0
 11
469.1777339999998
 21
317.288116
 31
0.0
  0
LINE
  5
9ABA
330
98AA
100
AcDbEntity
  8
1
  6
Continuous
100
AcDbLine
 10
465.9405819999998
 20
323.9532469999998
 30
0.0
 11
470.114227
 21
323.9532469999998
 31
0.0
  0
LINE
  5
9ABB
330
98AA
100
AcDbEntity
  8
1
  6
Continuous
100
AcDbLine
 10
470.014099
 20
323.287415
 30
0.0
 11
468.131622
 21
323.287415
 31
0.0
  0
LINE
  5
9ABC
330
98AA
100
AcDbEntity
  8
1
  6
Continuous
100
AcDbLine
 10
465.9378659999998
 20
322.620239
 30
0.0
 11
470.3266909999999
 21
322.620239
 31
0.0
  0
LINE
  5
9ABD
330
98AA
100
AcDbEntity
  8
1
  6
Continuous
100
AcDbLine
 10
465.80661
 20
321.9544069999999
 30
0.0
 11
470.4579769999998
 21
321.9544069999999
 31
0.0
  0
LINE
  5
9ABE
330
98AA
100
AcDbEntity
  8
1
  6
Continuous
100
AcDbLine
 10
468.131622
 20
327.3379209999998
 30
0.0
 11
468.131622
 21
325.960236
 31
0.0
  0
LINE
  5
9ABF
330
98AA
100
AcDbEntity
  8
1
  6
Continuous
100
AcDbLine
 10
469.3793639999998
 20
325.6259769999999
 30
0.0
 11
466.569855
 21
326.3797609999999
 31
0.0
  0
LINE
  5
9AC0
330
98AA
100
AcDbEntity
  8
1
  6
Continuous
100
AcDbLine
 10
468.131622
 20
324.953369
 30
0.0
 11
469.7312319999999
 21
324.953369
 31
0.0
  0
LINE
  5
9AC1
330
98AA
100
AcDbEntity
  8
1
  6
Continuous
100
AcDbLine
 10
467.798676
 20
325.2876279999999
 30
0.0
 11
466.375
 21
325.2876279999999
 31
0.0
  0
LINE
  5
9AC2
330
98AA
100
AcDbEntity
  8
1
  6
Continuous
100
AcDbLine
 10
466.254547
 20
324.6204529999999
 30
0.0
 11
467.798676
 21
324.6204529999999
 31
0.0
  0
LINE
  5
9AC3
330
98AA
100
AcDbEntity
  8
1
  6
Continuous
100
AcDbLine
 10
468.131622
 20
323.287415
 30
0.0
 11
468.131622
 21
322.954498
 31
0.0
  0
LINE
  5
9AC4
330
98AA
100
AcDbEntity
  8
1
  6
Continuous
100
AcDbLine
 10
467.3317869999998
 20
323.287415
 30
0.0
 11
466.2504879999998
 21
323.287415
 31
0.0
  0
LINE
  5
9AC5
330
98AA
100
AcDbEntity
  8
1
  6
Continuous
100
AcDbLine
 10
467.14978
 20
341.9934079999998
 30
0.0
 11
471.14978
 21
341.9934079999998
 31
0.0
  0
LINE
  5
9AC6
330
98AA
100
AcDbEntity
  8
1
  6
Continuous
100
AcDbLine
 10
467.14978
 20
346.9930729999999
 30
0.0
 11
471.14978
 21
346.9930729999999
 31
0.0
  0
LINE
  5
9AC7
330
98AA
100
AcDbEntity
  8
1
  6
Continuous
100
AcDbLine
 10
467.14978
 20
341.9934079999998
 30
0.0
 11
471.14975
 21
344.4932249999998
 31
0.0
  0
LINE
  5
9AC8
330
98AA
100
AcDbEntity
  8
1
  6
Continuous
100
AcDbLine
 10
471.14978
 20
344.4932559999998
 30
0.0
 11
467.14978
 21
346.9931029999998
 31
0.0
  0
LINE
  5
9AC9
330
98AA
100
AcDbEntity
  8
1
  6
Continuous
100
AcDbLine
 10
644.3546139999997
 20
181.403061
 30
0.0
 11
644.3546139999997
 21
170.403061
 31
0.0
  0
LINE
  5
9ACA
330
98AA
100
AcDbEntity
  8
4
  6
CENTER
100
AcDbLine
 10
477.131622
 20
300.9030759999999
 30
0.0
 11
462.1316219999997
 21
300.9030759999999
 31
0.0
  0
LINE
  5
9ACB
330
98AA
100
AcDbEntity
  8
4
  6
CENTER
100
AcDbLine
 10
47.0
 20
300.9030759999999
 30
0.0
 11
33.0
 21
300.9030759999999
 31
0.0
  0
LINE
  5
9ACC
330
98AA
100
AcDbEntity
  8
4
  6
CENTER
100
AcDbLine
 10
271.158569
 20
55.200001
 30
0.0
 11
271.158569
 21
63.200001
 31
0.0
  0
LINE
  5
9ACD
330
98AA
100
AcDbEntity
  8
4
  6
CENTER
100
AcDbLine
 10
271.158569
 20
521.9030759999999
 30
0.0
 11
271.158569
 21
529.9030759999999
 31
0.0
  0
LINE
  5
9ACE
330
98AA
100
AcDbEntity
  8
4
  6
CENTER
100
AcDbLine
 10
19.0
 20
400.9030759999998
 30
0.0
 11
61.0
 21
400.9030759999998
 31
0.0
  0
LINE
  5
9ACF
330
98AA
100
AcDbEntity
  8
4
  6
CENTER
100
AcDbLine
 10
22.0
 20
175.903061
 30
0.0
 11
55.0
 21
175.903061
 31
0.0
  0
LINE
  5
9AD0
330
98AA
100
AcDbEntity
  8
4
  6
CENTER
100
AcDbLine
 10
650.3046259999997
 20
178.903061
 30
0.0
 11
650.3046259999997
 21
172.903061
 31
0.0
  0
LINE
  5
9AD1
330
98AA
100
AcDbEntity
  8
4
  6
CENTER
100
AcDbLine
 10
454.631622
 20
400.9030759999998
 30
0.0
 11
487.6316219999998
 21
400.9030759999998
 31
0.0
  0
LINE
  5
9AD2
330
98AA
100
AcDbEntity
  8
4
  6
CENTER
100
AcDbLine
 10
454.631622
 20
175.903061
 30
0.0
 11
487.6316219999998
 21
175.903061
 31
0.0
  0
LINE
  5
9AD3
330
98AA
100
AcDbEntity
  8
4
  6
CENTER
100
AcDbLine
 10
271.158569
 20
178.903061
 30
0.0
 11
271.158569
 21
172.903061
 31
0.0
  0
ARC
  5
9AD4
330
98AA
100
AcDbEntity
  8
1
  6
Continuous
100
AcDbCircle
 10
469.6316219999998
 20
400.9030759999998
 30
0.0
 40
15.0
100
AcDbArc
 50
0.0
 51
180.000005
  0
ARC
  5
9AD5
330
98AA
100
AcDbEntity
  8
1
  6
Continuous
100
AcDbCircle
 10
469.6316219999998
 20
175.903061
 30
0.0
 40
15.0
100
AcDbArc
 50
179.9999909999999
 51
0.00001
  0
ARC
  5
9AD6
330
98AA
100
AcDbEntity
  8
1
  6
Continuous
100
AcDbCircle
 10
469.6316219999998
 20
300.9030759999999
 30
0.0
 40
5.0
100
AcDbArc
 50
0.0
 51
180.000005
  0
ARC
  5
9AD7
330
98AA
100
AcDbEntity
  8
1
  6
Continuous
100
AcDbCircle
 10
604.1046139999997
 20
398.9030759999998
 30
0.0
 40
2.0
100
AcDbArc
 50
90.00000300000001
 51
180.000005
  0
ARC
  5
9AD8
330
98AA
100
AcDbEntity
  8
1
  6
Continuous
100
AcDbCircle
 10
40.0
 20
400.9030759999998
 30
0.0
 40
15.0
100
AcDbArc
 50
0.0
 51
180.000005
  0
ARC
  5
9AD9
330
98AA
100
AcDbEntity
  8
1
  6
Continuous
100
AcDbCircle
 10
40.0
 20
175.903061
 30
0.0
 40
15.0
100
AcDbArc
 50
179.9999909999999
 51
0.00001
  0
ARC
  5
9ADA
330
98AA
100
AcDbEntity
  8
1
  6
Continuous
100
AcDbCircle
 10
40.0
 20
300.9030759999999
 30
0.0
 40
5.0
100
AcDbArc
 50
0.0
 51
180.000005
  0
ARC
  5
9ADB
330
98AA
100
AcDbEntity
  8
1
  6
Continuous
100
AcDbCircle
 10
308.158569
 20
59.200001
 30
0.0
 40
15.0
100
AcDbArc
 50
323.1300959999999
 51
36.86989699999998
  0
ARC
  5
9ADC
330
98AA
100
AcDbEntity
  8
1
  6
Continuous
100
AcDbCircle
 10
619.304626
 20
400.9030759999998
 30
0.0
 40
15.0
100
AcDbArc
 50
185.7391709999999
 51
216.8699029999999
  0
ARC
  5
9ADD
330
98AA
100
AcDbEntity
  8
1
  6
Continuous
100
AcDbCircle
 10
619.304626
 20
400.9030759999998
 30
0.0
 40
15.0
100
AcDbArc
 50
143.130097
 51
174.2608289999998
  0
ARC
  5
9ADE
330
98AA
100
AcDbEntity
  8
1
  6
Continuous
100
AcDbCircle
 10
610.81073
 20
395.153076
 30
0.0
 40
0.5
100
AcDbArc
 50
184.999994
 51
5.0
  0
ARC
  5
9ADF
330
98AA
100
AcDbEntity
  8
1
  6
Continuous
100
AcDbCircle
 10
609.804626
 20
406.653076
 30
0.0
 40
0.5
100
AcDbArc
 50
5.0
 51
185.0000039999999
  0
ARC
  5
9AE0
330
98AA
100
AcDbEntity
  8
1
  6
Continuous
100
AcDbCircle
 10
615.6065059999997
 20
395.153076
 30
0.0
 40
0.5
100
AcDbArc
 50
184.999994
 51
5.0
  0
ARC
  5
9AE1
330
98AA
100
AcDbEntity
  8
1
  6
Continuous
100
AcDbCircle
 10
614.600403
 20
406.653076
 30
0.0
 40
0.5
100
AcDbArc
 50
5.0
 51
185.0000039999999
  0
ARC
  5
9AE2
330
98AA
100
AcDbEntity
  8
1
  6
Continuous
100
AcDbCircle
 10
613.2086179999999
 20
395.153076
 30
0.0
 40
0.5
100
AcDbArc
 50
184.999994
 51
5.0
  0
ARC
  5
9AE3
330
98AA
100
AcDbEntity
  8
1
  6
Continuous
100
AcDbCircle
 10
612.2025149999998
 20
406.653076
 30
0.0
 40
0.5
100
AcDbArc
 50
5.0
 51
185.0000039999999
  0
ARC
  5
9AE4
330
98AA
100
AcDbEntity
  8
1
  6
Continuous
100
AcDbCircle
 10
609.7045900000003
 20
395.153076
 30
0.0
 40
0.5
100
AcDbArc
 50
216.8699029999999
 51
5.000010999999997
  0
ARC
  5
9AE5
330
98AA
100
AcDbEntity
  8
1
  6
Continuous
100
AcDbCircle
 10
615.706543
 20
406.653076
 30
0.0
 40
0.5
100
AcDbArc
 50
36.86989699999998
 51
185.0000039999999
  0
ARC
  5
9AE6
330
98AA
100
AcDbEntity
  8
1
  6
Continuous
100
AcDbCircle
 10
609.7045900000003
 20
395.153076
 30
0.0
 40
0.5
100
AcDbArc
 50
216.8699029999999
 51
5.000010999999997
  0
CIRCLE
  5
9AE7
330
98AA
100
AcDbEntity
  8
1
  6
Continuous
100
AcDbCircle
 10
40.0
 20
175.903061
 30
0.0
 40
8.5
  0
CIRCLE
  5
9AE8
330
98AA
100
AcDbEntity
  8
1
  6
Continuous
100
AcDbCircle
 10
40.0
 20
400.9030759999998
 30
0.0
 40
6.5
  0
ARC
  5
9AE9
330
98AA
100
AcDbEntity
  8
1
  6
Continuous
100
AcDbCircle
 10
735.4820559999997
 20
406.532227
 30
0.0
 40
3.322566999999998
100
AcDbArc
 50
325.615718
 51
34.384289
  0
ARC
  5
9AEA
330
98AA
100
AcDbEntity
  8
1
  6
Continuous
100
AcDbCircle
 10
726.3851929999997
 20
400.9030759999998
 30
0.0
 40
12.41943599999999
100
AcDbArc
 50
342.4120259999999
 51
17.587964
  0
ARC
  5
9AEB
330
98AA
100
AcDbEntity
  8
1
  6
Continuous
100
AcDbCircle
 10
735.4820559999997
 20
395.273895
 30
0.0
 40
3.322562999999998
100
AcDbArc
 50
325.615704
 51
34.384303
  0
ARC
  5
9AEC
330
98AA
100
AcDbEntity
  8
1
  6
Continuous
100
AcDbCircle
 10
197.045715
 20
529.1530759999999
 30
0.0
 40
9.387140999999999
100
AcDbArc
 50
159.7438219999999
 51
200.256188
  0
ARC
  5
9AED
330
98AA
100
AcDbEntity
  8
1
  6
Continuous
100
AcDbCircle
 10
197.045715
 20
522.6530760000001
 30
0.0
 40
9.387140999999999
100
AcDbArc
 50
159.7438219999999
 51
200.256188
  0
ARC
  5
9AEE
330
98AA
100
AcDbEntity
  8
1
  6
Continuous
100
AcDbCircle
 10
781.627197
 20
406.532227
 30
0.0
 40
3.322569999999998
100
AcDbArc
 50
145.615754
 51
214.384243
  0
ARC
  5
9AEF
330
98AA
100
AcDbEntity
  8
1
  6
Continuous
100
AcDbCircle
 10
790.72406
 20
400.9030759999998
 30
0.0
 40
12.419443
100
AcDbArc
 50
162.4120489999999
 51
197.5879469999999
  0
ARC
  5
9AF0
330
98AA
100
AcDbEntity
  8
1
  6
Continuous
100
AcDbCircle
 10
781.627197
 20
395.273895
 30
0.0
 40
3.322569999999998
100
AcDbArc
 50
145.615754
 51
214.384243
  0
ARC
  5
9AF1
330
98AA
100
AcDbEntity
  8
1
  6
Continuous
100
AcDbCircle
 10
779.9820559999997
 20
395.273895
 30
0.0
 40
3.322569999999998
100
AcDbArc
 50
325.6157519999998
 51
34.38424799999999
  0
ARC
  5
9AF2
330
98AA
100
AcDbEntity
  8
1
  6
Continuous
100
AcDbCircle
 10
770.8851319999999
 20
400.9030759999998
 30
0.0
 40
12.419443
100
AcDbArc
 50
342.4120459999999
 51
17.587954
  0
ARC
  5
9AF3
330
98AA
100
AcDbEntity
  8
1
  6
Continuous
100
AcDbCircle
 10
779.9820559999997
 20
406.532227
 30
0.0
 40
3.322569999999998
100
AcDbArc
 50
325.6157519999998
 51
34.38424799999999
  0
CIRCLE
  5
9AF4
330
98AA
100
AcDbEntity
  8
1
  6
Continuous
100
AcDbCircle
 10
469.6316219999998
 20
400.9030759999998
 30
0.0
 40
9.0
  0
CIRCLE
  5
9AF5
330
98AA
100
AcDbEntity
  8
1
  6
Continuous
100
AcDbCircle
 10
469.6316219999998
 20
175.903061
 30
0.0
 40
9.0
  0
ARC
  5
9AF6
330
98AA
100
AcDbEntity
  8
1
  6
Continuous
100
AcDbCircle
 10
305.3585819999999
 20
510.903076
 30
0.0
 40
3.2
100
AcDbArc
 50
179.9999909999999
 51
270.000001
  0
ARC
  5
9AF7
330
98AA
100
AcDbEntity
  8
1
  6
Continuous
100
AcDbCircle
 10
305.3585819999999
 20
74.19999699999998
 30
0.0
 40
3.2
100
AcDbArc
 50
89.99999599999998
 51
180.000005
  0
ARC
  5
9AF8
330
98AA
100
AcDbEntity
  8
1
  6
Continuous
100
AcDbCircle
 10
302.158569
 20
525.9030759999999
 30
0.0
 40
15.0
100
AcDbArc
 50
323.1300959999999
 51
36.86989699999998
  0
ARC
  5
9AF9
330
98AA
100
AcDbEntity
  8
1
  6
Continuous
100
AcDbCircle
 10
151.045715
 20
522.6530760000001
 30
0.0
 40
9.387140999999999
100
AcDbArc
 50
159.7438219999999
 51
200.256188
  0
ARC
  5
9AFA
330
98AA
100
AcDbEntity
  8
1
  6
Continuous
100
AcDbCircle
 10
151.045715
 20
529.1530759999999
 30
0.0
 40
9.387140999999999
100
AcDbArc
 50
159.7438219999999
 51
200.256188
  0
ARC
  5
9AFB
330
98AA
100
AcDbEntity
  8
1
  6
Continuous
100
AcDbCircle
 10
137.2714229999999
 20
522.6530760000001
 30
0.0
 40
9.387140999999999
100
AcDbArc
 50
339.7438119999999
 51
20.256178
  0
ARC
  5
9AFC
330
98AA
100
AcDbEntity
  8
1
  6
Continuous
100
AcDbCircle
 10
137.2714229999999
 20
529.1530759999999
 30
0.0
 40
9.387140999999999
100
AcDbArc
 50
339.7438119999999
 51
20.256178
  0
ARC
  5
9AFD
330
98AA
100
AcDbEntity
  8
1
  6
Continuous
100
AcDbCircle
 10
309.7524409999999
 20
531.6530759999999
 30
0.0
 40
0.5
100
AcDbArc
 50
4.999994
 51
185.0000039999999
  0
ARC
  5
9AFE
330
98AA
100
AcDbEntity
  8
1
  6
Continuous
100
AcDbCircle
 10
310.7585450000001
 20
520.1530759999999
 30
0.0
 40
0.5
100
AcDbArc
 50
184.999994
 51
5.000003999999997
  0
ARC
  5
9AFF
330
98AA
100
AcDbEntity
  8
1
  6
Continuous
100
AcDbCircle
 10
311.758545
 20
531.6530759999999
 30
0.0
 40
0.5
100
AcDbArc
 50
36.869904
 51
185.0000179999999
  0
ARC
  5
9B00
330
98AA
100
AcDbEntity
  8
1
  6
Continuous
100
AcDbCircle
 10
311.758545
 20
531.6530759999999
 30
0.0
 40
0.5
100
AcDbArc
 50
36.869904
 51
185.0000179999999
  0
ARC
  5
9B01
330
98AA
100
AcDbEntity
  8
1
  6
Continuous
100
AcDbCircle
 10
305.758545
 20
531.6530759999999
 30
0.0
 40
0.5
100
AcDbArc
 50
0.000005
 51
143.130097
  0
ARC
  5
9B02
330
98AA
100
AcDbEntity
  8
1
  6
Continuous
100
AcDbCircle
 10
305.758545
 20
520.1530759999999
 30
0.0
 40
0.5
100
AcDbArc
 50
216.8699029999999
 51
352.5985939999998
  0
ARC
  5
9B03
330
98AA
100
AcDbEntity
  8
1
  6
Continuous
100
AcDbCircle
 10
311.758545
 20
531.6530759999999
 30
0.0
 40
0.5
100
AcDbArc
 50
36.869904
 51
185.0000179999999
  0
ARC
  5
9B04
330
98AA
100
AcDbEntity
  8
1
  6
Continuous
100
AcDbCircle
 10
311.758545
 20
520.1530759999999
 30
0.0
 40
0.5
100
AcDbArc
 50
174.999992
 51
323.130102
  0
ARC
  5
9B05
330
98AA
100
AcDbEntity
  8
1
  6
Continuous
100
AcDbCircle
 10
307.2524409999999
 20
531.6530759999999
 30
0.0
 40
0.5
100
AcDbArc
 50
4.999994
 51
172.59858
  0
ARC
  5
9B06
330
98AA
100
AcDbEntity
  8
1
  6
Continuous
100
AcDbCircle
 10
308.258545
 20
520.1530759999999
 30
0.0
 40
0.5
100
AcDbArc
 50
184.999994
 51
5.000003999999997
  0
ARC
  5
9B07
330
98AA
100
AcDbEntity
  8
1
  6
Continuous
100
AcDbCircle
 10
613.304626
 20
175.903061
 30
0.0
 40
15.0
100
AcDbArc
 50
143.130097
 51
174.2608289999998
  0
ARC
  5
9B08
330
98AA
100
AcDbEntity
  8
1
  6
Continuous
100
AcDbCircle
 10
613.304626
 20
175.903061
 30
0.0
 40
15.0
100
AcDbArc
 50
185.7391709999999
 51
216.8699029999999
  0
CIRCLE
  5
9B09
330
98AA
100
AcDbEntity
  8
1
  6
Continuous
100
AcDbCircle
 10
650.3046259999997
 20
175.903061
 30
0.0
 40
1.5
  0
ARC
  5
9B0A
330
98AA
100
AcDbEntity
  8
1
  6
Continuous
100
AcDbCircle
 10
729.9597169999997
 20
183.264282
 30
0.0
 40
4.344898999999998
100
AcDbArc
 50
325.6157519999998
 51
34.38424799999999
  0
ARC
  5
9B0B
330
98AA
100
AcDbEntity
  8
1
  6
Continuous
100
AcDbCircle
 10
732.649536
 20
183.264282
 30
0.0
 40
4.344898999999998
100
AcDbArc
 50
145.615754
 51
214.384243
  0
ARC
  5
9B0C
330
98AA
100
AcDbEntity
  8
1
  6
Continuous
100
AcDbCircle
 10
744.5454099999997
 20
175.903061
 30
0.0
 40
16.24081
100
AcDbArc
 50
162.4120489999999
 51
197.5879469999999
  0
ARC
  5
9B0D
330
98AA
100
AcDbEntity
  8
1
  6
Continuous
100
AcDbCircle
 10
732.649536
 20
168.541855
 30
0.0
 40
4.344898999999998
100
AcDbArc
 50
145.615754
 51
214.384243
  0
ARC
  5
9B0E
330
98AA
100
AcDbEntity
  8
1
  6
Continuous
100
AcDbCircle
 10
718.063843
 20
175.903061
 30
0.0
 40
16.24081
100
AcDbArc
 50
342.4120459999999
 51
17.587954
  0
ARC
  5
9B0F
330
98AA
100
AcDbEntity
  8
1
  6
Continuous
100
AcDbCircle
 10
729.9597169999997
 20
168.541855
 30
0.0
 40
4.344898999999998
100
AcDbArc
 50
325.6157519999998
 51
34.38424799999999
  0
ARC
  5
9B10
330
98AA
100
AcDbEntity
  8
1
  6
Continuous
100
AcDbCircle
 10
185.883087
 20
63.450001
 30
0.0
 40
12.27549699999999
100
AcDbArc
 50
339.7438259999999
 51
20.256178
  0
ARC
  5
9B11
330
98AA
100
AcDbEntity
  8
1
  6
Continuous
100
AcDbCircle
 10
185.883087
 20
54.950001
 30
0.0
 40
12.27549699999999
100
AcDbArc
 50
339.7438259999999
 51
20.256178
  0
ARC
  5
9B12
330
98AA
100
AcDbEntity
  8
1
  6
Continuous
100
AcDbCircle
 10
204.4340819999999
 20
63.450001
 30
0.0
 40
12.27549699999999
100
AcDbArc
 50
159.7438219999999
 51
200.2561739999999
  0
ARC
  5
9B13
330
98AA
100
AcDbEntity
  8
1
  6
Continuous
100
AcDbCircle
 10
204.4340819999999
 20
54.950001
 30
0.0
 40
12.27549699999999
100
AcDbArc
 50
159.7438219999999
 51
200.2561739999999
  0
CIRCLE
  5
9B14
330
98AA
100
AcDbEntity
  8
1
  6
Continuous
100
AcDbCircle
 10
40.0
 20
400.9030759999998
 30
0.0
 40
7.7
  0
CIRCLE
  5
9B15
330
98AA
100
AcDbEntity
  8
1
  6
Continuous
100
AcDbCircle
 10
40.0
 20
400.9030759999998
 30
0.0
 40
4.0
  0
CIRCLE
  5
9B16
330
98AA
100
AcDbEntity
  8
2
  6
Continuous
100
AcDbCircle
 10
40.0
 20
400.9030759999998
 30
0.0
 40
3.3235
  0
CIRCLE
  5
9B17
330
98AA
100
AcDbEntity
  8
1
  6
Continuous
100
AcDbCircle
 10
40.0
 20
175.903061
 30
0.0
 40
3.0
  0
CIRCLE
  5
9B18
330
98AA
100
AcDbEntity
  8
1
  6
Continuous
100
AcDbCircle
 10
40.0
 20
175.903061
 30
0.0
 40
2.5
  0
ARC
  5
9B19
330
98AA
100
AcDbEntity
  8
1
  6
Continuous
100
AcDbCircle
 10
40.0
 20
175.903061
 30
0.0
 40
5.5
100
AcDbArc
 50
48.569175
 51
311.430863
  0
ARC
  5
9B1A
330
98AA
100
AcDbEntity
  8
1
  6
Continuous
100
AcDbCircle
 10
40.0
 20
175.903061
 30
0.0
 40
4.299999999999998
100
AcDbArc
 50
205.886835
 51
264.113174
  0
ARC
  5
9B1B
330
98AA
100
AcDbEntity
  8
1
  6
Continuous
100
AcDbCircle
 10
40.0
 20
175.903061
 30
0.0
 40
4.299999999999998
100
AcDbArc
 50
95.88681300000001
 51
154.113137
  0
ARC
  5
9B1C
330
98AA
100
AcDbEntity
  8
1
  6
Continuous
100
AcDbCircle
 10
36.49133299999999
 20
174.2003479999999
 30
0.0
 40
0.4
100
AcDbArc
 50
110.000005
 51
205.8869269999999
  0
ARC
  5
9B1D
330
98AA
100
AcDbEntity
  8
1
  6
Continuous
100
AcDbCircle
 10
39.599998
 20
172.023636
 30
0.0
 40
0.4
100
AcDbArc
 50
264.1132489999999
 51
359.9999819999999
  0
ARC
  5
9B1E
330
98AA
100
AcDbEntity
  8
1
  6
Continuous
100
AcDbCircle
 10
36.49133299999999
 20
177.6057889999999
 30
0.0
 40
0.4
100
AcDbArc
 50
154.113055
 51
249.999868
  0
ARC
  5
9B1F
330
98AA
100
AcDbEntity
  8
1
  6
Continuous
100
AcDbCircle
 10
39.599998
 20
179.7825009999999
 30
0.0
 40
0.4
100
AcDbArc
 50
359.999999
 51
95.886758
  0
ARC
  5
9B20
330
98AA
100
AcDbEntity
  8
1
  6
Continuous
100
AcDbCircle
 10
43.37474799999998
 20
179.726822
 30
0.0
 40
0.4
100
AcDbArc
 50
300.0000529999998
 51
48.56913
  0
ARC
  5
9B21
330
98AA
100
AcDbEntity
  8
1
  6
Continuous
100
AcDbCircle
 10
43.37474799999998
 20
172.0793149999998
 30
0.0
 40
0.4
100
AcDbArc
 50
311.4310679999999
 51
60.000063
  0
ARC
  5
9B22
330
98AA
100
AcDbEntity
  8
1
  6
Continuous
100
AcDbCircle
 10
40.0
 20
175.903061
 30
0.0
 40
5.0
100
AcDbArc
 50
315.826318
 51
44.173682
  0
ARC
  5
9B23
330
98AA
100
AcDbEntity
  8
2
  6
Continuous
100
AcDbCircle
 10
40.0
 20
175.903061
 30
0.0
 40
4.187999999999997
100
AcDbArc
 50
91.95065699999997
 51
158.049362
  0
ARC
  5
9B24
330
98AA
100
AcDbEntity
  8
2
  6
Continuous
100
AcDbCircle
 10
40.0
 20
175.903061
 30
0.0
 40
4.187999999999997
100
AcDbArc
 50
313.0051869999999
 51
46.99477199999999
  0
ARC
  5
9B25
330
98AA
100
AcDbEntity
  8
2
  6
Continuous
100
AcDbCircle
 10
40.0
 20
175.903061
 30
0.0
 40
4.187999999999997
100
AcDbArc
 50
201.950638
 51
268.049343
  0
ARC
  5
9B26
330
98AA
100
AcDbEntity
  8
1
  6
Continuous
100
AcDbCircle
 10
40.0
 20
175.903061
 30
0.0
 40
9.0
100
AcDbArc
 50
160.811859
 51
199.188137
  0
ARC
  5
9B27
330
98AA
100
AcDbEntity
  8
1
  6
Continuous
100
AcDbCircle
 10
40.0
 20
175.903061
 30
0.0
 40
9.0
100
AcDbArc
 50
220.811864
 51
259.1881359999998
  0
ARC
  5
9B28
330
98AA
100
AcDbEntity
  8
1
  6
Continuous
100
AcDbCircle
 10
40.0
 20
175.903061
 30
0.0
 40
9.0
100
AcDbArc
 50
280.811866
 51
319.1881379999998
  0
ARC
  5
9B29
330
98AA
100
AcDbEntity
  8
1
  6
Continuous
100
AcDbCircle
 10
40.0
 20
175.903061
 30
0.0
 40
9.0
100
AcDbArc
 50
340.811864
 51
19.188136
  0
ARC
  5
9B2A
330
98AA
100
AcDbEntity
  8
1
  6
Continuous
100
AcDbCircle
 10
40.0
 20
175.903061
 30
0.0
 40
9.0
100
AcDbArc
 50
40.811862
 51
79.18813400000002
  0
ARC
  5
9B2B
330
98AA
100
AcDbEntity
  8
1
  6
Continuous
100
AcDbCircle
 10
40.0
 20
175.903061
 30
0.0
 40
9.0
100
AcDbArc
 50
100.8118639999999
 51
139.1881359999999
  0
ARC
  5
9B2C
330
98AA
100
AcDbEntity
  8
5
  6
PHANTOM
100
AcDbCircle
 10
619.304626
 20
300.9030759999999
 30
0.0
 40
15.0
100
AcDbArc
 50
185.7391709999999
 51
216.8699029999999
  0
ARC
  5
9B2D
330
98AA
100
AcDbEntity
  8
5
  6
PHANTOM
100
AcDbCircle
 10
619.304626
 20
300.9030759999999
 30
0.0
 40
15.0
100
AcDbArc
 50
143.130097
 51
174.2608289999998
  0
ARC
  5
9B2E
330
98AA
100
AcDbEntity
  8
1
  6
Continuous
100
AcDbCircle
 10
308.158569
 20
525.9030759999999
 30
0.0
 40
15.0
100
AcDbArc
 50
323.1300959999999
 51
36.86989699999998
  0
ARC
  5
9B2F
330
98AA
100
AcDbEntity
  8
1
  6
Continuous
100
AcDbCircle
 10
302.158569
 20
59.200001
 30
0.0
 40
15.0
100
AcDbArc
 50
18.461463
 51
36.869904
  0
ARC
  5
9B30
330
98AA
100
AcDbEntity
  8
1
  6
Continuous
100
AcDbCircle
 10
308.258575
 20
53.45000500000001
 30
0.0
 40
0.5
100
AcDbArc
 50
258.463043
 51
5.000003999999997
  0
ARC
  5
9B31
330
98AA
100
AcDbEntity
  8
1
  6
Continuous
100
AcDbCircle
 10
309.7524409999999
 20
64.949997
 30
0.0
 40
0.5
100
AcDbArc
 50
4.999994
 51
185.0000039999999
  0
ARC
  5
9B32
330
98AA
100
AcDbEntity
  8
1
  6
Continuous
100
AcDbCircle
 10
310.758575
 20
53.45000500000001
 30
0.0
 40
0.5
100
AcDbArc
 50
184.999994
 51
5.000003999999997
  0
ARC
  5
9B33
330
98AA
100
AcDbEntity
  8
1
  6
Continuous
100
AcDbCircle
 10
311.7585749999999
 20
64.949997
 30
0.0
 40
0.5
100
AcDbArc
 50
36.869904
 51
185.0000179999999
  0
ARC
  5
9B34
330
98AA
100
AcDbEntity
  8
1
  6
Continuous
100
AcDbCircle
 10
311.7585749999999
 20
64.949997
 30
0.0
 40
0.5
100
AcDbArc
 50
36.869904
 51
185.0000179999999
  0
ARC
  5
9B35
330
98AA
100
AcDbEntity
  8
1
  6
Continuous
100
AcDbCircle
 10
311.7585749999999
 20
53.45000500000001
 30
0.0
 40
0.5
100
AcDbArc
 50
174.999992
 51
323.130102
  0
ARC
  5
9B36
330
98AA
100
AcDbEntity
  8
1
  6
Continuous
100
AcDbCircle
 10
311.7585749999999
 20
64.949997
 30
0.0
 40
0.5
100
AcDbArc
 50
36.869904
 51
185.0000179999999
  0
ARC
  5
9B37
330
98AA
100
AcDbEntity
  8
1
  6
Continuous
100
AcDbCircle
 10
302.158569
 20
59.200001
 30
0.0
 40
15.0
100
AcDbArc
 50
323.1300959999999
 51
341.538537
  0
ARC
  5
9B38
330
98AA
100
AcDbEntity
  8
1
  6
Continuous
100
AcDbCircle
 10
317.3585819999999
 20
398.9030759999998
 30
0.0
 40
2.0
100
AcDbArc
 50
0.0
 51
90.00000300000001
  0
ARC
  5
9B39
330
98AA
100
AcDbEntity
  8
1
  6
Continuous
100
AcDbCircle
 10
317.3585819999999
 20
177.903061
 30
0.0
 40
2.0
100
AcDbArc
 50
269.9999969999999
 51
0.0
  0
CIRCLE
  5
9B3A
330
98AA
100
AcDbEntity
  8
1
  6
Continuous
100
AcDbCircle
 10
40.0
 20
400.9030759999998
 30
0.0
 40
10.5
  0
ARC
  5
9B3B
330
98AA
100
AcDbEntity
  8
1
  6
Continuous
100
AcDbCircle
 10
302.158569
 20
400.9030759999998
 30
0.0
 40
15.0
100
AcDbArc
 50
5.739170999999998
 51
36.86989699999998
  0
ARC
  5
9B3C
330
98AA
100
AcDbEntity
  8
1
  6
Continuous
100
AcDbCircle
 10
310.652466
 20
406.653076
 30
0.0
 40
0.5
100
AcDbArc
 50
5.0
 51
185.0000039999999
  0
ARC
  5
9B3D
330
98AA
100
AcDbEntity
  8
1
  6
Continuous
100
AcDbCircle
 10
305.856689
 20
406.653076
 30
0.0
 40
0.5
100
AcDbArc
 50
5.0
 51
185.0000039999999
  0
ARC
  5
9B3E
330
98AA
100
AcDbEntity
  8
1
  6
Continuous
100
AcDbCircle
 10
308.2545779999999
 20
406.653076
 30
0.0
 40
0.5
100
AcDbArc
 50
5.0
 51
185.0000039999999
  0
ARC
  5
9B3F
330
98AA
100
AcDbEntity
  8
1
  6
Continuous
100
AcDbCircle
 10
311.7586059999998
 20
406.653076
 30
0.0
 40
0.5
100
AcDbArc
 50
36.86989699999998
 51
185.0000039999999
  0
ARC
  5
9B40
330
98AA
100
AcDbEntity
  8
1
  6
Continuous
100
AcDbCircle
 10
311.7586059999998
 20
406.653076
 30
0.0
 40
0.5
100
AcDbArc
 50
36.86989699999998
 51
185.0000039999999
  0
ARC
  5
9B41
330
98AA
100
AcDbEntity
  8
1
  6
Continuous
100
AcDbCircle
 10
144.9811399999999
 20
395.273895
 30
0.0
 40
3.322569999999998
100
AcDbArc
 50
145.615754
 51
214.384243
  0
ARC
  5
9B42
330
98AA
100
AcDbEntity
  8
1
  6
Continuous
100
AcDbCircle
 10
154.0780639999999
 20
400.9030759999998
 30
0.0
 40
12.419443
100
AcDbArc
 50
162.4120489999999
 51
197.5879469999999
  0
ARC
  5
9B43
330
98AA
100
AcDbEntity
  8
1
  6
Continuous
100
AcDbCircle
 10
190.9811399999999
 20
395.273895
 30
0.0
 40
3.322562999999998
100
AcDbArc
 50
145.615699
 51
214.3842970000001
  0
ARC
  5
9B44
330
98AA
100
AcDbEntity
  8
1
  6
Continuous
100
AcDbCircle
 10
200.078003
 20
400.9030759999998
 30
0.0
 40
12.41943599999999
100
AcDbArc
 50
162.412036
 51
197.587974
  0
ARC
  5
9B45
330
98AA
100
AcDbEntity
  8
1
  6
Continuous
100
AcDbCircle
 10
190.9811399999999
 20
406.532227
 30
0.0
 40
3.322566999999998
100
AcDbArc
 50
145.615713
 51
214.384284
  0
ARC
  5
9B46
330
98AA
100
AcDbEntity
  8
1
  6
Continuous
100
AcDbCircle
 10
144.9811399999999
 20
406.532227
 30
0.0
 40
3.322569999999998
100
AcDbArc
 50
145.615754
 51
214.384243
  0
ARC
  5
9B47
330
98AA
100
AcDbEntity
  8
1
  6
Continuous
100
AcDbCircle
 10
143.3359989999999
 20
395.273895
 30
0.0
 40
3.322569999999998
100
AcDbArc
 50
325.6157519999998
 51
34.38424799999999
  0
ARC
  5
9B48
330
98AA
100
AcDbEntity
  8
1
  6
Continuous
100
AcDbCircle
 10
134.239136
 20
400.9030759999998
 30
0.0
 40
12.419443
100
AcDbArc
 50
342.4120459999999
 51
17.587954
  0
ARC
  5
9B49
330
98AA
100
AcDbEntity
  8
1
  6
Continuous
100
AcDbCircle
 10
143.3359989999999
 20
406.532227
 30
0.0
 40
3.322569999999998
100
AcDbArc
 50
325.6157519999998
 51
34.38424799999999
  0
ARC
  5
9B4A
330
98AA
100
AcDbEntity
  8
1
  6
Continuous
100
AcDbCircle
 10
308.158569
 20
175.903061
 30
0.0
 40
15.0
100
AcDbArc
 50
323.1301029999999
 51
354.2608289999998
  0
ARC
  5
9B4B
330
98AA
100
AcDbEntity
  8
1
  6
Continuous
100
AcDbCircle
 10
308.158569
 20
175.903061
 30
0.0
 40
15.0
100
AcDbArc
 50
5.739170999999998
 51
36.86989699999998
  0
CIRCLE
  5
9B4C
330
98AA
100
AcDbEntity
  8
1
  6
Continuous
100
AcDbCircle
 10
271.158569
 20
175.903061
 30
0.0
 40
1.5
  0
ARC
  5
9B4D
330
98AA
100
AcDbEntity
  8
1
  6
Continuous
100
AcDbCircle
 10
196.5034789999999
 20
183.264282
 30
0.0
 40
4.344898999999998
100
AcDbArc
 50
145.615754
 51
214.384243
  0
ARC
  5
9B4E
330
98AA
100
AcDbEntity
  8
1
  6
Continuous
100
AcDbCircle
 10
193.8137209999999
 20
183.264282
 30
0.0
 40
4.344898999999998
100
AcDbArc
 50
325.6157519999998
 51
34.38424799999999
  0
ARC
  5
9B4F
330
98AA
100
AcDbEntity
  8
1
  6
Continuous
100
AcDbCircle
 10
181.917786
 20
175.903061
 30
0.0
 40
16.24081
100
AcDbArc
 50
342.4120459999999
 51
17.587954
  0
ARC
  5
9B50
330
98AA
100
AcDbEntity
  8
1
  6
Continuous
100
AcDbCircle
 10
193.8137209999999
 20
168.541855
 30
0.0
 40
4.344898999999998
100
AcDbArc
 50
325.6157519999998
 51
34.38424799999999
  0
ARC
  5
9B51
330
98AA
100
AcDbEntity
  8
1
  6
Continuous
100
AcDbCircle
 10
208.3994139999998
 20
175.903061
 30
0.0
 40
16.24081
100
AcDbArc
 50
162.4120489999999
 51
197.5879469999999
  0
ARC
  5
9B52
330
98AA
100
AcDbEntity
  8
1
  6
Continuous
100
AcDbCircle
 10
196.5034789999999
 20
168.541855
 30
0.0
 40
4.344898999999998
100
AcDbArc
 50
145.615754
 51
214.384243
  0
ARC
  5
9B53
330
98AA
100
AcDbEntity
  8
1
  6
Continuous
100
AcDbCircle
 10
472.7248839999998
 20
343.2195430000001
 30
0.0
 40
0.7817210000000001
100
AcDbArc
 50
42.869628
 51
46.27513600000001
  0
ARC
  5
9B54
330
98AA
100
AcDbEntity
  8
1
  6
Continuous
100
AcDbCircle
 10
472.9133299999999
 20
343.2195430000001
 30
0.0
 40
0.7817210000000001
100
AcDbArc
 50
137.130377
 51
222.8696189999999
  0
ARC
  5
9B55
330
98AA
100
AcDbEntity
  8
1
  6
Continuous
100
AcDbCircle
 10
472.819122
 20
343.3070069999998
 30
0.0
 40
0.6531630000000001
100
AcDbArc
 50
42.869628
 51
137.130377
  0
ARC
  5
9B56
330
98AA
100
AcDbEntity
  8
1
  6
Continuous
100
AcDbCircle
 10
472.819122
 20
343.1320799999999
 30
0.0
 40
0.6531630000000001
100
AcDbArc
 50
222.8696229999999
 51
294.2768189999998
  0
ARC
  5
9B57
330
98AA
100
AcDbEntity
  8
1
  6
Continuous
100
AcDbCircle
 10
472.7248839999998
 20
352.095947
 30
0.0
 40
0.7817210000000001
100
AcDbArc
 50
32.849699
 51
42.869628
  0
ARC
  5
9B58
330
98AA
100
AcDbEntity
  8
1
  6
Continuous
100
AcDbCircle
 10
472.9133299999999
 20
352.095947
 30
0.0
 40
0.7817210000000001
100
AcDbArc
 50
137.130377
 51
222.8696189999999
  0
ARC
  5
9B59
330
98AA
100
AcDbEntity
  8
1
  6
Continuous
100
AcDbCircle
 10
472.819122
 20
352.1834109999999
 30
0.0
 40
0.6531630000000001
100
AcDbArc
 50
42.869628
 51
137.130377
  0
ARC
  5
9B5A
330
98AA
100
AcDbEntity
  8
1
  6
Continuous
100
AcDbCircle
 10
472.819122
 20
352.0084839999999
 30
0.0
 40
0.6531630000000001
100
AcDbArc
 50
222.8696229999999
 51
288.2076629999999
  0
ARC
  5
9B5B
330
98AA
100
AcDbEntity
  8
1
  6
Continuous
100
AcDbCircle
 10
473.849884
 20
352.095947
 30
0.0
 40
0.7817210000000001
100
AcDbArc
 50
317.1303759999999
 51
42.869628
  0
ARC
  5
9B5C
330
98AA
100
AcDbEntity
  8
1
  6
Continuous
100
AcDbCircle
 10
474.0383299999998
 20
352.095947
 30
0.0
 40
0.7817210000000001
100
AcDbArc
 50
137.130377
 51
147.150306
  0
ARC
  5
9B5D
330
98AA
100
AcDbEntity
  8
1
  6
Continuous
100
AcDbCircle
 10
473.9441219999998
 20
352.1834109999999
 30
0.0
 40
0.6531630000000001
100
AcDbArc
 50
42.869628
 51
137.130377
  0
ARC
  5
9B5E
330
98AA
100
AcDbEntity
  8
1
  6
Continuous
100
AcDbCircle
 10
473.9441219999998
 20
352.0084839999999
 30
0.0
 40
0.6531630000000001
100
AcDbArc
 50
283.0142259999998
 51
317.1303759999999
  0
ARC
  5
9B5F
330
98AA
100
AcDbEntity
  8
1
  6
Continuous
100
AcDbCircle
 10
473.866486
 20
340.1387329999999
 30
0.0
 40
0.7829229999999999
100
AcDbArc
 50
225.9274979999999
 51
246.95108
  0
ARC
  5
9B60
330
98AA
100
AcDbEntity
  8
1
  6
Continuous
100
AcDbCircle
 10
473.866486
 20
340.0541379999999
 30
0.0
 40
0.7829229999999999
100
AcDbArc
 50
45.92749699999998
 51
134.0725019999999
  0
ARC
  5
9B61
330
98AA
100
AcDbEntity
  8
1
  6
Continuous
100
AcDbCircle
 10
473.9074399999998
 20
340.0964359999999
 30
0.0
 40
0.72405
100
AcDbArc
 50
295.5969779999999
 51
45.92749699999998
  0
ARC
  5
9B62
330
98AA
100
AcDbEntity
  8
1
  6
Continuous
100
AcDbCircle
 10
473.8255309999998
 20
340.0964359999999
 30
0.0
 40
0.72405
100
AcDbArc
 50
134.0725019999999
 51
225.927495
  0
ARC
  5
9B63
330
98AA
100
AcDbEntity
  8
1
  6
Continuous
100
AcDbCircle
 10
472.819122
 20
355.1320799999999
 30
0.0
 40
0.6531630000000001
100
AcDbArc
 50
222.8696229999999
 51
294.2768189999998
  0
ARC
  5
9B64
330
98AA
100
AcDbEntity
  8
1
  6
Continuous
100
AcDbCircle
 10
472.819122
 20
355.3070069999998
 30
0.0
 40
0.6531630000000001
100
AcDbArc
 50
42.869628
 51
137.130377
  0
ARC
  5
9B65
330
98AA
100
AcDbEntity
  8
1
  6
Continuous
100
AcDbCircle
 10
472.9133299999999
 20
355.2195429999999
 30
0.0
 40
0.7817210000000001
100
AcDbArc
 50
137.130377
 51
222.8696189999999
  0
ARC
  5
9B66
330
98AA
100
AcDbEntity
  8
1
  6
Continuous
100
AcDbCircle
 10
472.7248839999998
 20
355.2195429999999
 30
0.0
 40
0.7817210000000001
100
AcDbArc
 50
42.869628
 51
46.27513600000001
  0
ARC
  5
9B67
330
98AA
100
AcDbEntity
  8
1
  6
Continuous
100
AcDbCircle
 10
473.8255309999998
 20
349.0964359999999
 30
0.0
 40
0.72405
100
AcDbArc
 50
134.0725019999999
 51
225.927495
  0
ARC
  5
9B68
330
98AA
100
AcDbEntity
  8
1
  6
Continuous
100
AcDbCircle
 10
473.9074399999998
 20
349.0964359999999
 30
0.0
 40
0.72405
100
AcDbArc
 50
295.5969779999999
 51
45.92749699999998
  0
ARC
  5
9B69
330
98AA
100
AcDbEntity
  8
1
  6
Continuous
100
AcDbCircle
 10
473.866486
 20
349.0541379999998
 30
0.0
 40
0.7829229999999999
100
AcDbArc
 50
45.92749699999998
 51
134.0725019999999
  0
ARC
  5
9B6A
330
98AA
100
AcDbEntity
  8
1
  6
Continuous
100
AcDbCircle
 10
473.866486
 20
349.138733
 30
0.0
 40
0.7829229999999999
100
AcDbArc
 50
225.9274979999999
 51
246.95108
  0
ARC
  5
9B6B
330
98AA
100
AcDbEntity
  8
1
  6
Continuous
100
AcDbCircle
 10
472.747253
 20
324.6068119999999
 30
0.0
 40
0.634346
100
AcDbArc
 50
0.0
 51
180.000005
  0
ARC
  5
9B6C
330
98AA
100
AcDbEntity
  8
1
  6
Continuous
100
AcDbCircle
 10
462.5328979999999
 20
321.620117
 30
0.0
 40
7.932788
100
AcDbArc
 50
333.9859999999998
 51
337.0559999999999
  0
ARC
  5
9B6D
330
98AA
100
AcDbEntity
  8
1
  6
Continuous
100
AcDbCircle
 10
469.7759089999998
 20
318.55484
 30
0.0
 40
0.066678
100
AcDbArc
 50
337.0559999999999
 51
90.00000300000001
  0
ARC
  5
9B6E
330
98AA
100
AcDbEntity
  8
1
  6
Continuous
100
AcDbCircle
 10
470.204895
 20
319.887878
 30
0.0
 40
0.066678
100
AcDbArc
 50
347.270997
 51
90.00000300000001
  0
ARC
  5
9B6F
330
98AA
100
AcDbEntity
  8
1
  6
Continuous
100
AcDbCircle
 10
462.5328979999999
 20
321.620117
 30
0.0
 40
7.932788
100
AcDbArc
 50
344.794003
 51
347.270997
  0
ARC
  5
9B70
330
98AA
100
AcDbEntity
  8
1
  6
Continuous
100
AcDbCircle
 10
462.5328979999999
 20
321.620117
 30
0.0
 40
7.932788
100
AcDbArc
 50
344.741998
 51
344.794003
  0
ARC
  5
9B71
330
98AA
100
AcDbEntity
  8
1
  6
Continuous
100
AcDbCircle
 10
469.8638609999998
 20
319.6212459999999
 30
0.0
 40
0.333392
100
AcDbArc
 50
270.0000039999998
 51
344.741986
  0
ARC
  5
9B72
330
98AA
100
AcDbEntity
  8
1
  6
Continuous
100
AcDbCircle
 10
466.400696
 20
319.6212459999999
 30
0.0
 40
0.333392
100
AcDbArc
 50
195.2575039999999
 51
270.0000039999998
  0
ARC
  5
9B73
330
98AA
100
AcDbEntity
  8
1
  6
Continuous
100
AcDbCircle
 10
473.7316589999998
 20
321.620117
 30
0.0
 40
7.932788
100
AcDbArc
 50
193.268102
 51
195.2575039999999
  0
ARC
  5
9B74
330
98AA
100
AcDbEntity
  8
1
  6
Continuous
100
AcDbCircle
 10
473.7316589999998
 20
321.620117
 30
0.0
 40
7.932788
100
AcDbArc
 50
192.728899
 51
193.268102
  0
ARC
  5
9B75
330
98AA
100
AcDbEntity
  8
1
  6
Continuous
100
AcDbCircle
 10
466.0596619999998
 20
319.887878
 30
0.0
 40
0.066678
100
AcDbArc
 50
90.00000300000001
 51
192.728896
  0
ARC
  5
9B76
330
98AA
100
AcDbEntity
  8
1
  6
Continuous
100
AcDbCircle
 10
469.361786
 20
318.2882389999999
 30
0.0
 40
0.333392
100
AcDbArc
 50
270.0000039999998
 51
333.985995
  0
ARC
  5
9B77
330
98AA
100
AcDbEntity
  8
1
  6
Continuous
100
AcDbCircle
 10
466.4873049999997
 20
318.55484
 30
0.0
 40
0.066678
100
AcDbArc
 50
90.00000300000001
 51
202.9440039999998
  0
ARC
  5
9B78
330
98AA
100
AcDbEntity
  8
1
  6
Continuous
100
AcDbCircle
 10
473.7316589999998
 20
321.620117
 30
0.0
 40
7.932788
100
AcDbArc
 50
202.944007
 51
206.014396
  0
ARC
  5
9B79
330
98AA
100
AcDbEntity
  8
1
  6
Continuous
100
AcDbCircle
 10
466.9028019999998
 20
318.2882389999999
 30
0.0
 40
0.333392
100
AcDbArc
 50
206.014396
 51
270.0000039999998
  0
ARC
  5
9B7A
330
98AA
100
AcDbEntity
  8
1
  6
Continuous
100
AcDbCircle
 10
468.131622
 20
317.6210329999999
 30
0.0
 40
1.717978999999998
100
AcDbArc
 50
270.0000039999998
 51
324.4620069999998
  0
ARC
  5
9B7B
330
98AA
100
AcDbEntity
  8
1
  6
Continuous
100
AcDbCircle
 10
468.131622
 20
317.6210329999999
 30
0.0
 40
1.717978999999998
100
AcDbArc
 50
215.5377009999999
 51
256.5374009999998
  0
ARC
  5
9B7C
330
98AA
100
AcDbEntity
  8
1
  6
Continuous
100
AcDbCircle
 10
462.5328979999999
 20
321.620117
 30
0.0
 40
7.932788
100
AcDbArc
 50
7.792996999999997
 51
10.103999
  0
ARC
  5
9B7D
330
98AA
100
AcDbEntity
  8
1
  6
Continuous
100
AcDbCircle
 10
470.3266909999999
 20
322.687897
 30
0.0
 40
0.066678
100
AcDbArc
 50
270.0000039999998
 51
7.793000999999998
  0
ARC
  5
9B7E
330
98AA
100
AcDbEntity
  8
1
  6
Continuous
100
AcDbCircle
 10
470.014099
 20
322.954498
 30
0.0
 40
0.333392
100
AcDbArc
 50
10.103999
 51
90.00000300000001
  0
ARC
  5
9B7F
330
98AA
100
AcDbEntity
  8
1
  6
Continuous
100
AcDbCircle
 10
465.9378659999998
 20
322.687897
 30
0.0
 40
0.066678
100
AcDbArc
 50
172.207005
 51
270.000001
  0
ARC
  5
9B80
330
98AA
100
AcDbEntity
  8
1
  6
Continuous
100
AcDbCircle
 10
473.7316589999998
 20
321.620117
 30
0.0
 40
7.932788
100
AcDbArc
 50
169.8959969999999
 51
172.207005
  0
ARC
  5
9B81
330
98AA
100
AcDbEntity
  8
1
  6
Continuous
100
AcDbCircle
 10
466.2504879999998
 20
322.954498
 30
0.0
 40
0.333392
100
AcDbArc
 50
90.00000300000001
 51
169.8959969999999
  0
ARC
  5
9B82
330
98AA
100
AcDbEntity
  8
1
  6
Continuous
100
AcDbCircle
 10
468.131622
 20
325.620544
 30
0.0
 40
1.717978999999998
100
AcDbArc
 50
35.53799999999999
 51
45.698999
  0
ARC
  5
9B83
330
98AA
100
AcDbEntity
  8
1
  6
Continuous
100
AcDbCircle
 10
468.131622
 20
325.620544
 30
0.0
 40
1.717978999999998
100
AcDbArc
 50
62.25000299999999
 51
144.461998
  0
ARC
  5
9B84
330
98AA
100
AcDbEntity
  8
1
  6
Continuous
100
AcDbCircle
 10
467.798676
 20
324.953369
 30
0.0
 40
0.333392
100
AcDbArc
 50
270.0000039999998
 51
90.00000300000001
  0
ARC
  5
9B85
330
98AA
100
AcDbEntity
  8
1
  6
Continuous
100
AcDbCircle
 10
473.7316589999998
 20
321.620117
 30
0.0
 40
8.599396
100
AcDbArc
 50
144.461998
 51
215.5376979999999
  0
ARC
  5
9B86
330
98AA
100
AcDbEntity
  8
1
  6
Continuous
100
AcDbCircle
 10
462.5328979999999
 20
321.620117
 30
0.0
 40
8.599396
100
AcDbArc
 50
324.461996
 51
35.53799999999999
  0
LWPOLYLINE
  5
9B87
330
98AA
100
AcDbEntity
  8
1
  6
Continuous
100
AcDbPolyline
 90
       17
 70
     0
 43
0.0
 10
468.8651689999998
 20
361.1705789999998
 10
468.8794989999998
 20
361.138237
 10
468.8952549999998
 20
361.1065579999998
 10
468.912481
 20
361.0756489999998
 10
468.9312249999998
 20
361.045631
 10
468.9515329999998
 20
361.0166439999999
 10
468.973449
 20
360.98885
 10
468.9970129999998
 20
360.962437
 42
0.016982
 10
469.0222519999998
 20
360.9376219999999
 42
0.018342
 10
469.0491769999998
 20
360.9146519999998
 42
0.019813
 10
469.0777709999998
 20
360.893803
 42
0.021358
 10
469.107975
 20
360.87538
 42
0.022913
 10
469.139683
 20
360.8597029999998
 42
0.025072
 10
469.1736469999998
 20
360.846795
 42
0.026715
 10
469.2091439999998
 20
360.837368
 42
0.027173
 10
469.2447569999997
 20
360.831923
 42
0.026975
 10
469.2798729999998
 20
360.8304019999998
  0
LWPOLYLINE
  5
9B9A
330
98AA
100
AcDbEntity
  8
1
  6
Continuous
100
AcDbPolyline
 90
       17
 70
     0
 43
0.0
 10
468.6364139999998
 20
362.363647
 42
0.005678
 10
468.6372809999999
 20
362.2872699999998
 42
0.005688
 10
468.6398839999998
 20
362.210933
 42
0.00571
 10
468.6442259999998
 20
362.1346759999998
 42
0.005742
 10
468.650313
 20
362.058539
 42
0.005786
 10
468.658153
 20
361.9825619999998
 42
0.005841
 10
468.667758
 20
361.906786
 42
0.005908
 10
468.67914
 20
361.831255
 42
0.005987
 10
468.692317
 20
361.756013
 42
0.00608
 10
468.7073049999998
 20
361.681107
 42
0.006186
 10
468.7241269999998
 20
361.6065879999999
 42
0.006307
 10
468.742806
 20
361.532508
 42
0.006443
 10
468.7633690000001
 20
361.4589229999999
 42
0.006596
 10
468.785845
 20
361.385895
 42
0.006767
 10
468.810266
 20
361.313488
 42
0.006957
 10
468.8366659999998
 20
361.241774
 42
0.007168
 10
468.865084
 20
361.1708279999998
  0
LWPOLYLINE
  5
9BAD
330
98AA
100
AcDbEntity
  8
1
  6
Continuous
100
AcDbPolyline
 90
       17
 70
     0
 43
0.0
 10
468.9738639999998
 20
363.4388529999998
 42
0.014771
 10
468.930978
 20
363.3818709999998
 42
0.013805
 10
468.89133
 20
363.3224059999998
 42
0.01295
 10
468.8548690000001
 20
363.260823
 42
0.011982
 10
468.822106
 20
363.198616
 42
0.011489
 10
468.791913
 20
363.134118
 42
0.011041
 10
468.764358
 20
363.067611
 42
0.010638
 10
468.7394929999999
 20
362.999376
 42
0.010276
 10
468.7173539999998
 20
362.9296969999999
 42
0.009954
 10
468.697961
 20
362.8588529999998
 42
0.009537
 10
468.681529
 20
362.7881089999998
 42
0.009165
 10
468.667939
 20
362.7177629999998
 42
0.009207
 10
468.6566469999998
 20
362.6450689999999
 42
0.009017
 10
468.6480399999998
 20
362.572264
 42
0.008854
 10
468.642072
 20
362.499594
 42
0.008718
 10
468.6386859999998
 20
362.4272919999999
 42
0.008699
 10
468.637817
 20
362.354804
  0
LWPOLYLINE
  5
9BC0
330
98AA
100
AcDbEntity
  8
1
  6
Continuous
100
AcDbPolyline
 90
       17
 70
     0
 43
0.0
 10
470.8136849999998
 20
361.293342
 42
0.028518
 10
470.8960829999998
 20
361.4095649999999
 42
0.025099
 10
470.9657879999999
 20
361.5342539999998
 42
0.02247
 10
471.0233739999998
 20
361.6650189999999
 42
0.020653
 10
471.069833
 20
361.801218
 42
0.019098
 10
471.105113
 20
361.939753
 42
0.018118
 10
471.1300099999998
 20
362.080538
 42
0.0175
 10
471.144838
 20
362.2227429999999
 42
0.017254
 10
471.14978
 20
362.366089
 42
0.017183
 10
471.144878
 20
362.5088519999998
 42
0.017481
 10
471.130109
 20
362.650933
 42
0.018103
 10
471.1052809999998
 20
362.791643
 42
0.01909
 10
471.0700639999997
 20
362.930185
 42
0.020514
 10
471.0239859999998
 20
363.0655909999999
 42
0.02248
 10
470.9664339999998
 20
363.196631
 42
0.025132
 10
470.8966709999998
 20
363.3216909999999
 42
0.028654
 10
470.813885
 20
363.4386039999998
  0
LWPOLYLINE
  5
9BD3
330
98AA
100
AcDbEntity
  8
1
  6
Continuous
100
AcDbPolyline
 90
       17
 70
     0
 43
0.0
 10
470.8141679999997
 20
363.438242
 42
0.020085
 10
470.725344
 20
363.540767
 42
0.022142
 10
470.6282009999998
 20
363.635437
 42
0.024472
 10
470.5226940000001
 20
363.7206449999998
 42
0.027016
 10
470.409027
 20
363.7945409999999
 42
0.029634
 10
470.287786
 20
363.855089
 42
0.032078
 10
470.16007
 20
363.9002249999998
 42
0.034013
 10
470.027571
 20
363.928106
 42
0.034767
 10
469.8937679999998
 20
363.9374389999999
 42
0.034889
 10
469.7594869999998
 20
363.928039
 42
0.033862
 10
469.627572
 20
363.900254
 42
0.031689
 10
469.5014289999998
 20
363.8558029999999
 42
0.029406
 10
469.381183
 20
363.7960719999999
 42
0.026907
 10
469.2680559999998
 20
363.7229779999998
 42
0.024438
 10
469.162769
 20
363.638484
 42
0.022033
 10
469.0661429999998
 20
363.544952
 42
0.01998
 10
468.977798
 20
363.44376
  0
LWPOLYLINE
  5
9BE6
330
98AA
100
AcDbEntity
  8
1
  6
Continuous
100
AcDbPolyline
 90
       17
 70
     0
 43
0.0
 10
470.1241179999998
 20
360.822551
 42
0.012858
 10
470.1746449999998
 20
360.8362089999998
 42
0.012575
 10
470.2244949999998
 20
360.8524449999999
 42
0.012255
 10
470.2735549999998
 20
360.871167
 42
0.011908
 10
470.321728
 20
360.8922689999998
 42
0.011541
 10
470.3689269999999
 20
360.9156399999998
 42
0.010996
 10
470.414394
 20
360.940766
 42
0.010487
 10
470.4582189999999
 20
360.9675029999999
 42
0.010151
 10
470.5010769999998
 20
360.996142
 42
0.009815
 10
470.542919
 20
361.026586
 42
0.009481
 10
470.5837
 20
361.058737
 42
0.009153
 10
470.623387
 20
361.0924959999999
 42
0.008833
 10
470.66195
 20
361.127766
 42
0.008522
 10
470.699368
 20
361.1644539999999
 42
0.008224
 10
470.735625
 20
361.202465
 42
0.007937
 10
470.770709
 20
361.241713
 42
0.007663
 10
470.804616
 20
361.282111
  0
LWPOLYLINE
  5
9BF9
330
98AA
100
AcDbEntity
  8
1
  6
Continuous
100
AcDbPolyline
 90
       17
 70
     0
 43
0.0
 10
469.0547989999998
 20
357.535522
 42
0.024647
 10
468.9686099999998
 20
357.397089
 42
0.021992
 10
468.8958099999998
 20
357.2515399999999
 42
0.020221
 10
468.834858
 20
357.0987109999999
 42
0.018563
 10
468.786271
 20
356.9427819999999
 42
0.017462
 10
468.749016
 20
356.783749
 42
0.01669
 10
468.7226859999998
 20
356.622535
 42
0.016199
 10
468.706998
 20
356.4599349999999
 42
0.015972
 10
468.701782
 20
356.296539
 42
0.015946
 10
468.7069819999998
 20
356.1334039999999
 42
0.016184
 10
468.7226349999998
 20
355.9709419999999
 42
0.016677
 10
468.7489179999998
 20
355.809825
 42
0.017455
 10
468.7861299999998
 20
355.650817
 42
0.018565
 10
468.834698
 20
355.49482
 42
0.020078
 10
468.8951799999999
 20
355.3429489999999
 42
0.022089
 10
468.968257
 20
355.196624
 42
0.024723
 10
469.054704
 20
355.0576939999999
  0
LWPOLYLINE
  5
9C0C
330
98AA
100
AcDbEntity
  8
1
  6
Continuous
100
AcDbPolyline
 90
       17
 70
     0
 43
0.0
 10
470.7967629999997
 20
355.0575569999999
 42
0.024647
 10
470.882953
 20
355.1959899999998
 42
0.021992
 10
470.9557519999998
 20
355.341539
 42
0.020221
 10
471.0167049999998
 20
355.494368
 42
0.018563
 10
471.065292
 20
355.650297
 42
0.017462
 10
471.102547
 20
355.8093289999998
 42
0.01669
 10
471.128876
 20
355.970544
 42
0.016199
 10
471.1445639999998
 20
356.133143
 42
0.015972
 10
471.14978
 20
356.296539
 42
0.015946
 10
471.1445809999998
 20
356.459674
 42
0.016184
 10
471.1289279999999
 20
356.622137
 42
0.016677
 10
471.102645
 20
356.783253
 42
0.017455
 10
471.0654329999998
 20
356.942262
 42
0.018565
 10
471.0168639999998
 20
357.0982589999999
 42
0.020078
 10
470.956382
 20
357.2501299999998
 42
0.022089
 10
470.8833059999998
 20
357.3964549999999
 42
0.024723
 10
470.796859
 20
357.535385
  0
LWPOLYLINE
  5
9C1F
330
98AA
100
AcDbEntity
  8
1
  6
Continuous
100
AcDbPolyline
 90
       17
 70
     0
 43
0.0
 10
470.796725
 20
357.535558
 42
0.020689
 10
470.7167779999998
 20
357.641191
 42
0.022965
 10
470.627933
 20
357.739463
 42
0.025634
 10
470.5299949999998
 20
357.8286489999999
 42
0.02866
 10
470.423009
 20
357.9066819999999
 42
0.031899
 10
470.307438
 20
357.9711939999999
 42
0.035046
 10
470.184359
 20
358.01967
 42
0.037624
 10
470.055624
 20
358.049774
 42
0.039084
 10
469.9238629999999
 20
358.059812
 42
0.038854
 10
469.792844
 20
358.0492889999999
 42
0.037223
 10
469.665418
 20
358.019108
 42
0.034615
 10
469.543817
 20
357.971049
 42
0.031644
 10
469.4291709999998
 20
357.907082
 42
0.028527
 10
469.322701
 20
357.8295819999998
 42
0.025421
 10
469.225592
 20
357.7414459999998
 42
0.022777
 10
469.1374889999998
 20
357.6444739999999
 42
0.020631
 10
469.057742
 20
357.5397469999999
  0
LWPOLYLINE
  5
9C32
330
98AA
100
AcDbEntity
  8
1
  6
Continuous
100
AcDbPolyline
 90
       17
 70
     0
 43
0.0
 10
469.054822
 20
355.057521
 42
0.020689
 10
469.134771
 20
354.9518889999998
 42
0.022965
 10
469.223617
 20
354.8536179999999
 42
0.025633
 10
469.3215569999998
 20
354.764433
 42
0.028658
 10
469.4285429999998
 20
354.6863999999998
 42
0.031897
 10
469.5441139999998
 20
354.621888
 42
0.035045
 10
469.667192
 20
354.5734109999998
 42
0.037623
 10
469.7959269999998
 20
354.5433059999999
 42
0.039085
 10
469.927691
 20
354.5332660000001
 42
0.038854
 10
470.0587099999999
 20
354.543789
 42
0.037224
 10
470.1861369999998
 20
354.573968
 42
0.034617
 10
470.3077369999999
 20
354.622027
 42
0.031645
 10
470.422384
 20
354.685994
 42
0.028528
 10
470.5288519999998
 20
354.7634949999999
 42
0.025421
 10
470.625961
 20
354.8516329999998
 42
0.022777
 10
470.714062
 20
354.948605
 42
0.020631
 10
470.7938069999998
 20
355.053334
  0
LWPOLYLINE
  5
9C45
330
98AA
100
AcDbEntity
  8
1
  6
Continuous
100
AcDbPolyline
 90
       17
 70
     0
 43
0.0
 10
467.5031940000001
 20
357.535522
 42
0.024647
 10
467.4170049999998
 20
357.397089
 42
0.021992
 10
467.344205
 20
357.2515399999999
 42
0.020221
 10
467.2832519999998
 20
357.0987109999999
 42
0.018563
 10
467.234666
 20
356.9427819999999
 42
0.017462
 10
467.1974109999998
 20
356.783749
 42
0.01669
 10
467.1710809999998
 20
356.622535
 42
0.016199
 10
467.1553929999998
 20
356.4599349999999
 42
0.015972
 10
467.1501769999998
 20
356.296539
 42
0.015946
 10
467.155376
 20
356.1334039999999
 42
0.016184
 10
467.1710299999999
 20
355.9709419999999
 42
0.016677
 10
467.197312
 20
355.809825
 42
0.017455
 10
467.234524
 20
355.650817
 42
0.018565
 10
467.2830929999998
 20
355.49482
 42
0.020078
 10
467.343575
 20
355.3429489999999
 42
0.022089
 10
467.4166519999998
 20
355.196624
 42
0.024723
 10
467.503099
 20
355.0576939999999
  0
LWPOLYLINE
  5
9C58
330
98AA
100
AcDbEntity
  8
1
  6
Continuous
100
AcDbPolyline
 90
       17
 70
     0
 43
0.0
 10
469.149889
 20
357.6594319999998
 42
0.021589
 10
469.0664449999998
 20
357.7493249999998
 42
0.023911
 10
468.9751959999998
 20
357.8312619999999
 42
0.026513
 10
468.8761949999998
 20
357.903585
 42
0.029288
 10
468.769799
 20
357.9644129999999
 42
0.032018
 10
468.656817
 20
358.011748
 42
0.034363
 10
468.538616
 20
358.0436839999999
 42
0.036051
 10
468.416698
 20
358.05874
 42
0.036122
 10
468.295113
 20
358.056098
 42
0.035398
 10
468.174941
 20
358.036088
 42
0.033299
 10
468.059645
 20
358.0001009999999
 42
0.030983
 10
467.9494639999998
 20
357.949412
 42
0.028348
 10
467.8457
 20
357.8858179999999
 42
0.025694
 10
467.749151
 20
357.811217
 42
0.023085
 10
467.660679
 20
357.727912
 42
0.020858
 10
467.5799429999998
 20
357.637272
 42
0.019038
 10
467.5063709999998
 20
357.540081
  0
LWPOLYLINE
  5
9C6B
330
98AA
100
AcDbEntity
  8
1
  6
Continuous
100
AcDbPolyline
 90
       17
 70
     0
 43
0.0
 10
467.503217
 20
355.057521
 42
0.019081
 10
467.5769299999998
 20
354.9594949999999
 42
0.021006
 10
467.6582519999998
 20
354.8676759999998
 42
0.023244
 10
467.747356
 20
354.7834029999998
 42
0.025776
 10
467.8442519999999
 20
354.708265
 42
0.02852
 10
467.9486779999998
 20
354.644088
 42
0.031291
 10
468.0599649999998
 20
354.5928539999999
 42
0.033781
 10
468.1769059999998
 20
354.5565219999998
 42
0.035836
 10
468.2985279999998
 20
354.536666
 42
0.036314
 10
468.4207519999998
 20
354.5345529999999
 42
0.035708
 10
468.5415469999998
 20
354.549977
 42
0.033823
 10
468.657936
 20
354.5817169999998
 42
0.031656
 10
468.769653
 20
354.628593
 42
0.029074
 10
468.8752519999998
 20
354.688881
 42
0.026401
 10
468.9738059999998
 20
354.760687
 42
0.023711
 10
469.064271
 20
354.841614
 42
0.0214
 10
469.146965
 20
354.930226
  0
TEXT
  5
9C7E
330
98AA
100
AcDbEntity
  8
6
  6
Continuous
100
AcDbText
 10
27.97945
 20
10.0487
 30
0.0
 40
1.399999999999999
  1
6
 41
1.069393
100
AcDbText
  0
TEXT
  5
9C7F
330
98AA
100
AcDbEntity
  8
1
  6
Continuous
100
AcDbText
 10
17.97945
 20
10.0487
 30
0.0
 40
1.399999999999999
  1
1
 41
1.069393
100
AcDbText
  0
TEXT
  5
9C80
330
98AA
100
AcDbEntity
  8
1
  6
Continuous
100
AcDbText
 10
9.99995
 20
10.0
 30
0.0
 40
1.399999999999999
  1
LAYER
 41
1.009912999999997
100
AcDbText
  0
TEXT
  5
9C81
330
98AA
100
AcDbEntity
  8
2
  6
Continuous
100
AcDbText
 10
19.97944999999998
 20
10.0487
 30
0.0
 40
1.399999999999999
  1
2
 41
1.069393
100
AcDbText
  0
TEXT
  5
9C82
330
98AA
100
AcDbEntity
  8
3
  6
DASHED
100
AcDbText
 10
21.97945
 20
10.0487
 30
0.0
 40
1.399999999999999
  1
3
 41
1.069393
100
AcDbText
  0
TEXT
  5
9C83
330
98AA
100
AcDbEntity
  8
4
  6
CENTER
100
AcDbText
 10
23.97944999999999
 20
10.0487
 30
0.0
 40
1.399999999999999
  1
4
 41
1.069393
100
AcDbText
  0
TEXT
  5
9C84
330
98AA
100
AcDbEntity
  8
5
  6
PHANTOM
100
AcDbText
 10
25.97945
 20
10.0487
 30
0.0
 40
1.399999999999999
  1
5
 41
1.069393
100
AcDbText
  0
TEXT
  5
9C85
330
98AA
100
AcDbEntity
  8
7
  6
Continuous
100
AcDbText
 10
10.00005
 20
26.0
 30
0.0
 40
3.0
  1
CODE No.5131
 41
1.003962999999999
100
AcDbText
  0
TEXT
  5
9C86
330
98AA
100
AcDbEntity
  8
7
  6
Continuous
100
AcDbText
 10
10.00005
 20
18.0
 30
0.0
 40
3.0
  1
TYPE No.TM-85-R
 41
1.003152
100
AcDbText
  0
TEXT
  5
9C87
330
98AA
100
AcDbEntity
  8
7
  6
Continuous
100
AcDbText
 10
29.97944999999999
 20
10.0487
 30
0.0
 40
1.399999999999999
  1
7
 41
1.069393
100
AcDbText
  0
LWPOLYLINE
  5
9C88
330
98AA
100
AcDbEntity
  8
1
  6
Continuous
100
AcDbPolyline
 90
        2
 70
     1
 43
0.375
 10
474.069122
 20
332.93866
 42
1.0
 10
474.4441219999997
 20
332.93866
 42
1.0
  0
LINE
  5
9C8C
330
98AA
100
AcDbEntity
  8
1
  6
Continuous
100
AcDbLine
 10
198.1585689999998
 20
184.87361
 30
0.0
 11
198.1585689999998
 21
166.87361
 31
0.0
  0
LINE
  5
9C8D
330
98AA
100
AcDbEntity
  8
1
  6
Continuous
100
AcDbLine
 10
200.158569
 20
184.87361
 30
0.0
 11
198.1585689999998
 21
184.87361
 31
0.0
  0
LINE
  5
9C8E
330
98AA
100
AcDbEntity
  8
1
  6
Continuous
100
AcDbLine
 10
200.158569
 20
166.87361
 30
0.0
 11
198.1585689999998
 21
166.87361
 31
0.0
  0
LINE
  5
9C8F
330
98AA
100
AcDbEntity
  8
1
  6
Continuous
100
AcDbLine
 10
200.158569
 20
184.87361
 30
0.0
 11
200.158569
 21
166.87361
 31
0.0
  0
LINE
  5
9C90
330
98AA
100
AcDbEntity
  8
1
  6
Continuous
100
AcDbLine
 10
198.1585689999998
 20
50.200005
 30
0.0
 11
198.1585689999998
 21
68.199997
 31
0.0
  0
LINE
  5
9C91
330
98AA
100
AcDbEntity
  8
1
  6
Continuous
100
AcDbLine
 10
200.158569
 20
50.200005
 30
0.0
 11
200.158569
 21
68.199997
 31
0.0
  0
LINE
  5
9C92
330
98AA
100
AcDbEntity
  8
1
  6
Continuous
100
AcDbLine
 10
200.158569
 20
68.199997
 30
0.0
 11
198.1585689999998
 21
68.199997
 31
0.0
  0
LINE
  5
9C93
330
98AA
100
AcDbEntity
  8
1
  6
Continuous
100
AcDbLine
 10
200.158569
 20
50.200005
 30
0.0
 11
198.1585689999998
 21
50.200005
 31
0.0
  0
LINE
  5
9C94
330
98AA
100
AcDbEntity
  8
1
  6
Continuous
100
AcDbLine
 10
726.304626
 20
184.87361
 30
0.0
 11
726.304626
 21
166.87361
 31
0.0
  0
LINE
  5
9C95
330
98AA
100
AcDbEntity
  8
1
  6
Continuous
100
AcDbLine
 10
728.3046259999996
 20
184.87361
 30
0.0
 11
728.3046259999996
 21
166.87361
 31
0.0
  0
LINE
  5
9C96
330
98AA
100
AcDbEntity
  8
1
  6
Continuous
100
AcDbLine
 10
726.304626
 20
184.87361
 30
0.0
 11
728.3046259999996
 21
184.87361
 31
0.0
  0
LINE
  5
9C97
330
98AA
100
AcDbEntity
  8
1
  6
Continuous
100
AcDbLine
 10
726.304626
 20
166.87361
 30
0.0
 11
728.3046259999996
 21
166.87361
 31
0.0
  0
ENDSEC
  0
SECTION
  2
OBJECTS
  0
DICTIONARY
  5
9898
330
0
100
AcDbDictionary
281
     1
  3
ACAD_CIP_PREVIOUS_PRODUCT_INFO
350
9CFD
  3
ACAD_COLOR
350
9CDF
  3
ACAD_DETAILVIEWSTYLE
350
9CF8
  3
ACAD_GROUP
350
9899
  3
ACAD_LAYOUT
350
98A5
  3
ACAD_MATERIAL
350
9CAD
  3
ACAD_MLEADERSTYLE
350
9CF4
  3
ACAD_MLINESTYLE
350
98A2
  3
ACAD_PLOTSETTINGS
350
98A4
  3
ACAD_PLOTSTYLENAME
350
9CAB
  3
ACAD_SCALELIST
350
9CE2
  3
ACAD_SECTIONVIEWSTYLE
350
9CF6
  3
ACAD_TABLESTYLE
350
9CE0
  3
ACAD_VISUALSTYLE
350
9CC6
  3
ACDB_RECOMPOSE_DATA
350
9D1B
  3
AcDbVariableDictionary
350
9D0E
  3
DWGPROPS
350
9D1C
  0
DICTIONARY
  5
9CFE
330
989C
100
AcDbDictionary
280
     1
281
     1
  3
ADSK_XREC_LAYER_RECONCILED
360
9CFF
  0
DICTIONARY
  5
9D00
330
98B2
100
AcDbDictionary
280
     1
281
     1
  3
ADSK_XREC_LAYER_RECONCILED
360
9D01
  0
DICTIONARY
  5
9D02
330
98B3
100
AcDbDictionary
280
     1
281
     1
  3
ADSK_XREC_LAYER_RECONCILED
360
9D03
  0
DICTIONARY
  5
9D04
330
98B4
100
AcDbDictionary
280
     1
281
     1
  3
ADSK_XREC_LAYER_RECONCILED
360
9D05
  0
DICTIONARY
  5
9D06
330
98B5
100
AcDbDictionary
280
     1
281
     1
  3
ADSK_XREC_LAYER_RECONCILED
360
9D07
  0
DICTIONARY
  5
9D08
330
98B6
100
AcDbDictionary
280
     1
281
     1
  3
ADSK_XREC_LAYER_RECONCILED
360
9D09
  0
DICTIONARY
  5
9D0A
330
98B7
100
AcDbDictionary
280
     1
281
     1
  3
ADSK_XREC_LAYER_RECONCILED
360
9D0B
  0
DICTIONARY
  5
9D0C
330
98B8
100
AcDbDictionary
280
     1
281
     1
  3
ADSK_XREC_LAYER_RECONCILED
360
9D0D
  0
DICTIONARY
  5
9CA6
330
98AA
100
AcDbDictionary
281
     1
  3
ACAD_LAYOUTSELFREF
350
9CA7
  0
DICTIONARY
  5
9CA4
330
98A6
100
AcDbDictionary
281
     1
  3
ACAD_LAYOUTSELFREF
350
9CA5
  0
XRECORD
  5
9CFD
102
{ACAD_REACTORS
330
9898
102
}
330
9898
100
AcDbXrecord
280
     1
300
ACDLT
300
2014
300
ACDLT_F_S
  0
DICTIONARY
  5
9CDF
102
{ACAD_REACTORS
330
9898
102
}
330
9898
100
AcDbDictionary
281
     1
  0
DICTIONARY
  5
9CF8
102
{ACAD_REACTORS
330
9898
102
}
330
9898
100
AcDbDictionary
281
     1
  3
Imperial24
350
9CF9
  0
DICTIONARY
  5
9899
102
{ACAD_REACTORS
330
9898
102
}
330
9898
100
AcDbDictionary
281
     1
  0
DICTIONARY
  5
98A5
102
{ACAD_REACTORS
330
9898
102
}
330
9898
100
AcDbDictionary
281
     1
  3
Model
350
9CFA
  3
レイアウト1
350
9CFB
  0
DICTIONARY
  5
9CAD
102
{ACAD_REACTORS
330
9898
102
}
330
9898
100
AcDbDictionary
281
     1
  3
ByBlock
350
9CB6
  3
ByLayer
350
9CAE
  3
Global
350
9CBE
  0
DICTIONARY
  5
9CF4
102
{ACAD_REACTORS
330
9898
102
}
330
9898
100
AcDbDictionary
281
     1
  3
Standard
350
9CF5
  0
DICTIONARY
  5
98A2
102
{ACAD_REACTORS
330
9898
102
}
330
9898
100
AcDbDictionary
281
     1
  3
STANDARD
350
98A3
  0
DICTIONARY
  5
98A4
102
{ACAD_REACTORS
330
9898
102
}
330
9898
100
AcDbDictionary
281
     1
  0
ACDBDICTIONARYWDFLT
  5
9CAB
102
{ACAD_REACTORS
330
9898
102
}
330
9898
100
AcDbDictionary
281
     1
  3
Normal
350
9CAC
100
AcDbDictionaryWithDefault
340
9CAC
  0
DICTIONARY
  5
9CE2
102
{ACAD_REACTORS
330
9898
102
}
330
9898
100
AcDbDictionary
281
     1
  3
A0
350
9CE3
  3
A1
350
9CE4
  3
A2
350
9CE5
  3
A3
350
9CE6
  3
A4
350
9CE7
  3
A5
350
9CE8
  3
A6
350
9CE9
  3
A7
350
9CEA
  3
A8
350
9CEB
  3
A9
350
9CEC
  3
B0
350
9CED
  3
B1
350
9CEE
  3
B2
350
9CEF
  3
B3
350
9CF0
  3
B4
350
9CF1
  3
B5
350
9CF2
  3
B6
350
9CF3
  0
DICTIONARY
  5
9CF6
102
{ACAD_REACTORS
330
9898
102
}
330
9898
100
AcDbDictionary
281
     1
  3
Imperial24
350
9CF7
  0
DICTIONARY
  5
9CE0
102
{ACAD_REACTORS
330
9898
102
}
330
9898
100
AcDbDictionary
281
     1
  3
Standard
350
9CE1
  0
DICTIONARY
  5
9CC6
102
{ACAD_REACTORS
330
9898
102
}
330
9898
100
AcDbDictionary
281
     1
  3
2dWireframe
350
9CCC
  3
Basic
350
9CCB
  3
Brighten
350
9CD2
  3
ColorChange
350
9CD6
  3
Conceptual
350
9CCF
  3
Dim
350
9CD1
  3
EdgeColorOff
350
9CDE
  3
Facepattern
350
9CD5
  3
Flat
350
9CC7
  3
FlatWithEdges
350
9CC8
  3
Gouraud
350
9CC9
  3
GouraudWithEdges
350
9CCA
  3
Hidden
350
9CCE
  3
JitterOff
350
9CDC
  3
Linepattern
350
9CD4
  3
OverhangOff
350
9CDD
  3
Realistic
350
9CD0
  3
Shaded
350
9CDB
  3
Shaded with edges
350
9CDA
  3
Shades of Gray
350
9CD7
  3
Sketchy
350
9CD8
  3
Thicken
350
9CD3
  3
Wireframe
350
9CCD
  3
X-Ray
350
9CD9
  0
XRECORD
  5
9D1B
102
{ACAD_REACTORS
330
9898
102
}
330
9898
100
AcDbXrecord
280
     1
 90
        1
330
9CE1
  0
DICTIONARY
  5
9D0E
102
{ACAD_REACTORS
330
9898
102
}
330
9898
100
AcDbDictionary
281
     1
  3
CANNOSCALE
350
9D13
  3
CMLEADERSTYLE
350
9D10
  3
CTABLESTYLE
350
9D0F
  3
CVIEWDETAILSTYLE
350
9D11
  3
CVIEWSECTIONSTYLE
350
9D12
  3
DIMASSOC
350
9D16
  3
INDEXCTL
350
9D15
  3
SORTENTS
350
9D14
  3
XCLIPFRAME
350
9D17
  0
XRECORD
  5
9D1C
102
{ACAD_REACTORS
330
9898
102
}
330
9898
100
AcDbXrecord
280
     1
  1
DWGPROPS COOKIE
  2

  3

  4

  6

  7

  8
Yoshitsune
  9

300
=
301
=
302
=
303
=
304
=
305
=
306
=
307
=
308
=
309
=
 40
0.0000178819444444
 41
2451065.511194213
 42
2457192.622884075
  1

 90
        0
  0
XRECORD
  5
9CFF
102
{ACAD_REACTORS
330
9CFE
102
}
330
9CFE
100
AcDbXrecord
280
     1
290
     1
  0
XRECORD
  5
9D01
102
{ACAD_REACTORS
330
9D00
102
}
330
9D00
100
AcDbXrecord
280
     1
290
     1
  0
XRECORD
  5
9D03
102
{ACAD_REACTORS
330
9D02
102
}
330
9D02
100
AcDbXrecord
280
     1
290
     1
  0
XRECORD
  5
9D05
102
{ACAD_REACTORS
330
9D04
102
}
330
9D04
100
AcDbXrecord
280
     1
290
     1
  0
XRECORD
  5
9D07
102
{ACAD_REACTORS
330
9D06
102
}
330
9D06
100
AcDbXrecord
280
     1
290
     1
  0
XRECORD
  5
9D09
102
{ACAD_REACTORS
330
9D08
102
}
330
9D08
100
AcDbXrecord
280
     1
290
     1
  0
XRECORD
  5
9D0B
102
{ACAD_REACTORS
330
9D0A
102
}
330
9D0A
100
AcDbXrecord
280
     1
290
     1
  0
XRECORD
  5
9D0D
102
{ACAD_REACTORS
330
9D0C
102
}
330
9D0C
100
AcDbXrecord
280
     1
290
     1
  0
XRECORD
  5
9CA7
102
{ACAD_REACTORS
330
9CA6
102
}
330
9CA6
100
AcDbXrecord
280
     1
340
98AA
  0
XRECORD
  5
9CA5
102
{ACAD_REACTORS
330
9CA4
102
}
330
9CA4
100
AcDbXrecord
280
     1
340
98A6
  0
ACDBDETAILVIEWSTYLE
  5
9CF9
102
{ACAD_XDICTIONARY
360
9D54
102
}
102
{ACAD_REACTORS
330
9CF8
102
}
330
9CF8
100
AcDbModelDocViewStyle
 70
     0
  3
Imperial24
290
     0
100
AcDbDetailViewStyle
 70
     0
 71
     0
 90
        3
 71
     1
340
989D
 40
0.24
340
0
 40
0.24
300

 40
0.36
280
     3
 71
     2
340
98A1
 90
       25
 71
     3
340
989D
 40
0.24
 90
        1
 40
0.75
 90
        1
300
%<\AcVar ViewType \f "%tc1">% %<\AcVar ViewDetailId>%\PSCALE %<\AcVar ViewScale \f "%sn">%
 71
     4
340
98A1
 90
       25
340
98A1
 90
       25
280
     0
  0
LAYOUT
  5
9CFA
102
{ACAD_XDICTIONARY
360
9D56
102
}
102
{ACAD_REACTORS
330
98A5
102
}
330
98A5
100
AcDbPlotSettings
  1

  2
Canon LBP9100C
  4

  6

 40
0.0
 41
0.0
 42
0.0
 43
0.0
 44
0.0
 45
0.0
 46
0.0
 47
0.0
 48
0.0
 49
0.0
140
0.0
141
0.0
142
1.0
143
1.0
 70
  1712
 72
     0
 73
     0
 74
     0
  7

 75
     0
147
1.0
148
0.0
149
0.0
100
AcDbLayout
  1
Model
 70
     1
 71
     0
 10
0.0
 20
0.0
 11
12.0
 21
9.0
 12
0.0
 22
0.0
 32
0.0
 14
0.0
 24
0.0
 34
0.0
 15
0.0
 25
0.0
 35
0.0
146
0.0
 13
0.0
 23
0.0
 33
0.0
 16
1.0
 26
0.0
 36
0.0
 17
0.0
 27
1.0
 37
0.0
 76
     0
330
98AA
331
9CA3
  0
LAYOUT
  5
9CFB
102
{ACAD_XDICTIONARY
360
9D58
102
}
102
{ACAD_REACTORS
330
98A5
102
}
330
98A5
100
AcDbPlotSettings
  1

  2
Canon LBP9100C
  4

  6

 40
0.0
 41
0.0
 42
0.0
 43
0.0
 44
0.0
 45
0.0
 46
0.0
 47
0.0
 48
0.0
 49
0.0
140
0.0
141
0.0
142
1.0
143
1.0
 70
   688
 72
     0
 73
     0
 74
     5
  7

 75
    16
147
1.0
148
0.0
149
0.0
100
AcDbLayout
  1
レイアウト1
 70
     0
 71
     1
 10
0.0
 20
0.0
 11
420.0
 21
297.0
 12
0.0
 22
0.0
 32
0.0
 14
1.000000000000000E+20
 24
1.000000000000000E+20
 34
1.000000000000000E+20
 15
-1.000000000000000E+20
 25
-1.000000000000000E+20
 35
-1.000000000000000E+20
146
0.0
 13
0.0
 23
0.0
 33
0.0
 16
1.0
 26
0.0
 36
0.0
 17
0.0
 27
1.0
 37
0.0
 76
     0
330
98A6
  0
MATERIAL
  5
9CB6
102
{ACAD_XDICTIONARY
360
9CB7
102
}
102
{ACAD_REACTORS
330
9CAD
102
}
330
9CAD
100
AcDbMaterial
  1
ByBlock
 72
     0
 43
0.0208333333333333
 43
0.0
 43
0.0
 43
0.0
 43
0.0
 43
0.0208333333333333
 43
0.0
 43
0.0
 43
0.0
 43
0.0
 43
1.0
 43
0.0
 43
0.0
 43
0.0
 43
0.0
 43
1.0
 77
     0
 47
0.0208333333333333
 47
0.0
 47
0.0
 47
0.0
 47
0.0
 47
0.0208333333333333
 47
0.0
 47
0.0
 47
0.0
 47
0.0
 47
1.0
 47
0.0
 47
0.0
 47
0.0
 47
0.0
 47
1.0
171
     0
 49
0.0208333333333333
 49
0.0
 49
0.0
 49
0.0
 49
0.0
 49
0.0208333333333333
 49
0.0
 49
0.0
 49
0.0
 49
0.0
 49
1.0
 49
0.0
 49
0.0
 49
0.0
 49
0.0
 49
1.0
175
     0
142
0.0208333333333333
142
0.0
142
0.0
142
0.0
142
0.0
142
0.0208333333333333
142
0.0
142
0.0
142
0.0
142
0.0
142
1.0
142
0.0
142
0.0
142
0.0
142
0.0
142
1.0
179
     0
144
0.0208333333333333
144
0.0
144
0.0
144
0.0
144
0.0
144
0.0208333333333333
144
0.0
144
0.0
144
0.0
144
0.0
144
1.0
144
0.0
144
0.0
144
0.0
144
0.0
144
1.0
147
0.0208333333333333
147
0.0
147
0.0
147
0.0
147
0.0
147
0.0208333333333333
147
0.0
147
0.0
147
0.0
147
0.0
147
1.0
147
0.0
147
0.0
147
0.0
147
0.0
147
1.0
  0
MATERIAL
  5
9CAE
102
{ACAD_XDICTIONARY
360
9CAF
102
}
102
{ACAD_REACTORS
330
9CAD
102
}
330
9CAD
100
AcDbMaterial
  1
ByLayer
 72
     0
 43
0.0208333333333333
 43
0.0
 43
0.0
 43
0.0
 43
0.0
 43
0.0208333333333333
 43
0.0
 43
0.0
 43
0.0
 43
0.0
 43
1.0
 43
0.0
 43
0.0
 43
0.0
 43
0.0
 43
1.0
 77
     0
 47
0.0208333333333333
 47
0.0
 47
0.0
 47
0.0
 47
0.0
 47
0.0208333333333333
 47
0.0
 47
0.0
 47
0.0
 47
0.0
 47
1.0
 47
0.0
 47
0.0
 47
0.0
 47
0.0
 47
1.0
171
     0
 49
0.0208333333333333
 49
0.0
 49
0.0
 49
0.0
 49
0.0
 49
0.0208333333333333
 49
0.0
 49
0.0
 49
0.0
 49
0.0
 49
1.0
 49
0.0
 49
0.0
 49
0.0
 49
0.0
 49
1.0
175
     0
142
0.0208333333333333
142
0.0
142
0.0
142
0.0
142
0.0
142
0.0208333333333333
142
0.0
142
0.0
142
0.0
142
0.0
142
1.0
142
0.0
142
0.0
142
0.0
142
0.0
142
1.0
179
     0
144
0.0208333333333333
144
0.0
144
0.0
144
0.0
144
0.0
144
0.0208333333333333
144
0.0
144
0.0
144
0.0
144
0.0
144
1.0
144
0.0
144
0.0
144
0.0
144
0.0
144
1.0
147
0.0208333333333333
147
0.0
147
0.0
147
0.0
147
0.0
147
0.0208333333333333
147
0.0
147
0.0
147
0.0
147
0.0
147
1.0
147
0.0
147
0.0
147
0.0
147
0.0
147
1.0
  0
MATERIAL
  5
9CBE
102
{ACAD_XDICTIONARY
360
9CBF
102
}
102
{ACAD_REACTORS
330
9CAD
102
}
330
9CAD
100
AcDbMaterial
  1
Global
 72
     0
 43
0.0208333333333333
 43
0.0
 43
0.0
 43
0.0
 43
0.0
 43
0.0208333333333333
 43
0.0
 43
0.0
 43
0.0
 43
0.0
 43
1.0
 43
0.0
 43
0.0
 43
0.0
 43
0.0
 43
1.0
 77
     0
 47
0.0208333333333333
 47
0.0
 47
0.0
 47
0.0
 47
0.0
 47
0.0208333333333333
 47
0.0
 47
0.0
 47
0.0
 47
0.0
 47
1.0
 47
0.0
 47
0.0
 47
0.0
 47
0.0
 47
1.0
171
     0
 49
0.0208333333333333
 49
0.0
 49
0.0
 49
0.0
 49
0.0
 49
0.0208333333333333
 49
0.0
 49
0.0
 49
0.0
 49
0.0
 49
1.0
 49
0.0
 49
0.0
 49
0.0
 49
0.0
 49
1.0
175
     0
142
0.0208333333333333
142
0.0
142
0.0
142
0.0
142
0.0
142
0.0208333333333333
142
0.0
142
0.0
142
0.0
142
0.0
142
1.0
142
0.0
142
0.0
142
0.0
142
0.0
142
1.0
179
     0
144
0.0208333333333333
144
0.0
144
0.0
144
0.0
144
0.0
144
0.0208333333333333
144
0.0
144
0.0
144
0.0
144
0.0
144
1.0
144
0.0
144
0.0
144
0.0
144
0.0
144
1.0
147
0.0208333333333333
147
0.0
147
0.0
147
0.0
147
0.0
147
0.0208333333333333
147
0.0
147
0.0
147
0.0
147
0.0
147
1.0
147
0.0
147
0.0
147
0.0
147
0.0
147
1.0
  0
MLEADERSTYLE
  5
9CF5
102
{ACAD_REACTORS
330
9CF4
102
}
330
9CF4
100
AcDbMLeaderStyle
170
     2
171
     1
172
     0
 90
        2
 40
0.0
 41
0.0
173
     1
 91
-1056964608
340
989F
 92
       -2
290
     1
 42
0.09
291
     1
 43
0.36
  3
Standard
 44
0.18
300

342
989D
174
     1
178
     6
175
     1
176
     0
 93
-1056964608
 45
0.18
292
     0
297
     0
 46
0.18
 94
-1056964608
 47
1.0
 49
1.0
140
1.0
293
     1
141
0.0
294
     1
177
     0
142
1.0
295
     0
296
     0
143
0.125
1001
ACAD_MLEADERVER
1070
     2
  0
MLINESTYLE
  5
98A3
102
{ACAD_REACTORS
330
98A2
102
}
330
98A2
100
AcDbMlineStyle
  2
STANDARD
 70
     0
  3

 62
   256
 51
90.0
 52
90.0
 71
     2
 49
0.5
 62
   256
  6
BYLAYER
 49
-0.5
 62
   256
  6
BYLAYER
  0
ACDBPLACEHOLDER
  5
9CAC
102
{ACAD_REACTORS
330
9CAB
102
}
330
9CAB
  0
SCALE
  5
9CE3
102
{ACAD_REACTORS
330
9CE2
102
}
330
9CE2
100
AcDbScale
 70
     0
300
1:1
140
1.0
141
1.0
290
     1
  0
SCALE
  5
9CE4
102
{ACAD_REACTORS
330
9CE2
102
}
330
9CE2
100
AcDbScale
 70
     0
300
1/128" = 1'-0"
140
0.0078125
141
12.0
290
     0
  0
SCALE
  5
9CE5
102
{ACAD_REACTORS
330
9CE2
102
}
330
9CE2
100
AcDbScale
 70
     0
300
1/64" = 1'-0"
140
0.015625
141
12.0
290
     0
  0
SCALE
  5
9CE6
102
{ACAD_REACTORS
330
9CE2
102
}
330
9CE2
100
AcDbScale
 70
     0
300
1/32" = 1'-0"
140
0.03125
141
12.0
290
     0
  0
SCALE
  5
9CE7
102
{ACAD_REACTORS
330
9CE2
102
}
330
9CE2
100
AcDbScale
 70
     0
300
1/16" = 1'-0"
140
0.0625
141
12.0
290
     0
  0
SCALE
  5
9CE8
102
{ACAD_REACTORS
330
9CE2
102
}
330
9CE2
100
AcDbScale
 70
     0
300
3/32" = 1'-0"
140
0.09375
141
12.0
290
     0
  0
SCALE
  5
9CE9
102
{ACAD_REACTORS
330
9CE2
102
}
330
9CE2
100
AcDbScale
 70
     0
300
1/8" = 1'-0"
140
0.125
141
12.0
290
     0
  0
SCALE
  5
9CEA
102
{ACAD_REACTORS
330
9CE2
102
}
330
9CE2
100
AcDbScale
 70
     0
300
3/16" = 1'-0"
140
0.1875
141
12.0
290
     0
  0
SCALE
  5
9CEB
102
{ACAD_REACTORS
330
9CE2
102
}
330
9CE2
100
AcDbScale
 70
     0
300
1/4" = 1'-0"
140
0.25
141
12.0
290
     0
  0
SCALE
  5
9CEC
102
{ACAD_REACTORS
330
9CE2
102
}
330
9CE2
100
AcDbScale
 70
     0
300
3/8" = 1'-0"
140
0.375
141
12.0
290
     0
  0
SCALE
  5
9CED
102
{ACAD_REACTORS
330
9CE2
102
}
330
9CE2
100
AcDbScale
 70
     0
300
1/2" = 1'-0"
140
0.5
141
12.0
290
     0
  0
SCALE
  5
9CEE
102
{ACAD_REACTORS
330
9CE2
102
}
330
9CE2
100
AcDbScale
 70
     0
300
3/4" = 1'-0"
140
0.75
141
12.0
290
     0
  0
SCALE
  5
9CEF
102
{ACAD_REACTORS
330
9CE2
102
}
330
9CE2
100
AcDbScale
 70
     0
300
1" = 1'-0"
140
1.0
141
12.0
290
     0
  0
SCALE
  5
9CF0
102
{ACAD_REACTORS
330
9CE2
102
}
330
9CE2
100
AcDbScale
 70
     0
300
1-1/2" = 1'-0"
140
1.5
141
12.0
290
     0
  0
SCALE
  5
9CF1
102
{ACAD_REACTORS
330
9CE2
102
}
330
9CE2
100
AcDbScale
 70
     0
300
3" = 1'-0"
140
3.0
141
12.0
290
     0
  0
SCALE
  5
9CF2
102
{ACAD_REACTORS
330
9CE2
102
}
330
9CE2
100
AcDbScale
 70
     0
300
6" = 1'-0"
140
6.0
141
12.0
290
     0
  0
SCALE
  5
9CF3
102
{ACAD_REACTORS
330
9CE2
102
}
330
9CE2
100
AcDbScale
 70
     0
300
1'-0" = 1'-0"
140
12.0
141
12.0
290
     0
  0
ACDBSECTIONVIEWSTYLE
  5
9CF7
102
{ACAD_XDICTIONARY
360
9D52
102
}
102
{ACAD_REACTORS
330
9CF6
102
}
330
9CF6
100
AcDbModelDocViewStyle
 70
     0
  3
Imperial24
290
     0
100
AcDbSectionViewStyle
 70
     0
 71
     0
 90
       78
 71
     1
340
989D
 40
0.24
340
0
340
0
 40
0.24
300
I, O, Q, S, X, Z
 40
0.48
 90
        3
 40
0.18
 90
        1
 71
     2
340
98A1
 90
       25
340
98A1
 90
       50
 40
0.24
 40
0.0
 40
0.24
 71
     3
340
989D
 40
0.24
 90
        1
 40
0.75
 90
        1
300
%<\AcVar ViewType \f "%tc1">% %<\AcVar ViewSectionStartId>%-%<\AcVar ViewSectionEndId>%\PSCALE %<\AcVar ViewScale \f "%sn">%
 71
     4
300
ANSI31
 40
1.0
 90
        0
290
     0
290
     0
 90
        6
 40
0.0
 40
1.570796326794896
 40
0.2617993877991494
 40
1.308996938995747
 40
-0.2617993877991494
 40
1.832595714594046
  0
TABLESTYLE
  5
9CE1
102
{ACAD_XDICTIONARY
360
9D19
102
}
102
{ACAD_REACTORS
330
9CE0
102
}
330
9CE0
100
AcDbTableStyle
  3
Standard
 70
     0
 71
     0
 40
0.06
 41
0.06
280
     0
281
     0
  7
STANDARD
140
0.18
170
     2
 62
     0
 63
     7
283
     0
274
    -2
284
     1
 64
     0
275
    -2
285
     1
 65
     0
276
    -2
286
     1
 66
     0
277
    -2
287
     1
 67
     0
278
    -2
288
     1
 68
     0
279
    -2
289
     1
 69
     0
  7
STANDARD
140
0.25
170
     5
 62
     0
 63
     7
283
     0
274
    -2
284
     1
 64
     0
275
    -2
285
     1
 65
     0
276
    -2
286
     1
 66
     0
277
    -2
287
     1
 67
     0
278
    -2
288
     1
 68
     0
279
    -2
289
     1
 69
     0
  7
STANDARD
140
0.18
170
     5
 62
     0
 63
     7
283
     0
274
    -2
284
     1
 64
     0
275
    -2
285
     1
 65
     0
276
    -2
286
     1
 66
     0
277
    -2
287
     1
 67
     0
278
    -2
288
     1
 68
     0
279
    -2
289
     1
 69
     0
  0
VISUALSTYLE
  5
9CCC
102
{ACAD_XDICTIONARY
360
9D2A
102
}
102
{ACAD_REACTORS
330
9CC6
102
}
330
9CC6
100
AcDbVisualStyle
  2
2dWireframe
 70
     4
 71
     0
 72
     2
 73
     0
 90
        0
 40
-0.6
 41
-30.0
 62
     5
 63
     7
 74
     1
 91
        4
 64
     7
 65
   257
 75
     1
175
     1
 42
1.0
 92
        0
 66
   257
 43
1.0
 76
     1
 77
     6
 78
     2
 67
     7
 79
     5
170
     0
171
     0
290
     0
174
     0
 93
        1
 44
0.0
173
     0
291
     0
 45
0.0
1001
ACAD
1000
AcDbSavedByObjectVersion
1070
     0
  0
VISUALSTYLE
  5
9CCB
102
{ACAD_XDICTIONARY
360
9D28
102
}
102
{ACAD_REACTORS
330
9CC6
102
}
330
9CC6
100
AcDbVisualStyle
  2
Basic
 70
     7
 71
     1
 72
     0
 73
     1
 90
        0
 40
-0.6
 41
-30.0
 62
     5
 63
     7
 74
     0
 91
        4
 64
     7
 65
   257
 75
     1
175
     1
 42
1.0
 92
        8
 66
     7
 43
1.0
 76
     1
 77
     6
 78
     2
 67
     7
 79
     5
170
     0
171
     0
290
     0
174
     0
 93
        1
 44
0.0
173
     0
291
     1
 45
0.0
1001
ACAD
1000
AcDbSavedByObjectVersion
1070
     0
  0
VISUALSTYLE
  5
9CD2
102
{ACAD_XDICTIONARY
360
9D36
102
}
102
{ACAD_REACTORS
330
9CC6
102
}
330
9CC6
100
AcDbVisualStyle
  2
Brighten
 70
    12
 71
     2
 72
     2
 73
     0
 90
        0
 40
-0.6
 41
-30.0
 62
     5
 63
     7
 74
     1
 91
        4
 64
     7
 65
   257
 75
     1
175
     1
 42
1.0
 92
        8
 66
     7
 43
1.0
 76
     1
 77
     6
 78
     2
 67
     7
 79
     5
170
     0
171
     0
290
     0
174
     0
 93
        1
 44
50.0
173
     0
291
     1
 45
0.0
1001
ACAD
1000
AcDbSavedByObjectVersion
1070
     0
  0
VISUALSTYLE
  5
9CD6
102
{ACAD_XDICTIONARY
360
9D3E
102
}
102
{ACAD_REACTORS
330
9CC6
102
}
330
9CC6
100
AcDbVisualStyle
  2
ColorChange
 70
    16
 71
     2
 72
     2
 73
     3
 90
        0
 40
-0.6
 41
-30.0
 62
     5
 63
     8
 74
     1
 91
        4
 64
     7
 65
   257
 75
     1
175
     1
 42
1.0
 92
        8
 66
     8
 43
1.0
 76
     1
 77
     6
 78
     2
 67
     7
 79
     5
170
     0
171
     0
290
     0
174
     0
 93
        1
 44
0.0
173
     0
291
     1
 45
0.0
1001
ACAD
1000
AcDbSavedByObjectVersion
1070
     0
  0
VISUALSTYLE
  5
9CCF
102
{ACAD_XDICTIONARY
360
9D30
102
}
102
{ACAD_REACTORS
330
9CC6
102
}
330
9CC6
100
AcDbVisualStyle
  2
Conceptual
 70
     9
 71
     3
 72
     2
 73
     0
 90
        0
 40
-0.6
 41
-30.0
 62
     5
 63
     7
 74
     2
 91
        2
 64
     7
 65
   257
 75
     1
175
     1
 42
179.0
 92
        8
 66
     7
 43
1.0
 76
     1
 77
     6
 78
     2
 67
     7
 79
     3
170
     0
171
     0
290
     0
174
     0
 93
        1
 44
0.0
173
     0
291
     0
 45
0.0
1001
ACAD
1000
AcDbSavedByObjectVersion
1070
     0
  0
VISUALSTYLE
  5
9CD1
102
{ACAD_XDICTIONARY
360
9D34
102
}
102
{ACAD_REACTORS
330
9CC6
102
}
330
9CC6
100
AcDbVisualStyle
  2
Dim
 70
    11
 71
     2
 72
     2
 73
     0
 90
        0
 40
-0.6
 41
-30.0
 62
     5
 63
     7
 74
     1
 91
        4
 64
     7
 65
   257
 75
     1
175
     1
 42
1.0
 92
        8
 66
     7
 43
1.0
 76
     1
 77
     6
 78
     2
 67
     7
 79
     5
170
     0
171
     0
290
     0
174
     0
 93
        1
 44
-50.0
173
     0
291
     1
 45
0.0
1001
ACAD
1000
AcDbSavedByObjectVersion
1070
     0
  0
VISUALSTYLE
  5
9CDE
102
{ACAD_XDICTIONARY
360
9D4E
102
}
102
{ACAD_REACTORS
330
9CC6
102
}
330
9CC6
100
AcDbVisualStyle
  2
EdgeColorOff
 70
    22
 71
     2
 72
     2
 73
     0
 90
        0
 40
-0.6
 41
-30.0
 62
     5
 63
     7
 74
     1
 91
        4
 64
     7
 65
   257
 75
     1
175
     1
 42
1.0
 92
        8
 66
     7
 43
1.0
 76
     1
 77
     6
 78
     2
 67
     7
 79
     5
170
     0
171
     0
290
     0
174
     0
 93
        1
 44
0.0
173
     0
291
     1
 45
0.0
1001
ACAD
1000
AcDbSavedByObjectVersion
1070
     0
  0
VISUALSTYLE
  5
9CD5
102
{ACAD_XDICTIONARY
360
9D3C
102
}
102
{ACAD_REACTORS
330
9CC6
102
}
330
9CC6
100
AcDbVisualStyle
  2
Facepattern
 70
    15
 71
     2
 72
     2
 73
     0
 90
        0
 40
-0.6
 41
-30.0
 62
     5
 63
     7
 74
     1
 91
        4
 64
     7
 65
   257
 75
     1
175
     1
 42
1.0
 92
        8
 66
     7
 43
1.0
 76
     1
 77
     6
 78
     2
 67
     7
 79
     5
170
     0
171
     0
290
     0
174
     0
 93
        1
 44
0.0
173
     0
291
     1
 45
0.0
1001
ACAD
1000
AcDbSavedByObjectVersion
1070
     0
  0
VISUALSTYLE
  5
9CC7
102
{ACAD_XDICTIONARY
360
9D20
102
}
102
{ACAD_REACTORS
330
9CC6
102
}
330
9CC6
100
AcDbVisualStyle
  2
Flat
 70
     0
 71
     2
 72
     1
 73
     1
 90
        2
 40
-0.6
 41
30.0
 62
     5
 63
     7
 74
     0
 91
        0
 64
     7
 65
   257
 75
     1
175
     1
 42
1.0
 92
        8
 66
     7
 43
1.0
 76
     1
 77
     6
 78
     2
 67
     7
 79
     5
170
     0
171
     0
290
     0
174
     0
 93
       13
 44
0.0
173
     0
291
     1
 45
0.0
1001
ACAD
1000
AcDbSavedByObjectVersion
1070
     0
  0
VISUALSTYLE
  5
9CC8
102
{ACAD_XDICTIONARY
360
9D22
102
}
102
{ACAD_REACTORS
330
9CC6
102
}
330
9CC6
100
AcDbVisualStyle
  2
FlatWithEdges
 70
     1
 71
     2
 72
     1
 73
     1
 90
        2
 40
-0.6
 41
30.0
 62
     5
 63
     7
 74
     1
 91
        0
 64
     7
 65
   257
 75
     1
175
     1
 42
1.0
 92
        0
 66
   257
 43
1.0
 76
     1
 77
     6
 78
     2
 67
     7
 79
     5
170
     0
171
     0
290
     0
174
     0
 93
       13
 44
0.0
173
     0
291
     1
 45
0.0
1001
ACAD
1000
AcDbSavedByObjectVersion
1070
     0
  0
VISUALSTYLE
  5
9CC9
102
{ACAD_XDICTIONARY
360
9D24
102
}
102
{ACAD_REACTORS
330
9CC6
102
}
330
9CC6
100
AcDbVisualStyle
  2
Gouraud
 70
     2
 71
     2
 72
     2
 73
     1
 90
        2
 40
-0.6
 41
30.0
 62
     5
 63
     7
 74
     0
 91
        0
 64
     7
 65
   257
 75
     1
175
     1
 42
1.0
 92
        0
 66
     7
 43
1.0
 76
     1
 77
     6
 78
     2
 67
     7
 79
     5
170
     0
171
     0
290
     0
174
     0
 93
       13
 44
0.0
173
     0
291
     1
 45
0.0
1001
ACAD
1000
AcDbSavedByObjectVersion
1070
     0
  0
VISUALSTYLE
  5
9CCA
102
{ACAD_XDICTIONARY
360
9D26
102
}
102
{ACAD_REACTORS
330
9CC6
102
}
330
9CC6
100
AcDbVisualStyle
  2
GouraudWithEdges
 70
     3
 71
     2
 72
     2
 73
     1
 90
        2
 40
-0.6
 41
30.0
 62
     5
 63
     7
 74
     1
 91
        0
 64
     7
 65
   257
 75
     1
175
     1
 42
1.0
 92
        0
 66
   257
 43
1.0
 76
     1
 77
     6
 78
     2
 67
     7
 79
     5
170
     0
171
     0
290
     0
174
     0
 93
       13
 44
0.0
173
     0
291
     1
 45
0.0
1001
ACAD
1000
AcDbSavedByObjectVersion
1070
     0
  0
VISUALSTYLE
  5
9CCE
102
{ACAD_XDICTIONARY
360
9D2E
102
}
102
{ACAD_REACTORS
330
9CC6
102
}
330
9CC6
100
AcDbVisualStyle
  2
Hidden
 70
     6
 71
     1
 72
     2
 73
     2
 90
        0
 40
-0.6
 41
-30.0
 62
     5
 63
     7
 74
     2
 91
        2
 64
     7
 65
   257
 75
     2
175
     1
 42
40.0
 92
        0
 66
   257
 43
1.0
 76
     1
 77
     6
 78
     2
 67
     7
 79
     3
170
     0
171
     0
290
     0
174
     0
 93
        1
 44
0.0
173
     0
291
     0
 45
0.0
1001
ACAD
1000
AcDbSavedByObjectVersion
1070
     0
  0
VISUALSTYLE
  5
9CDC
102
{ACAD_XDICTIONARY
360
9D4A
102
}
102
{ACAD_REACTORS
330
9CC6
102
}
330
9CC6
100
AcDbVisualStyle
  2
JitterOff
 70
    20
 71
     2
 72
     2
 73
     0
 90
        0
 40
-0.6
 41
-30.0
 62
     5
 63
     7
 74
     1
 91
        4
 64
     7
 65
   257
 75
     1
175
     1
 42
1.0
 92
       10
 66
     7
 43
1.0
 76
     1
 77
     6
 78
     2
 67
     7
 79
     5
170
     0
171
     0
290
     0
174
     0
 93
        1
 44
0.0
173
     0
291
     1
 45
0.0
1001
ACAD
1000
AcDbSavedByObjectVersion
1070
     0
  0
VISUALSTYLE
  5
9CD4
102
{ACAD_XDICTIONARY
360
9D3A
102
}
102
{ACAD_REACTORS
330
9CC6
102
}
330
9CC6
100
AcDbVisualStyle
  2
Linepattern
 70
    14
 71
     2
 72
     2
 73
     0
 90
        0
 40
-0.6
 41
-30.0
 62
     5
 63
     7
 74
     1
 91
        4
 64
     7
 65
   257
 75
     7
175
     7
 42
1.0
 92
        8
 66
     7
 43
1.0
 76
     1
 77
     6
 78
     2
 67
     7
 79
     5
170
     0
171
     0
290
     0
174
     0
 93
        1
 44
0.0
173
     0
291
     1
 45
0.0
1001
ACAD
1000
AcDbSavedByObjectVersion
1070
     0
  0
VISUALSTYLE
  5
9CDD
102
{ACAD_XDICTIONARY
360
9D4C
102
}
102
{ACAD_REACTORS
330
9CC6
102
}
330
9CC6
100
AcDbVisualStyle
  2
OverhangOff
 70
    21
 71
     2
 72
     2
 73
     0
 90
        0
 40
-0.6
 41
-30.0
 62
     5
 63
     7
 74
     1
 91
        4
 64
     7
 65
   257
 75
     1
175
     1
 42
1.0
 92
        9
 66
     7
 43
1.0
 76
     1
 77
     6
 78
     2
 67
     7
 79
     5
170
     0
171
     0
290
     0
174
     0
 93
        1
 44
0.0
173
     0
291
     1
 45
0.0
1001
ACAD
1000
AcDbSavedByObjectVersion
1070
     0
  0
VISUALSTYLE
  5
9CD0
102
{ACAD_XDICTIONARY
360
9D32
102
}
102
{ACAD_REACTORS
330
9CC6
102
}
330
9CC6
100
AcDbVisualStyle
  2
Realistic
 70
     8
 71
     2
 72
     3
 73
     0
 90
        2
 40
-0.6
 41
30.0
 62
     5
 63
     7
 74
     0
 91
        0
 64
     7
 65
   257
 75
     1
175
     1
 42
1.0
 92
        8
 66
   257
 43
1.0
 76
     1
 77
     6
 78
     2
 67
     7
 79
     3
170
     0
171
     0
290
     0
174
     0
 93
       13
 44
0.0
173
     0
291
     0
 45
0.0
1001
ACAD
1000
AcDbSavedByObjectVersion
1070
     0
  0
VISUALSTYLE
  5
9CDB
102
{ACAD_XDICTIONARY
360
9D48
102
}
102
{ACAD_REACTORS
330
9CC6
102
}
330
9CC6
100
AcDbVisualStyle
  2
Shaded
 70
    27
 71
     2
 72
     2
 73
     1
 90
        2
 40
-0.6
 41
30.0
 62
     5
 63
     7
 74
     0
 91
        4
 64
     7
 65
   257
 75
     1
175
     1
 42
1.0
 92
        8
 66
   257
 43
1.0
 76
     1
 77
     6
 78
     2
 67
     8
 79
     3
170
     0
171
     0
290
     0
174
     0
 93
        5
 44
0.0
173
     0
291
     0
 45
0.0
1001
ACAD
1000
AcDbSavedByObjectVersion
1070
     0
  0
VISUALSTYLE
  5
9CDA
102
{ACAD_XDICTIONARY
360
9D46
102
}
102
{ACAD_REACTORS
330
9CC6
102
}
330
9CC6
100
AcDbVisualStyle
  2
Shaded with edges
 70
    26
 71
     2
 72
     2
 73
     1
 90
        2
 40
-0.6
 41
30.0
 62
     5
 63
     7
 74
     1
 91
       10
 64
     7
 65
   257
 75
     2
175
     1
 42
1.0
 92
        8
 66
   257
 43
1.0
 76
     1
 77
     6
 78
     2
 67
     7
 79
     3
170
     0
171
     0
290
     0
174
     0
 93
        5
 44
0.0
173
     0
291
     0
 45
0.0
1001
ACAD
1000
AcDbSavedByObjectVersion
1070
     0
  0
VISUALSTYLE
  5
9CD7
102
{ACAD_XDICTIONARY
360
9D40
102
}
102
{ACAD_REACTORS
330
9CC6
102
}
330
9CC6
100
AcDbVisualStyle
  2
Shades of Gray
 70
    23
 71
     2
 72
     2
 73
     3
 90
        0
 40
-0.6
 41
-30.0
 62
     5
 63
     7
 74
     2
 91
        2
 64
     7
 65
     7
 75
     1
175
     1
 42
40.0
 92
        8
 66
     7
 43
1.0
 76
     1
 77
     6
 78
     2
 67
     7
 79
     3
170
     0
171
     0
290
     0
174
     0
 93
        1
 44
0.0
173
     0
291
     0
 45
0.0
1001
ACAD
1000
AcDbSavedByObjectVersion
1070
     0
  0
VISUALSTYLE
  5
9CD8
102
{ACAD_XDICTIONARY
360
9D42
102
}
102
{ACAD_REACTORS
330
9CC6
102
}
330
9CC6
100
AcDbVisualStyle
  2
Sketchy
 70
    24
 71
     1
 72
     2
 73
     2
 90
        0
 40
-0.6
 41
-30.0
 62
     5
 63
     7
 74
     2
 91
        2
 64
     7
 65
     7
 75
     1
175
     1
 42
40.0
 92
       11
 66
     7
 43
1.0
 76
     1
 77
     6
 78
     2
 67
     7
 79
     6
170
     0
171
     0
290
     0
174
     0
 93
        1
 44
0.0
173
     0
291
     0
 45
0.0
1001
ACAD
1000
AcDbSavedByObjectVersion
1070
     0
  0
VISUALSTYLE
  5
9CD3
102
{ACAD_XDICTIONARY
360
9D38
102
}
102
{ACAD_REACTORS
330
9CC6
102
}
330
9CC6
100
AcDbVisualStyle
  2
Thicken
 70
    13
 71
     2
 72
     2
 73
     0
 90
        0
 40
-0.6
 41
-30.0
 62
     5
 63
     7
 74
     1
 91
        4
 64
     7
 65
   257
 75
     1
175
     1
 42
1.0
 92
       12
 66
     7
 43
1.0
 76
     1
 77
     6
 78
     2
 67
     7
 79
     5
170
     0
171
     0
290
     0
174
     0
 93
        1
 44
0.0
173
     0
291
     1
 45
0.0
1001
ACAD
1000
AcDbSavedByObjectVersion
1070
     0
  0
VISUALSTYLE
  5
9CCD
102
{ACAD_XDICTIONARY
360
9D2C
102
}
102
{ACAD_REACTORS
330
9CC6
102
}
330
9CC6
100
AcDbVisualStyle
  2
Wireframe
 70
     5
 71
     0
 72
     2
 73
     0
 90
        0
 40
-0.6
 41
-30.0
 62
     5
 63
     7
 74
     1
 91
        4
 64
     7
 65
   257
 75
     1
175
     1
 42
1.0
 92
        0
 66
   257
 43
1.0
 76
     1
 77
     6
 78
     2
 67
     7
 79
     3
170
     0
171
     0
290
     0
174
     0
 93
        1
 44
0.0
173
     0
291
     0
 45
0.0
1001
ACAD
1000
AcDbSavedByObjectVersion
1070
     0
  0
VISUALSTYLE
  5
9CD9
102
{ACAD_XDICTIONARY
360
9D44
102
}
102
{ACAD_REACTORS
330
9CC6
102
}
330
9CC6
100
AcDbVisualStyle
  2
X-Ray
 70
    25
 71
     2
 72
     2
 73
     1
 90
        1
 40
0.5
 41
-30.0
 62
     5
 63
     7
 74
     1
 91
        0
 64
     7
 65
   257
 75
     1
175
     1
 42
1.0
 92
        8
 66
     7
 43
1.0
 76
     1
 77
     6
 78
     2
 67
     7
 79
     3
170
     0
171
     0
290
     0
174
     0
 93
       13
 44
0.0
173
     0
291
     0
 45
0.0
1001
ACAD
1000
AcDbSavedByObjectVersion
1070
     0
  0
DICTIONARYVAR
  5
9D13
102
{ACAD_REACTORS
330
9D0E
102
}
330
9D0E
100
DictionaryVariables
280
     0
  1
1:1
  0
DICTIONARYVAR
  5
9D10
102
{ACAD_REACTORS
330
9D0E
102
}
330
9D0E
100
DictionaryVariables
280
     0
  1
STANDARD
  0
DICTIONARYVAR
  5
9D0F
102
{ACAD_REACTORS
330
9D0E
102
}
330
9D0E
100
DictionaryVariables
280
     0
  1
STANDARD
  0
DICTIONARYVAR
  5
9D11
102
{ACAD_REACTORS
330
9D0E
102
}
330
9D0E
100
DictionaryVariables
280
     0
  1
Imperial24
  0
DICTIONARYVAR
  5
9D12
102
{ACAD_REACTORS
330
9D0E
102
}
330
9D0E
100
DictionaryVariables
280
     0
  1
Imperial24
  0
DICTIONARYVAR
  5
9D16
102
{ACAD_REACTORS
330
9D0E
102
}
330
9D0E
100
DictionaryVariables
280
     0
  1
1
  0
DICTIONARYVAR
  5
9D15
102
{ACAD_REACTORS
330
9D0E
102
}
330
9D0E
100
DictionaryVariables
280
     0
  1
0
  0
DICTIONARYVAR
  5
9D14
102
{ACAD_REACTORS
330
9D0E
102
}
330
9D0E
100
DictionaryVariables
280
     0
  1
127
  0
DICTIONARYVAR
  5
9D17
102
{ACAD_REACTORS
330
9D0E
102
}
330
9D0E
100
DictionaryVariables
280
     0
  1
2
  0
DICTIONARY
  5
9D54
330
9CF9
100
AcDbDictionary
280
     1
281
     1
  3
ACAD_XREC_ROUNDTRIP
360
9D55
  0
DICTIONARY
  5
9D56
330
9CFA
100
AcDbDictionary
280
     1
281
     1
  3
ACAD_XREC_ROUNDTRIP
360
9D57
  0
DICTIONARY
  5
9D58
330
9CFB
100
AcDbDictionary
280
     1
281
     1
  3
ACAD_XREC_ROUNDTRIP
360
9D59
  0
DICTIONARY
  5
9CB7
330
9CB6
100
AcDbDictionary
280
     1
281
     1
  3
ACAD_XREC_ROUNDTRIP
360
9D1E
  3
BUMPTILE
360
9CB9
  3
DIFFUSETILE
360
9CB8
  3
OPACITYTILE
360
9CBC
  3
REFLECTIONTILE
360
9CBB
  3
REFRACTIONTILE
360
9CBD
  3
SPECULARTILE
360
9CBA
  0
DICTIONARY
  5
9CAF
330
9CAE
100
AcDbDictionary
280
     1
281
     1
  3
ACAD_XREC_ROUNDTRIP
360
9D1D
  3
BUMPTILE
360
9CB1
  3
DIFFUSETILE
360
9CB0
  3
OPACITYTILE
360
9CB4
  3
REFLECTIONTILE
360
9CB3
  3
REFRACTIONTILE
360
9CB5
  3
SPECULARTILE
360
9CB2
  0
DICTIONARY
  5
9CBF
330
9CBE
100
AcDbDictionary
280
     1
281
     1
  3
ACAD_XREC_ROUNDTRIP
360
9D1F
  3
BUMPTILE
360
9CC1
  3
DIFFUSETILE
360
9CC0
  3
OPACITYTILE
360
9CC4
  3
REFLECTIONTILE
360
9CC3
  3
REFRACTIONTILE
360
9CC5
  3
SPECULARTILE
360
9CC2
  0
DICTIONARY
  5
9D52
330
9CF7
100
AcDbDictionary
280
     1
281
     1
  3
ACAD_XREC_ROUNDTRIP
360
9D53
  0
DICTIONARY
  5
9D19
330
9CE1
100
AcDbDictionary
280
     1
281
     1
  3
ACAD_ROUNDTRIP_2008_TABLESTYLE_CELLSTYLEMAP
360
9D1A
  3
ACAD_XREC_ROUNDTRIP
360
9D50
  0
DICTIONARY
  5
9D2A
330
9CCC
100
AcDbDictionary
280
     1
281
     1
  3
ACAD_XREC_ROUNDTRIP
360
9D2B
  0
DICTIONARY
  5
9D28
330
9CCB
100
AcDbDictionary
280
     1
281
     1
  3
ACAD_XREC_ROUNDTRIP
360
9D29
  0
DICTIONARY
  5
9D36
330
9CD2
100
AcDbDictionary
280
     1
281
     1
  3
ACAD_XREC_ROUNDTRIP
360
9D37
  0
DICTIONARY
  5
9D3E
330
9CD6
100
AcDbDictionary
280
     1
281
     1
  3
ACAD_XREC_ROUNDTRIP
360
9D3F
  0
DICTIONARY
  5
9D30
330
9CCF
100
AcDbDictionary
280
     1
281
     1
  3
ACAD_XREC_ROUNDTRIP
360
9D31
  0
DICTIONARY
  5
9D34
330
9CD1
100
AcDbDictionary
280
     1
281
     1
  3
ACAD_XREC_ROUNDTRIP
360
9D35
  0
DICTIONARY
  5
9D4E
330
9CDE
100
AcDbDictionary
280
     1
281
     1
  3
ACAD_XREC_ROUNDTRIP
360
9D4F
  0
DICTIONARY
  5
9D3C
330
9CD5
100
AcDbDictionary
280
     1
281
     1
  3
ACAD_XREC_ROUNDTRIP
360
9D3D
  0
DICTIONARY
  5
9D20
330
9CC7
100
AcDbDictionary
280
     1
281
     1
  3
ACAD_XREC_ROUNDTRIP
360
9D21
  0
DICTIONARY
  5
9D22
330
9CC8
100
AcDbDictionary
280
     1
281
     1
  3
ACAD_XREC_ROUNDTRIP
360
9D23
  0
DICTIONARY
  5
9D24
330
9CC9
100
AcDbDictionary
280
     1
281
     1
  3
ACAD_XREC_ROUNDTRIP
360
9D25
  0
DICTIONARY
  5
9D26
330
9CCA
100
AcDbDictionary
280
     1
281
     1
  3
ACAD_XREC_ROUNDTRIP
360
9D27
  0
DICTIONARY
  5
9D2E
330
9CCE
100
AcDbDictionary
280
     1
281
     1
  3
ACAD_XREC_ROUNDTRIP
360
9D2F
  0
DICTIONARY
  5
9D4A
330
9CDC
100
AcDbDictionary
280
     1
281
     1
  3
ACAD_XREC_ROUNDTRIP
360
9D4B
  0
DICTIONARY
  5
9D3A
330
9CD4
100
AcDbDictionary
280
     1
281
     1
  3
ACAD_XREC_ROUNDTRIP
360
9D3B
  0
DICTIONARY
  5
9D4C
330
9CDD
100
AcDbDictionary
280
     1
281
     1
  3
ACAD_XREC_ROUNDTRIP
360
9D4D
  0
DICTIONARY
  5
9D32
330
9CD0
100
AcDbDictionary
280
     1
281
     1
  3
ACAD_XREC_ROUNDTRIP
360
9D33
  0
DICTIONARY
  5
9D48
330
9CDB
100
AcDbDictionary
280
     1
281
     1
  3
ACAD_XREC_ROUNDTRIP
360
9D49
  0
DICTIONARY
  5
9D46
330
9CDA
100
AcDbDictionary
280
     1
281
     1
  3
ACAD_XREC_ROUNDTRIP
360
9D47
  0
DICTIONARY
  5
9D40
330
9CD7
100
AcDbDictionary
280
     1
281
     1
  3
ACAD_XREC_ROUNDTRIP
360
9D41
  0
DICTIONARY
  5
9D42
330
9CD8
100
AcDbDictionary
280
     1
281
     1
  3
ACAD_XREC_ROUNDTRIP
360
9D43
  0
DICTIONARY
  5
9D38
330
9CD3
100
AcDbDictionary
280
     1
281
     1
  3
ACAD_XREC_ROUNDTRIP
360
9D39
  0
DICTIONARY
  5
9D2C
330
9CCD
100
AcDbDictionary
280
     1
281
     1
  3
ACAD_XREC_ROUNDTRIP
360
9D2D
  0
DICTIONARY
  5
9D44
330
9CD9
100
AcDbDictionary
280
     1
281
     1
  3
ACAD_XREC_ROUNDTRIP
360
9D45
  0
XRECORD
  5
9D55
102
{ACAD_REACTORS
330
9D54
102
}
330
9D54
100
AcDbXrecord
280
     1
102
DISPLAYNAME
  1
Imperial24
102
FLAGS
 90
        0
  0
XRECORD
  5
9D57
102
{ACAD_REACTORS
330
9D56
102
}
330
9D56
100
AcDbXrecord
280
     1
102
SHADEPLOT
 70
     0
102
SHADEPLOTRESLEVEL
 70
     2
102
SHADEPLOTCUSTOMDPI
 70
   300
  0
XRECORD
  5
9D59
102
{ACAD_REACTORS
330
9D58
102
}
330
9D58
100
AcDbXrecord
280
     1
102
SHADEPLOT
 70
     0
102
SHADEPLOTRESLEVEL
 70
     2
102
SHADEPLOTCUSTOMDPI
 70
   300
  0
XRECORD
  5
9D1E
102
{ACAD_REACTORS
330
9CB7
102
}
330
9CB7
100
AcDbXrecord
280
     1
102
MATERIAL
148
0.0
149
0.0
149
0.0
 93
        0
 94
      127
282
     0
 72
     0
 77
     0
171
     0
175
     0
179
     0
273
     0
  0
XRECORD
  5
9CB9
102
{ACAD_REACTORS
330
9CB7
102
}
330
9CB7
100
AcDbXrecord
280
     1
270
     1
271
     1
  0
XRECORD
  5
9CB8
102
{ACAD_REACTORS
330
9CB7
102
}
330
9CB7
100
AcDbXrecord
280
     1
270
     1
271
     1
  0
XRECORD
  5
9CBC
102
{ACAD_REACTORS
330
9CB7
102
}
330
9CB7
100
AcDbXrecord
280
     1
270
     1
271
     1
  0
XRECORD
  5
9CBB
102
{ACAD_REACTORS
330
9CB7
102
}
330
9CB7
100
AcDbXrecord
280
     1
270
     1
271
     1
  0
XRECORD
  5
9CBD
102
{ACAD_REACTORS
330
9CB7
102
}
330
9CB7
100
AcDbXrecord
280
     1
270
     1
271
     1
  0
XRECORD
  5
9CBA
102
{ACAD_REACTORS
330
9CB7
102
}
330
9CB7
100
AcDbXrecord
280
     1
270
     1
271
     1
  0
XRECORD
  5
9D1D
102
{ACAD_REACTORS
330
9CAF
102
}
330
9CAF
100
AcDbXrecord
280
     1
102
MATERIAL
148
0.0
149
0.0
149
0.0
 93
        0
 94
      127
282
     0
 72
     0
 77
     0
171
     0
175
     0
179
     0
273
     0
  0
XRECORD
  5
9CB1
102
{ACAD_REACTORS
330
9CAF
102
}
330
9CAF
100
AcDbXrecord
280
     1
270
     1
271
     1
  0
XRECORD
  5
9CB0
102
{ACAD_REACTORS
330
9CAF
102
}
330
9CAF
100
AcDbXrecord
280
     1
270
     1
271
     1
  0
XRECORD
  5
9CB4
102
{ACAD_REACTORS
330
9CAF
102
}
330
9CAF
100
AcDbXrecord
280
     1
270
     1
271
     1
  0
XRECORD
  5
9CB3
102
{ACAD_REACTORS
330
9CAF
102
}
330
9CAF
100
AcDbXrecord
280
     1
270
     1
271
     1
  0
XRECORD
  5
9CB5
102
{ACAD_REACTORS
330
9CAF
102
}
330
9CAF
100
AcDbXrecord
280
     1
270
     1
271
     1
  0
XRECORD
  5
9CB2
102
{ACAD_REACTORS
330
9CAF
102
}
330
9CAF
100
AcDbXrecord
280
     1
270
     1
271
     1
  0
XRECORD
  5
9D1F
102
{ACAD_REACTORS
330
9CBF
102
}
330
9CBF
100
AcDbXrecord
280
     1
102
MATERIAL
148
0.0
149
0.0
149
0.0
 93
        0
 94
      127
282
     0
 72
     0
 77
     0
171
     0
175
     0
179
     0
273
     0
  0
XRECORD
  5
9CC1
102
{ACAD_REACTORS
330
9CBF
102
}
330
9CBF
100
AcDbXrecord
280
     1
270
     1
271
     1
  0
XRECORD
  5
9CC0
102
{ACAD_REACTORS
330
9CBF
102
}
330
9CBF
100
AcDbXrecord
280
     1
270
     1
271
     1
  0
XRECORD
  5
9CC4
102
{ACAD_REACTORS
330
9CBF
102
}
330
9CBF
100
AcDbXrecord
280
     1
270
     1
271
     1
  0
XRECORD
  5
9CC3
102
{ACAD_REACTORS
330
9CBF
102
}
330
9CBF
100
AcDbXrecord
280
     1
270
     1
271
     1
  0
XRECORD
  5
9CC5
102
{ACAD_REACTORS
330
9CBF
102
}
330
9CBF
100
AcDbXrecord
280
     1
270
     1
271
     1
  0
XRECORD
  5
9CC2
102
{ACAD_REACTORS
330
9CBF
102
}
330
9CBF
100
AcDbXrecord
280
     1
270
     1
271
     1
  0
XRECORD
  5
9D53
102
{ACAD_REACTORS
330
9D52
102
}
330
9D52
100
AcDbXrecord
280
     1
102
DISPLAYNAME
  1
Imperial24
102
FLAGS
 90
        0
  0
CELLSTYLEMAP
  5
9D1A
102
{ACAD_REACTORS
330
9D19
102
}
330
9D19
100
AcDbCellStyleMap
 90
        3
300
CELLSTYLE
  1
TABLEFORMAT_BEGIN
 90
        5
170
     1
 91
        0
 92
    32768
 62
   257
 93
        1
300
CONTENTFORMAT
  1
CONTENTFORMAT_BEGIN
 90
        0
 91
        0
 92
      512
 93
        0
300

 40
0.0
140
1.0
 94
        5
 62
     0
340
989D
144
0.25
309
CONTENTFORMAT_END
171
     0
 94
        0
309
TABLEFORMAT_END
  1
CELLSTYLE_BEGIN
 90
        1
 91
        1
300
_TITLE
309
CELLSTYLE_END
300
CELLSTYLE
  1
TABLEFORMAT_BEGIN
 90
        5
170
     1
 91
        0
 92
        0
 62
   257
 93
        1
300
CONTENTFORMAT
  1
CONTENTFORMAT_BEGIN
 90
        0
 91
        0
 92
      512
 93
        0
300

 40
0.0
140
1.0
 94
        5
 62
     0
340
989D
144
0.18
309
CONTENTFORMAT_END
171
     0
 94
        0
309
TABLEFORMAT_END
  1
CELLSTYLE_BEGIN
 90
        2
 91
        1
300
_HEADER
309
CELLSTYLE_END
300
CELLSTYLE
  1
TABLEFORMAT_BEGIN
 90
        5
170
     1
 91
        0
 92
        0
 62
   257
 93
        1
300
CONTENTFORMAT
  1
CONTENTFORMAT_BEGIN
 90
        0
 91
        0
 92
      512
 93
        0
300

 40
0.0
140
1.0
 94
        2
 62
     0
340
989D
144
0.18
309
CONTENTFORMAT_END
171
     0
 94
        0
309
TABLEFORMAT_END
  1
CELLSTYLE_BEGIN
 90
        3
 91
        2
300
_DATA
309
CELLSTYLE_END
  0
XRECORD
  5
9D50
102
{ACAD_REACTORS
330
9D19
102
}
330
9D19
100
AcDbXrecord
280
     1
102
ACAD_ROUNDTRIP_PRE2007_TABLESTYLE
 90
      512
 91
        0
  1

 92
      512
 93
        0
  2

 94
      512
 95
        0
  3

  0
XRECORD
  5
9D2B
102
{ACAD_REACTORS
330
9D2A
102
}
330
9D2A
100
AcDbXrecord
280
     1
102
RTVSPost2010Prop28
280
     1
102
RTVSPost2010PropOp28
 70
     1
102
RTVSPost2010Prop29
280
     1
102
RTVSPost2010PropOp29
 70
     1
102
RTVSPost2010Prop30
280
     0
102
RTVSPost2010PropOp30
 70
     1
102
RTVSPost2010Prop31
280
     0
102
RTVSPost2010PropOp31
 70
     1
102
RTVSPost2010Prop32
280
     0
102
RTVSPost2010PropOp32
 70
     1
102
RTVSPost2010Prop33
280
     0
102
RTVSPost2010PropOp33
 70
     1
102
RTVSPost2010Prop34
280
     0
102
RTVSPost2010PropOp34
 70
     1
102
RTVSPost2010Prop35
280
     0
102
RTVSPost2010PropOp35
 70
     1
102
RTVSPost2010Prop36
280
     0
102
RTVSPost2010PropOp36
 70
     1
102
RTVSPost2010Prop37
 90
       50
102
RTVSPost2010PropOp37
 70
     1
102
RTVSPost2010Prop38
140
0.0
102
RTVSPost2010PropOp38
 70
     1
102
RTVSPost2010Prop39
140
1.0
102
RTVSPost2010PropOp39
 70
     1
102
RTVSPost2010Prop40
 90
        0
102
RTVSPost2010PropOp40
 70
     1
102
RTVSPost2010Prop41ColorIndex
 90
       18
102
RTVSPost2010Prop41ColorRGB
 90
        0
102
RTVSPost2010PropOp41
 70
     1
102
RTVSPost2010Prop42
 90
       50
102
RTVSPost2010PropOp42
 70
     1
102
RTVSPost2010Prop43
 90
        3
102
RTVSPost2010PropOp43
 70
     1
102
RTVSPost2010Prop44ColorIndex
 90
        5
102
RTVSPost2010Prop44ColorRGB
 90
      255
102
RTVSPost2010PropOp44
 70
     1
102
RTVSPost2010Prop45
280
     0
102
RTVSPost2010PropOp45
 70
     1
102
RTVSPost2010Prop46
 90
       50
102
RTVSPost2010PropOp46
 70
     1
102
RTVSPost2010Prop47
 90
       50
102
RTVSPost2010PropOp47
 70
     1
102
RTVSPost2010Prop48
 90
       50
102
RTVSPost2010PropOp48
 70
     1
102
RTVSPost2010Prop49
280
     0
102
RTVSPost2010PropOp49
 70
     1
102
RTVSPost2010Prop50
 90
       50
102
RTVSPost2010PropOp50
 70
     1
102
RTVSPost2010Prop51ColorIndex
 90
      256
102
RTVSPost2010Prop51ColorRGB
 90
-16777216
102
RTVSPost2010PropOp51
 70
     0
102
RTVSPost2010Prop52
140
1.0
102
RTVSPost2010PropOp52
 70
     0
102
RTVSPost2010Prop53
 90
        2
102
RTVSPost2010PropOp53
 70
     1
102
RTVSPost2010Prop54
  1
strokes_ogs.tif
102
RTVSPost2010PropOp54
 70
     1
102
RTVSPost2010Prop55
280
     0
102
RTVSPost2010PropOp55
 70
     1
102
RTVSPost2010Prop56
140
1.0
102
RTVSPost2010PropOp56
 70
     1
102
RTVSPost2010Prop57
140
1.0
102
RTVSPost2010PropOp57
 70
     1
102
RTVSPropertyOp0
 70
     1
102
RTVSPropertyOp1
 70
     1
102
RTVSPropertyOp2
 70
     1
102
RTVSPropertyOp3
 70
     1
102
RTVSPropertyOp4
 70
     1
102
RTVSPropertyOp5
 70
     1
102
RTVSPropertyOp6
 70
     1
102
RTVSPropertyOp7
 70
     1
102
RTVSPropertyOp8
 70
     1
102
RTVSPropertyOp9
 70
     1
102
RTVSPropertyOp10
 70
     1
102
RTVSPropertyOp11
 70
     1
102
RTVSPropertyOp12
 70
     1
102
RTVSPropertyOp13
 70
     1
102
RTVSPropertyOp14
 70
     1
102
RTVSPropertyOp15
 70
     1
102
RTVSPropertyOp16
 70
     1
102
RTVSPropertyOp17
 70
     1
102
RTVSPropertyOp18
 70
     1
102
RTVSPropertyOp19
 70
     1
102
RTVSPropertyOp20
 70
     1
102
RTVSPropertyOp21
 70
     1
102
RTVSPropertyOp22
 70
     1
102
RTVSPropertyOp23
 70
     1
102
RTVSPropertyOp24
 70
     1
102
RTVSPropertyOp25
 70
     1
102
RTVSPropertyOp26
 70
     1
102
RTVSPropertyOp27
 70
     1
102
RTVSPropertyOp28
 70
     1
102
RTVSPropertyOp29
 70
     1
102
RTVSPropertyOp30
 70
     1
102
RTVSPropertyOp31
 70
     1
102
RTVSPropertyOp32
 70
     1
102
RTVSPropertyOp33
 70
     1
102
RTVSPropertyOp34
 70
     1
102
RTVSPropertyOp35
 70
     1
102
RTVSPropertyOp36
 70
     1
102
RTVSPropertyOp37
 70
     1
102
RTVSPropertyOp38
 70
     1
102
RTVSPropertyOp39
 70
     1
102
RTVSPropertyOp40
 70
     1
102
RTVSPropertyOp41
 70
     1
102
RTVSPropertyOp42
 70
     1
102
RTVSPropertyOp43
 70
     1
102
RTVSPropertyOp44
 70
     1
102
RTVSPropertyOp45
 70
     1
102
RTVSPropertyOp46
 70
     1
102
RTVSPropertyOp47
 70
     1
102
RTVSPropertyOp48
 70
     1
102
RTVSPropertyOp49
 70
     1
102
RTVSPropertyOp50
 70
     1
102
RTVSPropertyOp51
 70
     0
102
RTVSPropertyOp52
 70
     0
102
RTVSPropertyOp53
 70
     1
102
RTVSPropertyOp54
 70
     1
102
RTVSPropertyOp55
 70
     1
102
RTVSPropertyOp56
 70
     1
102
RTVSPropertyOp57
 70
     1
102
RTVSPropertyOp58
 70
     1
102
RTVSPropertyOp59
 70
     1
102
RTVSPropertyOp60
 70
     1
102
RTVSPropertyOp61
 70
     1
102
RTVSPropertyOp62
 70
     1
  0
XRECORD
  5
9D29
102
{ACAD_REACTORS
330
9D28
102
}
330
9D28
100
AcDbXrecord
280
     1
102
RTVSPost2010Prop28
280
     0
102
RTVSPost2010PropOp28
 70
     1
102
RTVSPost2010Prop29
280
     1
102
RTVSPost2010PropOp29
 70
     1
102
RTVSPost2010Prop30
280
     1
102
RTVSPost2010PropOp30
 70
     1
102
RTVSPost2010Prop31
280
     0
102
RTVSPost2010PropOp31
 70
     1
102
RTVSPost2010Prop32
280
     0
102
RTVSPost2010PropOp32
 70
     1
102
RTVSPost2010Prop33
280
     0
102
RTVSPost2010PropOp33
 70
     1
102
RTVSPost2010Prop34
280
     0
102
RTVSPost2010PropOp34
 70
     1
102
RTVSPost2010Prop35
280
     0
102
RTVSPost2010PropOp35
 70
     1
102
RTVSPost2010Prop36
280
     0
102
RTVSPost2010PropOp36
 70
     1
102
RTVSPost2010Prop37
 90
       50
102
RTVSPost2010PropOp37
 70
     1
102
RTVSPost2010Prop38
140
0.0
102
RTVSPost2010PropOp38
 70
     1
102
RTVSPost2010Prop39
140
1.0
102
RTVSPost2010PropOp39
 70
     1
102
RTVSPost2010Prop40
 90
        0
102
RTVSPost2010PropOp40
 70
     1
102
RTVSPost2010Prop41ColorIndex
 90
       18
102
RTVSPost2010Prop41ColorRGB
 90
        0
102
RTVSPost2010PropOp41
 70
     1
102
RTVSPost2010Prop42
 90
       50
102
RTVSPost2010PropOp42
 70
     1
102
RTVSPost2010Prop43
 90
        3
102
RTVSPost2010PropOp43
 70
     1
102
RTVSPost2010Prop44ColorIndex
 90
        5
102
RTVSPost2010Prop44ColorRGB
 90
      255
102
RTVSPost2010PropOp44
 70
     1
102
RTVSPost2010Prop45
280
     0
102
RTVSPost2010PropOp45
 70
     1
102
RTVSPost2010Prop46
 90
       50
102
RTVSPost2010PropOp46
 70
     1
102
RTVSPost2010Prop47
 90
       50
102
RTVSPost2010PropOp47
 70
     1
102
RTVSPost2010Prop48
 90
       50
102
RTVSPost2010PropOp48
 70
     1
102
RTVSPost2010Prop49
280
     0
102
RTVSPost2010PropOp49
 70
     1
102
RTVSPost2010Prop50
 90
       50
102
RTVSPost2010PropOp50
 70
     1
102
RTVSPost2010Prop51ColorIndex
 90
      256
102
RTVSPost2010Prop51ColorRGB
 90
-16777216
102
RTVSPost2010PropOp51
 70
     0
102
RTVSPost2010Prop52
140
1.0
102
RTVSPost2010PropOp52
 70
     0
102
RTVSPost2010Prop53
 90
        2
102
RTVSPost2010PropOp53
 70
     1
102
RTVSPost2010Prop54
  1
strokes_ogs.tif
102
RTVSPost2010PropOp54
 70
     1
102
RTVSPost2010Prop55
280
     0
102
RTVSPost2010PropOp55
 70
     1
102
RTVSPost2010Prop56
140
1.0
102
RTVSPost2010PropOp56
 70
     1
102
RTVSPost2010Prop57
140
1.0
102
RTVSPost2010PropOp57
 70
     1
102
RTVSPropertyOp0
 70
     1
102
RTVSPropertyOp1
 70
     1
102
RTVSPropertyOp2
 70
     1
102
RTVSPropertyOp3
 70
     1
102
RTVSPropertyOp4
 70
     1
102
RTVSPropertyOp5
 70
     1
102
RTVSPropertyOp6
 70
     1
102
RTVSPropertyOp7
 70
     1
102
RTVSPropertyOp8
 70
     1
102
RTVSPropertyOp9
 70
     1
102
RTVSPropertyOp10
 70
     1
102
RTVSPropertyOp11
 70
     1
102
RTVSPropertyOp12
 70
     1
102
RTVSPropertyOp13
 70
     1
102
RTVSPropertyOp14
 70
     1
102
RTVSPropertyOp15
 70
     1
102
RTVSPropertyOp16
 70
     1
102
RTVSPropertyOp17
 70
     1
102
RTVSPropertyOp18
 70
     1
102
RTVSPropertyOp19
 70
     1
102
RTVSPropertyOp20
 70
     1
102
RTVSPropertyOp21
 70
     1
102
RTVSPropertyOp22
 70
     1
102
RTVSPropertyOp23
 70
     1
102
RTVSPropertyOp24
 70
     1
102
RTVSPropertyOp25
 70
     1
102
RTVSPropertyOp26
 70
     1
102
RTVSPropertyOp27
 70
     1
102
RTVSPropertyOp28
 70
     1
102
RTVSPropertyOp29
 70
     1
102
RTVSPropertyOp30
 70
     1
102
RTVSPropertyOp31
 70
     1
102
RTVSPropertyOp32
 70
     1
102
RTVSPropertyOp33
 70
     1
102
RTVSPropertyOp34
 70
     1
102
RTVSPropertyOp35
 70
     1
102
RTVSPropertyOp36
 70
     1
102
RTVSPropertyOp37
 70
     1
102
RTVSPropertyOp38
 70
     1
102
RTVSPropertyOp39
 70
     1
102
RTVSPropertyOp40
 70
     1
102
RTVSPropertyOp41
 70
     1
102
RTVSPropertyOp42
 70
     1
102
RTVSPropertyOp43
 70
     1
102
RTVSPropertyOp44
 70
     1
102
RTVSPropertyOp45
 70
     1
102
RTVSPropertyOp46
 70
     1
102
RTVSPropertyOp47
 70
     1
102
RTVSPropertyOp48
 70
     1
102
RTVSPropertyOp49
 70
     1
102
RTVSPropertyOp50
 70
     1
102
RTVSPropertyOp51
 70
     0
102
RTVSPropertyOp52
 70
     0
102
RTVSPropertyOp53
 70
     1
102
RTVSPropertyOp54
 70
     1
102
RTVSPropertyOp55
 70
     1
102
RTVSPropertyOp56
 70
     1
102
RTVSPropertyOp57
 70
     1
102
RTVSPropertyOp58
 70
     1
102
RTVSPropertyOp59
 70
     1
102
RTVSPropertyOp60
 70
     1
102
RTVSPropertyOp61
 70
     1
102
RTVSPropertyOp62
 70
     1
  0
XRECORD
  5
9D37
102
{ACAD_REACTORS
330
9D36
102
}
330
9D36
100
AcDbXrecord
280
     1
102
RTVSPost2010Prop28
280
     0
102
RTVSPost2010PropOp28
 70
     1
102
RTVSPost2010Prop29
280
     1
102
RTVSPost2010PropOp29
 70
     1
102
RTVSPost2010Prop30
280
     1
102
RTVSPost2010PropOp30
 70
     1
102
RTVSPost2010Prop31
280
     0
102
RTVSPost2010PropOp31
 70
     1
102
RTVSPost2010Prop32
280
     0
102
RTVSPost2010PropOp32
 70
     1
102
RTVSPost2010Prop33
280
     0
102
RTVSPost2010PropOp33
 70
     1
102
RTVSPost2010Prop34
280
     0
102
RTVSPost2010PropOp34
 70
     1
102
RTVSPost2010Prop35
280
     0
102
RTVSPost2010PropOp35
 70
     1
102
RTVSPost2010Prop36
280
     0
102
RTVSPost2010PropOp36
 70
     1
102
RTVSPost2010Prop37
 90
       50
102
RTVSPost2010PropOp37
 70
     1
102
RTVSPost2010Prop38
140
0.0
102
RTVSPost2010PropOp38
 70
     1
102
RTVSPost2010Prop39
140
1.0
102
RTVSPost2010PropOp39
 70
     1
102
RTVSPost2010Prop40
 90
        0
102
RTVSPost2010PropOp40
 70
     1
102
RTVSPost2010Prop41ColorIndex
 90
       18
102
RTVSPost2010Prop41ColorRGB
 90
        0
102
RTVSPost2010PropOp41
 70
     1
102
RTVSPost2010Prop42
 90
       50
102
RTVSPost2010PropOp42
 70
     1
102
RTVSPost2010Prop43
 90
        3
102
RTVSPost2010PropOp43
 70
     1
102
RTVSPost2010Prop44ColorIndex
 90
        5
102
RTVSPost2010Prop44ColorRGB
 90
      255
102
RTVSPost2010PropOp44
 70
     1
102
RTVSPost2010Prop45
280
     0
102
RTVSPost2010PropOp45
 70
     1
102
RTVSPost2010Prop46
 90
       50
102
RTVSPost2010PropOp46
 70
     1
102
RTVSPost2010Prop47
 90
       50
102
RTVSPost2010PropOp47
 70
     1
102
RTVSPost2010Prop48
 90
       50
102
RTVSPost2010PropOp48
 70
     1
102
RTVSPost2010Prop49
280
     0
102
RTVSPost2010PropOp49
 70
     1
102
RTVSPost2010Prop50
 90
       50
102
RTVSPost2010PropOp50
 70
     1
102
RTVSPost2010Prop51ColorIndex
 90
      256
102
RTVSPost2010Prop51ColorRGB
 90
-16777216
102
RTVSPost2010PropOp51
 70
     0
102
RTVSPost2010Prop52
140
1.0
102
RTVSPost2010PropOp52
 70
     0
102
RTVSPost2010Prop53
 90
        2
102
RTVSPost2010PropOp53
 70
     1
102
RTVSPost2010Prop54
  1
strokes_ogs.tif
102
RTVSPost2010PropOp54
 70
     1
102
RTVSPost2010Prop55
280
     0
102
RTVSPost2010PropOp55
 70
     1
102
RTVSPost2010Prop56
140
1.0
102
RTVSPost2010PropOp56
 70
     1
102
RTVSPost2010Prop57
140
1.0
102
RTVSPost2010PropOp57
 70
     1
102
RTVSPropertyOp0
 70
     1
102
RTVSPropertyOp1
 70
     1
102
RTVSPropertyOp2
 70
     1
102
RTVSPropertyOp3
 70
     1
102
RTVSPropertyOp4
 70
     1
102
RTVSPropertyOp5
 70
     1
102
RTVSPropertyOp6
 70
     1
102
RTVSPropertyOp7
 70
     1
102
RTVSPropertyOp8
 70
     1
102
RTVSPropertyOp9
 70
     1
102
RTVSPropertyOp10
 70
     1
102
RTVSPropertyOp11
 70
     1
102
RTVSPropertyOp12
 70
     1
102
RTVSPropertyOp13
 70
     1
102
RTVSPropertyOp14
 70
     1
102
RTVSPropertyOp15
 70
     1
102
RTVSPropertyOp16
 70
     1
102
RTVSPropertyOp17
 70
     1
102
RTVSPropertyOp18
 70
     1
102
RTVSPropertyOp19
 70
     1
102
RTVSPropertyOp20
 70
     1
102
RTVSPropertyOp21
 70
     1
102
RTVSPropertyOp22
 70
     1
102
RTVSPropertyOp23
 70
     1
102
RTVSPropertyOp24
 70
     1
102
RTVSPropertyOp25
 70
     1
102
RTVSPropertyOp26
 70
     1
102
RTVSPropertyOp27
 70
     1
102
RTVSPropertyOp28
 70
     1
102
RTVSPropertyOp29
 70
     1
102
RTVSPropertyOp30
 70
     1
102
RTVSPropertyOp31
 70
     1
102
RTVSPropertyOp32
 70
     1
102
RTVSPropertyOp33
 70
     1
102
RTVSPropertyOp34
 70
     1
102
RTVSPropertyOp35
 70
     1
102
RTVSPropertyOp36
 70
     1
102
RTVSPropertyOp37
 70
     1
102
RTVSPropertyOp38
 70
     1
102
RTVSPropertyOp39
 70
     1
102
RTVSPropertyOp40
 70
     1
102
RTVSPropertyOp41
 70
     1
102
RTVSPropertyOp42
 70
     1
102
RTVSPropertyOp43
 70
     1
102
RTVSPropertyOp44
 70
     1
102
RTVSPropertyOp45
 70
     1
102
RTVSPropertyOp46
 70
     1
102
RTVSPropertyOp47
 70
     1
102
RTVSPropertyOp48
 70
     1
102
RTVSPropertyOp49
 70
     1
102
RTVSPropertyOp50
 70
     1
102
RTVSPropertyOp51
 70
     0
102
RTVSPropertyOp52
 70
     0
102
RTVSPropertyOp53
 70
     1
102
RTVSPropertyOp54
 70
     1
102
RTVSPropertyOp55
 70
     1
102
RTVSPropertyOp56
 70
     1
102
RTVSPropertyOp57
 70
     1
102
RTVSPropertyOp58
 70
     1
102
RTVSPropertyOp59
 70
     1
102
RTVSPropertyOp60
 70
     1
102
RTVSPropertyOp61
 70
     1
102
RTVSPropertyOp62
 70
     1
  0
XRECORD
  5
9D3F
102
{ACAD_REACTORS
330
9D3E
102
}
330
9D3E
100
AcDbXrecord
280
     1
102
RTVSPost2010Prop28
280
     0
102
RTVSPost2010PropOp28
 70
     1
102
RTVSPost2010Prop29
280
     1
102
RTVSPost2010PropOp29
 70
     1
102
RTVSPost2010Prop30
280
     1
102
RTVSPost2010PropOp30
 70
     1
102
RTVSPost2010Prop31
280
     0
102
RTVSPost2010PropOp31
 70
     1
102
RTVSPost2010Prop32
280
     0
102
RTVSPost2010PropOp32
 70
     1
102
RTVSPost2010Prop33
280
     0
102
RTVSPost2010PropOp33
 70
     1
102
RTVSPost2010Prop34
280
     0
102
RTVSPost2010PropOp34
 70
     1
102
RTVSPost2010Prop35
280
     0
102
RTVSPost2010PropOp35
 70
     1
102
RTVSPost2010Prop36
280
     0
102
RTVSPost2010PropOp36
 70
     1
102
RTVSPost2010Prop37
 90
       50
102
RTVSPost2010PropOp37
 70
     1
102
RTVSPost2010Prop38
140
0.0
102
RTVSPost2010PropOp38
 70
     1
102
RTVSPost2010Prop39
140
1.0
102
RTVSPost2010PropOp39
 70
     1
102
RTVSPost2010Prop40
 90
        0
102
RTVSPost2010PropOp40
 70
     1
102
RTVSPost2010Prop41ColorIndex
 90
       18
102
RTVSPost2010Prop41ColorRGB
 90
        0
102
RTVSPost2010PropOp41
 70
     1
102
RTVSPost2010Prop42
 90
       50
102
RTVSPost2010PropOp42
 70
     1
102
RTVSPost2010Prop43
 90
        3
102
RTVSPost2010PropOp43
 70
     1
102
RTVSPost2010Prop44ColorIndex
 90
        5
102
RTVSPost2010Prop44ColorRGB
 90
      255
102
RTVSPost2010PropOp44
 70
     1
102
RTVSPost2010Prop45
280
     0
102
RTVSPost2010PropOp45
 70
     1
102
RTVSPost2010Prop46
 90
       50
102
RTVSPost2010PropOp46
 70
     1
102
RTVSPost2010Prop47
 90
       50
102
RTVSPost2010PropOp47
 70
     1
102
RTVSPost2010Prop48
 90
       50
102
RTVSPost2010PropOp48
 70
     1
102
RTVSPost2010Prop49
280
     0
102
RTVSPost2010PropOp49
 70
     1
102
RTVSPost2010Prop50
 90
       50
102
RTVSPost2010PropOp50
 70
     1
102
RTVSPost2010Prop51ColorIndex
 90
      256
102
RTVSPost2010Prop51ColorRGB
 90
-16777216
102
RTVSPost2010PropOp51
 70
     0
102
RTVSPost2010Prop52
140
1.0
102
RTVSPost2010PropOp52
 70
     0
102
RTVSPost2010Prop53
 90
        2
102
RTVSPost2010PropOp53
 70
     1
102
RTVSPost2010Prop54
  1
strokes_ogs.tif
102
RTVSPost2010PropOp54
 70
     1
102
RTVSPost2010Prop55
280
     0
102
RTVSPost2010PropOp55
 70
     1
102
RTVSPost2010Prop56
140
1.0
102
RTVSPost2010PropOp56
 70
     1
102
RTVSPost2010Prop57
140
1.0
102
RTVSPost2010PropOp57
 70
     1
102
RTVSPropertyOp0
 70
     1
102
RTVSPropertyOp1
 70
     1
102
RTVSPropertyOp2
 70
     1
102
RTVSPropertyOp3
 70
     1
102
RTVSPropertyOp4
 70
     1
102
RTVSPropertyOp5
 70
     1
102
RTVSPropertyOp6
 70
     1
102
RTVSPropertyOp7
 70
     1
102
RTVSPropertyOp8
 70
     1
102
RTVSPropertyOp9
 70
     1
102
RTVSPropertyOp10
 70
     1
102
RTVSPropertyOp11
 70
     1
102
RTVSPropertyOp12
 70
     1
102
RTVSPropertyOp13
 70
     1
102
RTVSPropertyOp14
 70
     1
102
RTVSPropertyOp15
 70
     1
102
RTVSPropertyOp16
 70
     1
102
RTVSPropertyOp17
 70
     1
102
RTVSPropertyOp18
 70
     1
102
RTVSPropertyOp19
 70
     1
102
RTVSPropertyOp20
 70
     1
102
RTVSPropertyOp21
 70
     1
102
RTVSPropertyOp22
 70
     1
102
RTVSPropertyOp23
 70
     1
102
RTVSPropertyOp24
 70
     1
102
RTVSPropertyOp25
 70
     1
102
RTVSPropertyOp26
 70
     1
102
RTVSPropertyOp27
 70
     1
102
RTVSPropertyOp28
 70
     1
102
RTVSPropertyOp29
 70
     1
102
RTVSPropertyOp30
 70
     1
102
RTVSPropertyOp31
 70
     1
102
RTVSPropertyOp32
 70
     1
102
RTVSPropertyOp33
 70
     1
102
RTVSPropertyOp34
 70
     1
102
RTVSPropertyOp35
 70
     1
102
RTVSPropertyOp36
 70
     1
102
RTVSPropertyOp37
 70
     1
102
RTVSPropertyOp38
 70
     1
102
RTVSPropertyOp39
 70
     1
102
RTVSPropertyOp40
 70
     1
102
RTVSPropertyOp41
 70
     1
102
RTVSPropertyOp42
 70
     1
102
RTVSPropertyOp43
 70
     1
102
RTVSPropertyOp44
 70
     1
102
RTVSPropertyOp45
 70
     1
102
RTVSPropertyOp46
 70
     1
102
RTVSPropertyOp47
 70
     1
102
RTVSPropertyOp48
 70
     1
102
RTVSPropertyOp49
 70
     1
102
RTVSPropertyOp50
 70
     1
102
RTVSPropertyOp51
 70
     0
102
RTVSPropertyOp52
 70
     0
102
RTVSPropertyOp53
 70
     1
102
RTVSPropertyOp54
 70
     1
102
RTVSPropertyOp55
 70
     1
102
RTVSPropertyOp56
 70
     1
102
RTVSPropertyOp57
 70
     1
102
RTVSPropertyOp58
 70
     1
102
RTVSPropertyOp59
 70
     1
102
RTVSPropertyOp60
 70
     1
102
RTVSPropertyOp61
 70
     1
102
RTVSPropertyOp62
 70
     1
  0
XRECORD
  5
9D31
102
{ACAD_REACTORS
330
9D30
102
}
330
9D30
100
AcDbXrecord
280
     1
102
RTVSPost2010Prop28
280
     0
102
RTVSPost2010PropOp28
 70
     1
102
RTVSPost2010Prop29
280
     1
102
RTVSPost2010PropOp29
 70
     1
102
RTVSPost2010Prop30
280
     1
102
RTVSPost2010PropOp30
 70
     1
102
RTVSPost2010Prop31
280
     0
102
RTVSPost2010PropOp31
 70
     1
102
RTVSPost2010Prop32
280
     0
102
RTVSPost2010PropOp32
 70
     1
102
RTVSPost2010Prop33
280
     0
102
RTVSPost2010PropOp33
 70
     1
102
RTVSPost2010Prop34
280
     0
102
RTVSPost2010PropOp34
 70
     1
102
RTVSPost2010Prop35
280
     0
102
RTVSPost2010PropOp35
 70
     1
102
RTVSPost2010Prop36
280
     0
102
RTVSPost2010PropOp36
 70
     1
102
RTVSPost2010Prop37
 90
       50
102
RTVSPost2010PropOp37
 70
     1
102
RTVSPost2010Prop38
140
0.0
102
RTVSPost2010PropOp38
 70
     1
102
RTVSPost2010Prop39
140
1.0
102
RTVSPost2010PropOp39
 70
     1
102
RTVSPost2010Prop40
 90
        0
102
RTVSPost2010PropOp40
 70
     1
102
RTVSPost2010Prop41ColorIndex
 90
       18
102
RTVSPost2010Prop41ColorRGB
 90
        0
102
RTVSPost2010PropOp41
 70
     1
102
RTVSPost2010Prop42
 90
       50
102
RTVSPost2010PropOp42
 70
     1
102
RTVSPost2010Prop43
 90
        3
102
RTVSPost2010PropOp43
 70
     1
102
RTVSPost2010Prop44ColorIndex
 90
        5
102
RTVSPost2010Prop44ColorRGB
 90
      255
102
RTVSPost2010PropOp44
 70
     1
102
RTVSPost2010Prop45
280
     0
102
RTVSPost2010PropOp45
 70
     1
102
RTVSPost2010Prop46
 90
       50
102
RTVSPost2010PropOp46
 70
     1
102
RTVSPost2010Prop47
 90
       50
102
RTVSPost2010PropOp47
 70
     1
102
RTVSPost2010Prop48
 90
       50
102
RTVSPost2010PropOp48
 70
     1
102
RTVSPost2010Prop49
280
     0
102
RTVSPost2010PropOp49
 70
     1
102
RTVSPost2010Prop50
 90
       50
102
RTVSPost2010PropOp50
 70
     1
102
RTVSPost2010Prop51ColorIndex
 90
      256
102
RTVSPost2010Prop51ColorRGB
 90
-16777216
102
RTVSPost2010PropOp51
 70
     0
102
RTVSPost2010Prop52
140
1.0
102
RTVSPost2010PropOp52
 70
     0
102
RTVSPost2010Prop53
 90
        2
102
RTVSPost2010PropOp53
 70
     1
102
RTVSPost2010Prop54
  1
strokes_ogs.tif
102
RTVSPost2010PropOp54
 70
     1
102
RTVSPost2010Prop55
280
     0
102
RTVSPost2010PropOp55
 70
     1
102
RTVSPost2010Prop56
140
1.0
102
RTVSPost2010PropOp56
 70
     1
102
RTVSPost2010Prop57
140
1.0
102
RTVSPost2010PropOp57
 70
     1
102
RTVSPropertyOp0
 70
     1
102
RTVSPropertyOp1
 70
     1
102
RTVSPropertyOp2
 70
     1
102
RTVSPropertyOp3
 70
     1
102
RTVSPropertyOp4
 70
     1
102
RTVSPropertyOp5
 70
     1
102
RTVSPropertyOp6
 70
     1
102
RTVSPropertyOp7
 70
     1
102
RTVSPropertyOp8
 70
     1
102
RTVSPropertyOp9
 70
     1
102
RTVSPropertyOp10
 70
     1
102
RTVSPropertyOp11
 70
     1
102
RTVSPropertyOp12
 70
     1
102
RTVSPropertyOp13
 70
     1
102
RTVSPropertyOp14
 70
     1
102
RTVSPropertyOp15
 70
     1
102
RTVSPropertyOp16
 70
     1
102
RTVSPropertyOp17
 70
     1
102
RTVSPropertyOp18
 70
     1
102
RTVSPropertyOp19
 70
     1
102
RTVSPropertyOp20
 70
     1
102
RTVSPropertyOp21
 70
     1
102
RTVSPropertyOp22
 70
     1
102
RTVSPropertyOp23
 70
     1
102
RTVSPropertyOp24
 70
     1
102
RTVSPropertyOp25
 70
     1
102
RTVSPropertyOp26
 70
     1
102
RTVSPropertyOp27
 70
     1
102
RTVSPropertyOp28
 70
     1
102
RTVSPropertyOp29
 70
     1
102
RTVSPropertyOp30
 70
     1
102
RTVSPropertyOp31
 70
     1
102
RTVSPropertyOp32
 70
     1
102
RTVSPropertyOp33
 70
     1
102
RTVSPropertyOp34
 70
     1
102
RTVSPropertyOp35
 70
     1
102
RTVSPropertyOp36
 70
     1
102
RTVSPropertyOp37
 70
     1
102
RTVSPropertyOp38
 70
     1
102
RTVSPropertyOp39
 70
     1
102
RTVSPropertyOp40
 70
     1
102
RTVSPropertyOp41
 70
     1
102
RTVSPropertyOp42
 70
     1
102
RTVSPropertyOp43
 70
     1
102
RTVSPropertyOp44
 70
     1
102
RTVSPropertyOp45
 70
     1
102
RTVSPropertyOp46
 70
     1
102
RTVSPropertyOp47
 70
     1
102
RTVSPropertyOp48
 70
     1
102
RTVSPropertyOp49
 70
     1
102
RTVSPropertyOp50
 70
     1
102
RTVSPropertyOp51
 70
     0
102
RTVSPropertyOp52
 70
     0
102
RTVSPropertyOp53
 70
     1
102
RTVSPropertyOp54
 70
     1
102
RTVSPropertyOp55
 70
     1
102
RTVSPropertyOp56
 70
     1
102
RTVSPropertyOp57
 70
     1
102
RTVSPropertyOp58
 70
     1
102
RTVSPropertyOp59
 70
     1
102
RTVSPropertyOp60
 70
     1
102
RTVSPropertyOp61
 70
     1
102
RTVSPropertyOp62
 70
     1
  0
XRECORD
  5
9D35
102
{ACAD_REACTORS
330
9D34
102
}
330
9D34
100
AcDbXrecord
280
     1
102
RTVSPost2010Prop28
280
     0
102
RTVSPost2010PropOp28
 70
     1
102
RTVSPost2010Prop29
280
     1
102
RTVSPost2010PropOp29
 70
     1
102
RTVSPost2010Prop30
280
     1
102
RTVSPost2010PropOp30
 70
     1
102
RTVSPost2010Prop31
280
     0
102
RTVSPost2010PropOp31
 70
     1
102
RTVSPost2010Prop32
280
     0
102
RTVSPost2010PropOp32
 70
     1
102
RTVSPost2010Prop33
280
     0
102
RTVSPost2010PropOp33
 70
     1
102
RTVSPost2010Prop34
280
     0
102
RTVSPost2010PropOp34
 70
     1
102
RTVSPost2010Prop35
280
     0
102
RTVSPost2010PropOp35
 70
     1
102
RTVSPost2010Prop36
280
     0
102
RTVSPost2010PropOp36
 70
     1
102
RTVSPost2010Prop37
 90
       50
102
RTVSPost2010PropOp37
 70
     1
102
RTVSPost2010Prop38
140
0.0
102
RTVSPost2010PropOp38
 70
     1
102
RTVSPost2010Prop39
140
1.0
102
RTVSPost2010PropOp39
 70
     1
102
RTVSPost2010Prop40
 90
        0
102
RTVSPost2010PropOp40
 70
     1
102
RTVSPost2010Prop41ColorIndex
 90
       18
102
RTVSPost2010Prop41ColorRGB
 90
        0
102
RTVSPost2010PropOp41
 70
     1
102
RTVSPost2010Prop42
 90
       50
102
RTVSPost2010PropOp42
 70
     1
102
RTVSPost2010Prop43
 90
        3
102
RTVSPost2010PropOp43
 70
     1
102
RTVSPost2010Prop44ColorIndex
 90
        5
102
RTVSPost2010Prop44ColorRGB
 90
      255
102
RTVSPost2010PropOp44
 70
     1
102
RTVSPost2010Prop45
280
     0
102
RTVSPost2010PropOp45
 70
     1
102
RTVSPost2010Prop46
 90
       50
102
RTVSPost2010PropOp46
 70
     1
102
RTVSPost2010Prop47
 90
       50
102
RTVSPost2010PropOp47
 70
     1
102
RTVSPost2010Prop48
 90
       50
102
RTVSPost2010PropOp48
 70
     1
102
RTVSPost2010Prop49
280
     0
102
RTVSPost2010PropOp49
 70
     1
102
RTVSPost2010Prop50
 90
       50
102
RTVSPost2010PropOp50
 70
     1
102
RTVSPost2010Prop51ColorIndex
 90
      256
102
RTVSPost2010Prop51ColorRGB
 90
-16777216
102
RTVSPost2010PropOp51
 70
     0
102
RTVSPost2010Prop52
140
1.0
102
RTVSPost2010PropOp52
 70
     0
102
RTVSPost2010Prop53
 90
        2
102
RTVSPost2010PropOp53
 70
     1
102
RTVSPost2010Prop54
  1
strokes_ogs.tif
102
RTVSPost2010PropOp54
 70
     1
102
RTVSPost2010Prop55
280
     0
102
RTVSPost2010PropOp55
 70
     1
102
RTVSPost2010Prop56
140
1.0
102
RTVSPost2010PropOp56
 70
     1
102
RTVSPost2010Prop57
140
1.0
102
RTVSPost2010PropOp57
 70
     1
102
RTVSPropertyOp0
 70
     1
102
RTVSPropertyOp1
 70
     1
102
RTVSPropertyOp2
 70
     1
102
RTVSPropertyOp3
 70
     1
102
RTVSPropertyOp4
 70
     1
102
RTVSPropertyOp5
 70
     1
102
RTVSPropertyOp6
 70
     1
102
RTVSPropertyOp7
 70
     1
102
RTVSPropertyOp8
 70
     1
102
RTVSPropertyOp9
 70
     1
102
RTVSPropertyOp10
 70
     1
102
RTVSPropertyOp11
 70
     1
102
RTVSPropertyOp12
 70
     1
102
RTVSPropertyOp13
 70
     1
102
RTVSPropertyOp14
 70
     1
102
RTVSPropertyOp15
 70
     1
102
RTVSPropertyOp16
 70
     1
102
RTVSPropertyOp17
 70
     1
102
RTVSPropertyOp18
 70
     1
102
RTVSPropertyOp19
 70
     1
102
RTVSPropertyOp20
 70
     1
102
RTVSPropertyOp21
 70
     1
102
RTVSPropertyOp22
 70
     1
102
RTVSPropertyOp23
 70
     1
102
RTVSPropertyOp24
 70
     1
102
RTVSPropertyOp25
 70
     1
102
RTVSPropertyOp26
 70
     1
102
RTVSPropertyOp27
 70
     1
102
RTVSPropertyOp28
 70
     1
102
RTVSPropertyOp29
 70
     1
102
RTVSPropertyOp30
 70
     1
102
RTVSPropertyOp31
 70
     1
102
RTVSPropertyOp32
 70
     1
102
RTVSPropertyOp33
 70
     1
102
RTVSPropertyOp34
 70
     1
102
RTVSPropertyOp35
 70
     1
102
RTVSPropertyOp36
 70
     1
102
RTVSPropertyOp37
 70
     1
102
RTVSPropertyOp38
 70
     1
102
RTVSPropertyOp39
 70
     1
102
RTVSPropertyOp40
 70
     1
102
RTVSPropertyOp41
 70
     1
102
RTVSPropertyOp42
 70
     1
102
RTVSPropertyOp43
 70
     1
102
RTVSPropertyOp44
 70
     1
102
RTVSPropertyOp45
 70
     1
102
RTVSPropertyOp46
 70
     1
102
RTVSPropertyOp47
 70
     1
102
RTVSPropertyOp48
 70
     1
102
RTVSPropertyOp49
 70
     1
102
RTVSPropertyOp50
 70
     1
102
RTVSPropertyOp51
 70
     0
102
RTVSPropertyOp52
 70
     0
102
RTVSPropertyOp53
 70
     1
102
RTVSPropertyOp54
 70
     1
102
RTVSPropertyOp55
 70
     1
102
RTVSPropertyOp56
 70
     1
102
RTVSPropertyOp57
 70
     1
102
RTVSPropertyOp58
 70
     1
102
RTVSPropertyOp59
 70
     1
102
RTVSPropertyOp60
 70
     1
102
RTVSPropertyOp61
 70
     1
102
RTVSPropertyOp62
 70
     1
  0
XRECORD
  5
9D4F
102
{ACAD_REACTORS
330
9D4E
102
}
330
9D4E
100
AcDbXrecord
280
     1
102
RTVSPost2010Prop28
280
     0
102
RTVSPost2010PropOp28
 70
     1
102
RTVSPost2010Prop29
280
     1
102
RTVSPost2010PropOp29
 70
     1
102
RTVSPost2010Prop30
280
     1
102
RTVSPost2010PropOp30
 70
     1
102
RTVSPost2010Prop31
280
     0
102
RTVSPost2010PropOp31
 70
     1
102
RTVSPost2010Prop32
280
     0
102
RTVSPost2010PropOp32
 70
     1
102
RTVSPost2010Prop33
280
     0
102
RTVSPost2010PropOp33
 70
     1
102
RTVSPost2010Prop34
280
     0
102
RTVSPost2010PropOp34
 70
     1
102
RTVSPost2010Prop35
280
     0
102
RTVSPost2010PropOp35
 70
     1
102
RTVSPost2010Prop36
280
     0
102
RTVSPost2010PropOp36
 70
     1
102
RTVSPost2010Prop37
 90
       50
102
RTVSPost2010PropOp37
 70
     0
102
RTVSPost2010Prop38
140
0.0
102
RTVSPost2010PropOp38
 70
     0
102
RTVSPost2010Prop39
140
1.0
102
RTVSPost2010PropOp39
 70
     0
102
RTVSPost2010Prop40
 90
        0
102
RTVSPost2010PropOp40
 70
     0
102
RTVSPost2010Prop41ColorIndex
 90
       18
102
RTVSPost2010Prop41ColorRGB
 90
        0
102
RTVSPost2010PropOp41
 70
     0
102
RTVSPost2010Prop42
 90
       50
102
RTVSPost2010PropOp42
 70
     0
102
RTVSPost2010Prop43
 90
        3
102
RTVSPost2010PropOp43
 70
     0
102
RTVSPost2010Prop44ColorIndex
 90
        5
102
RTVSPost2010Prop44ColorRGB
 90
      255
102
RTVSPost2010PropOp44
 70
     0
102
RTVSPost2010Prop45
280
     0
102
RTVSPost2010PropOp45
 70
     1
102
RTVSPost2010Prop46
 90
       50
102
RTVSPost2010PropOp46
 70
     0
102
RTVSPost2010Prop47
 90
       50
102
RTVSPost2010PropOp47
 70
     0
102
RTVSPost2010Prop48
 90
       50
102
RTVSPost2010PropOp48
 70
     0
102
RTVSPost2010Prop49
280
     0
102
RTVSPost2010PropOp49
 70
     1
102
RTVSPost2010Prop50
 90
       50
102
RTVSPost2010PropOp50
 70
     0
102
RTVSPost2010Prop51ColorIndex
 90
      256
102
RTVSPost2010Prop51ColorRGB
 90
-16777216
102
RTVSPost2010PropOp51
 70
     0
102
RTVSPost2010Prop52
140
1.0
102
RTVSPost2010PropOp52
 70
     0
102
RTVSPost2010Prop53
 90
        2
102
RTVSPost2010PropOp53
 70
     0
102
RTVSPost2010Prop54
  1
strokes_ogs.tif
102
RTVSPost2010PropOp54
 70
     0
102
RTVSPost2010Prop55
280
     0
102
RTVSPost2010PropOp55
 70
     1
102
RTVSPost2010Prop56
140
1.0
102
RTVSPost2010PropOp56
 70
     0
102
RTVSPost2010Prop57
140
1.0
102
RTVSPost2010PropOp57
 70
     0
102
RTVSPropertyOp0
 70
     0
102
RTVSPropertyOp1
 70
     0
102
RTVSPropertyOp2
 70
     0
102
RTVSPropertyOp3
 70
     0
102
RTVSPropertyOp4
 70
     0
102
RTVSPropertyOp5
 70
     0
102
RTVSPropertyOp6
 70
     0
102
RTVSPropertyOp7
 70
     0
102
RTVSPropertyOp8
 70
     0
102
RTVSPropertyOp9
 70
     0
102
RTVSPropertyOp10
 70
     0
102
RTVSPropertyOp11
 70
     0
102
RTVSPropertyOp12
 70
     0
102
RTVSPropertyOp13
 70
     0
102
RTVSPropertyOp14
 70
     2
102
RTVSPropertyOp15
 70
     0
102
RTVSPropertyOp16
 70
     0
102
RTVSPropertyOp17
 70
     0
102
RTVSPropertyOp18
 70
     0
102
RTVSPropertyOp19
 70
     0
102
RTVSPropertyOp20
 70
     0
102
RTVSPropertyOp21
 70
     0
102
RTVSPropertyOp22
 70
     0
102
RTVSPropertyOp23
 70
     0
102
RTVSPropertyOp24
 70
     0
102
RTVSPropertyOp25
 70
     0
102
RTVSPropertyOp26
 70
     0
102
RTVSPropertyOp27
 70
     0
102
RTVSPropertyOp28
 70
     1
102
RTVSPropertyOp29
 70
     1
102
RTVSPropertyOp30
 70
     1
102
RTVSPropertyOp31
 70
     1
102
RTVSPropertyOp32
 70
     1
102
RTVSPropertyOp33
 70
     1
102
RTVSPropertyOp34
 70
     1
102
RTVSPropertyOp35
 70
     1
102
RTVSPropertyOp36
 70
     1
102
RTVSPropertyOp37
 70
     0
102
RTVSPropertyOp38
 70
     0
102
RTVSPropertyOp39
 70
     0
102
RTVSPropertyOp40
 70
     0
102
RTVSPropertyOp41
 70
     0
102
RTVSPropertyOp42
 70
     0
102
RTVSPropertyOp43
 70
     0
102
RTVSPropertyOp44
 70
     0
102
RTVSPropertyOp45
 70
     1
102
RTVSPropertyOp46
 70
     0
102
RTVSPropertyOp47
 70
     0
102
RTVSPropertyOp48
 70
     0
102
RTVSPropertyOp49
 70
     1
102
RTVSPropertyOp50
 70
     0
102
RTVSPropertyOp51
 70
     0
102
RTVSPropertyOp52
 70
     0
102
RTVSPropertyOp53
 70
     0
102
RTVSPropertyOp54
 70
     0
102
RTVSPropertyOp55
 70
     1
102
RTVSPropertyOp56
 70
     0
102
RTVSPropertyOp57
 70
     0
102
RTVSPropertyOp58
 70
     0
102
RTVSPropertyOp59
 70
     0
102
RTVSPropertyOp60
 70
     0
102
RTVSPropertyOp61
 70
     0
102
RTVSPropertyOp62
 70
     0
  0
XRECORD
  5
9D3D
102
{ACAD_REACTORS
330
9D3C
102
}
330
9D3C
100
AcDbXrecord
280
     1
102
RTVSPost2010Prop28
280
     0
102
RTVSPost2010PropOp28
 70
     1
102
RTVSPost2010Prop29
280
     1
102
RTVSPost2010PropOp29
 70
     1
102
RTVSPost2010Prop30
280
     1
102
RTVSPost2010PropOp30
 70
     1
102
RTVSPost2010Prop31
280
     0
102
RTVSPost2010PropOp31
 70
     1
102
RTVSPost2010Prop32
280
     0
102
RTVSPost2010PropOp32
 70
     1
102
RTVSPost2010Prop33
280
     0
102
RTVSPost2010PropOp33
 70
     1
102
RTVSPost2010Prop34
280
     0
102
RTVSPost2010PropOp34
 70
     1
102
RTVSPost2010Prop35
280
     0
102
RTVSPost2010PropOp35
 70
     1
102
RTVSPost2010Prop36
280
     0
102
RTVSPost2010PropOp36
 70
     1
102
RTVSPost2010Prop37
 90
       50
102
RTVSPost2010PropOp37
 70
     1
102
RTVSPost2010Prop38
140
0.0
102
RTVSPost2010PropOp38
 70
     1
102
RTVSPost2010Prop39
140
1.0
102
RTVSPost2010PropOp39
 70
     1
102
RTVSPost2010Prop40
 90
        0
102
RTVSPost2010PropOp40
 70
     1
102
RTVSPost2010Prop41ColorIndex
 90
       18
102
RTVSPost2010Prop41ColorRGB
 90
        0
102
RTVSPost2010PropOp41
 70
     1
102
RTVSPost2010Prop42
 90
       50
102
RTVSPost2010PropOp42
 70
     1
102
RTVSPost2010Prop43
 90
        3
102
RTVSPost2010PropOp43
 70
     1
102
RTVSPost2010Prop44ColorIndex
 90
        5
102
RTVSPost2010Prop44ColorRGB
 90
      255
102
RTVSPost2010PropOp44
 70
     1
102
RTVSPost2010Prop45
280
     0
102
RTVSPost2010PropOp45
 70
     1
102
RTVSPost2010Prop46
 90
       50
102
RTVSPost2010PropOp46
 70
     1
102
RTVSPost2010Prop47
 90
       50
102
RTVSPost2010PropOp47
 70
     1
102
RTVSPost2010Prop48
 90
       50
102
RTVSPost2010PropOp48
 70
     1
102
RTVSPost2010Prop49
280
     0
102
RTVSPost2010PropOp49
 70
     1
102
RTVSPost2010Prop50
 90
       50
102
RTVSPost2010PropOp50
 70
     1
102
RTVSPost2010Prop51ColorIndex
 90
      256
102
RTVSPost2010Prop51ColorRGB
 90
-16777216
102
RTVSPost2010PropOp51
 70
     0
102
RTVSPost2010Prop52
140
1.0
102
RTVSPost2010PropOp52
 70
     0
102
RTVSPost2010Prop53
 90
        2
102
RTVSPost2010PropOp53
 70
     1
102
RTVSPost2010Prop54
  1
strokes_ogs.tif
102
RTVSPost2010PropOp54
 70
     1
102
RTVSPost2010Prop55
280
     0
102
RTVSPost2010PropOp55
 70
     1
102
RTVSPost2010Prop56
140
1.0
102
RTVSPost2010PropOp56
 70
     1
102
RTVSPost2010Prop57
140
1.0
102
RTVSPost2010PropOp57
 70
     1
102
RTVSPropertyOp0
 70
     1
102
RTVSPropertyOp1
 70
     1
102
RTVSPropertyOp2
 70
     1
102
RTVSPropertyOp3
 70
     1
102
RTVSPropertyOp4
 70
     1
102
RTVSPropertyOp5
 70
     1
102
RTVSPropertyOp6
 70
     1
102
RTVSPropertyOp7
 70
     1
102
RTVSPropertyOp8
 70
     1
102
RTVSPropertyOp9
 70
     1
102
RTVSPropertyOp10
 70
     1
102
RTVSPropertyOp11
 70
     1
102
RTVSPropertyOp12
 70
     1
102
RTVSPropertyOp13
 70
     1
102
RTVSPropertyOp14
 70
     1
102
RTVSPropertyOp15
 70
     1
102
RTVSPropertyOp16
 70
     1
102
RTVSPropertyOp17
 70
     1
102
RTVSPropertyOp18
 70
     1
102
RTVSPropertyOp19
 70
     1
102
RTVSPropertyOp20
 70
     1
102
RTVSPropertyOp21
 70
     1
102
RTVSPropertyOp22
 70
     1
102
RTVSPropertyOp23
 70
     1
102
RTVSPropertyOp24
 70
     1
102
RTVSPropertyOp25
 70
     1
102
RTVSPropertyOp26
 70
     1
102
RTVSPropertyOp27
 70
     1
102
RTVSPropertyOp28
 70
     1
102
RTVSPropertyOp29
 70
     1
102
RTVSPropertyOp30
 70
     1
102
RTVSPropertyOp31
 70
     1
102
RTVSPropertyOp32
 70
     1
102
RTVSPropertyOp33
 70
     1
102
RTVSPropertyOp34
 70
     1
102
RTVSPropertyOp35
 70
     1
102
RTVSPropertyOp36
 70
     1
102
RTVSPropertyOp37
 70
     1
102
RTVSPropertyOp38
 70
     1
102
RTVSPropertyOp39
 70
     1
102
RTVSPropertyOp40
 70
     1
102
RTVSPropertyOp41
 70
     1
102
RTVSPropertyOp42
 70
     1
102
RTVSPropertyOp43
 70
     1
102
RTVSPropertyOp44
 70
     1
102
RTVSPropertyOp45
 70
     1
102
RTVSPropertyOp46
 70
     1
102
RTVSPropertyOp47
 70
     1
102
RTVSPropertyOp48
 70
     1
102
RTVSPropertyOp49
 70
     1
102
RTVSPropertyOp50
 70
     1
102
RTVSPropertyOp51
 70
     0
102
RTVSPropertyOp52
 70
     0
102
RTVSPropertyOp53
 70
     1
102
RTVSPropertyOp54
 70
     1
102
RTVSPropertyOp55
 70
     1
102
RTVSPropertyOp56
 70
     1
102
RTVSPropertyOp57
 70
     1
102
RTVSPropertyOp58
 70
     1
102
RTVSPropertyOp59
 70
     1
102
RTVSPropertyOp60
 70
     1
102
RTVSPropertyOp61
 70
     1
102
RTVSPropertyOp62
 70
     1
  0
XRECORD
  5
9D21
102
{ACAD_REACTORS
330
9D20
102
}
330
9D20
100
AcDbXrecord
280
     1
102
RTVSPost2010Prop28
280
     0
102
RTVSPost2010PropOp28
 70
     1
102
RTVSPost2010Prop29
280
     1
102
RTVSPost2010PropOp29
 70
     1
102
RTVSPost2010Prop30
280
     1
102
RTVSPost2010PropOp30
 70
     1
102
RTVSPost2010Prop31
280
     0
102
RTVSPost2010PropOp31
 70
     1
102
RTVSPost2010Prop32
280
     0
102
RTVSPost2010PropOp32
 70
     1
102
RTVSPost2010Prop33
280
     0
102
RTVSPost2010PropOp33
 70
     1
102
RTVSPost2010Prop34
280
     0
102
RTVSPost2010PropOp34
 70
     1
102
RTVSPost2010Prop35
280
     0
102
RTVSPost2010PropOp35
 70
     1
102
RTVSPost2010Prop36
280
     0
102
RTVSPost2010PropOp36
 70
     1
102
RTVSPost2010Prop37
 90
       50
102
RTVSPost2010PropOp37
 70
     1
102
RTVSPost2010Prop38
140
0.0
102
RTVSPost2010PropOp38
 70
     1
102
RTVSPost2010Prop39
140
1.0
102
RTVSPost2010PropOp39
 70
     1
102
RTVSPost2010Prop40
 90
        0
102
RTVSPost2010PropOp40
 70
     1
102
RTVSPost2010Prop41ColorIndex
 90
       18
102
RTVSPost2010Prop41ColorRGB
 90
        0
102
RTVSPost2010PropOp41
 70
     1
102
RTVSPost2010Prop42
 90
       50
102
RTVSPost2010PropOp42
 70
     1
102
RTVSPost2010Prop43
 90
        3
102
RTVSPost2010PropOp43
 70
     1
102
RTVSPost2010Prop44ColorIndex
 90
        5
102
RTVSPost2010Prop44ColorRGB
 90
      255
102
RTVSPost2010PropOp44
 70
     1
102
RTVSPost2010Prop45
280
     0
102
RTVSPost2010PropOp45
 70
     1
102
RTVSPost2010Prop46
 90
       50
102
RTVSPost2010PropOp46
 70
     1
102
RTVSPost2010Prop47
 90
       50
102
RTVSPost2010PropOp47
 70
     1
102
RTVSPost2010Prop48
 90
       50
102
RTVSPost2010PropOp48
 70
     1
102
RTVSPost2010Prop49
280
     0
102
RTVSPost2010PropOp49
 70
     1
102
RTVSPost2010Prop50
 90
       50
102
RTVSPost2010PropOp50
 70
     1
102
RTVSPost2010Prop51ColorIndex
 90
      256
102
RTVSPost2010Prop51ColorRGB
 90
-16777216
102
RTVSPost2010PropOp51
 70
     0
102
RTVSPost2010Prop52
140
1.0
102
RTVSPost2010PropOp52
 70
     0
102
RTVSPost2010Prop53
 90
        2
102
RTVSPost2010PropOp53
 70
     1
102
RTVSPost2010Prop54
  1
strokes_ogs.tif
102
RTVSPost2010PropOp54
 70
     1
102
RTVSPost2010Prop55
280
     0
102
RTVSPost2010PropOp55
 70
     1
102
RTVSPost2010Prop56
140
1.0
102
RTVSPost2010PropOp56
 70
     1
102
RTVSPost2010Prop57
140
1.0
102
RTVSPost2010PropOp57
 70
     1
102
RTVSPropertyOp0
 70
     1
102
RTVSPropertyOp1
 70
     1
102
RTVSPropertyOp2
 70
     1
102
RTVSPropertyOp3
 70
     1
102
RTVSPropertyOp4
 70
     1
102
RTVSPropertyOp5
 70
     1
102
RTVSPropertyOp6
 70
     1
102
RTVSPropertyOp7
 70
     1
102
RTVSPropertyOp8
 70
     1
102
RTVSPropertyOp9
 70
     1
102
RTVSPropertyOp10
 70
     1
102
RTVSPropertyOp11
 70
     1
102
RTVSPropertyOp12
 70
     1
102
RTVSPropertyOp13
 70
     1
102
RTVSPropertyOp14
 70
     1
102
RTVSPropertyOp15
 70
     1
102
RTVSPropertyOp16
 70
     1
102
RTVSPropertyOp17
 70
     1
102
RTVSPropertyOp18
 70
     1
102
RTVSPropertyOp19
 70
     1
102
RTVSPropertyOp20
 70
     1
102
RTVSPropertyOp21
 70
     1
102
RTVSPropertyOp22
 70
     1
102
RTVSPropertyOp23
 70
     1
102
RTVSPropertyOp24
 70
     1
102
RTVSPropertyOp25
 70
     1
102
RTVSPropertyOp26
 70
     1
102
RTVSPropertyOp27
 70
     1
102
RTVSPropertyOp28
 70
     1
102
RTVSPropertyOp29
 70
     1
102
RTVSPropertyOp30
 70
     1
102
RTVSPropertyOp31
 70
     1
102
RTVSPropertyOp32
 70
     1
102
RTVSPropertyOp33
 70
     1
102
RTVSPropertyOp34
 70
     1
102
RTVSPropertyOp35
 70
     1
102
RTVSPropertyOp36
 70
     1
102
RTVSPropertyOp37
 70
     1
102
RTVSPropertyOp38
 70
     1
102
RTVSPropertyOp39
 70
     1
102
RTVSPropertyOp40
 70
     1
102
RTVSPropertyOp41
 70
     1
102
RTVSPropertyOp42
 70
     1
102
RTVSPropertyOp43
 70
     1
102
RTVSPropertyOp44
 70
     1
102
RTVSPropertyOp45
 70
     1
102
RTVSPropertyOp46
 70
     1
102
RTVSPropertyOp47
 70
     1
102
RTVSPropertyOp48
 70
     1
102
RTVSPropertyOp49
 70
     1
102
RTVSPropertyOp50
 70
     1
102
RTVSPropertyOp51
 70
     0
102
RTVSPropertyOp52
 70
     0
102
RTVSPropertyOp53
 70
     1
102
RTVSPropertyOp54
 70
     1
102
RTVSPropertyOp55
 70
     1
102
RTVSPropertyOp56
 70
     1
102
RTVSPropertyOp57
 70
     1
102
RTVSPropertyOp58
 70
     1
102
RTVSPropertyOp59
 70
     1
102
RTVSPropertyOp60
 70
     1
102
RTVSPropertyOp61
 70
     1
102
RTVSPropertyOp62
 70
     1
  0
XRECORD
  5
9D23
102
{ACAD_REACTORS
330
9D22
102
}
330
9D22
100
AcDbXrecord
280
     1
102
RTVSPost2010Prop28
280
     0
102
RTVSPost2010PropOp28
 70
     1
102
RTVSPost2010Prop29
280
     1
102
RTVSPost2010PropOp29
 70
     1
102
RTVSPost2010Prop30
280
     1
102
RTVSPost2010PropOp30
 70
     1
102
RTVSPost2010Prop31
280
     0
102
RTVSPost2010PropOp31
 70
     1
102
RTVSPost2010Prop32
280
     0
102
RTVSPost2010PropOp32
 70
     1
102
RTVSPost2010Prop33
280
     0
102
RTVSPost2010PropOp33
 70
     1
102
RTVSPost2010Prop34
280
     0
102
RTVSPost2010PropOp34
 70
     1
102
RTVSPost2010Prop35
280
     0
102
RTVSPost2010PropOp35
 70
     1
102
RTVSPost2010Prop36
280
     0
102
RTVSPost2010PropOp36
 70
     1
102
RTVSPost2010Prop37
 90
       50
102
RTVSPost2010PropOp37
 70
     1
102
RTVSPost2010Prop38
140
0.0
102
RTVSPost2010PropOp38
 70
     1
102
RTVSPost2010Prop39
140
1.0
102
RTVSPost2010PropOp39
 70
     1
102
RTVSPost2010Prop40
 90
        0
102
RTVSPost2010PropOp40
 70
     1
102
RTVSPost2010Prop41ColorIndex
 90
       18
102
RTVSPost2010Prop41ColorRGB
 90
        0
102
RTVSPost2010PropOp41
 70
     1
102
RTVSPost2010Prop42
 90
       50
102
RTVSPost2010PropOp42
 70
     1
102
RTVSPost2010Prop43
 90
        3
102
RTVSPost2010PropOp43
 70
     1
102
RTVSPost2010Prop44ColorIndex
 90
        5
102
RTVSPost2010Prop44ColorRGB
 90
      255
102
RTVSPost2010PropOp44
 70
     1
102
RTVSPost2010Prop45
280
     0
102
RTVSPost2010PropOp45
 70
     1
102
RTVSPost2010Prop46
 90
       50
102
RTVSPost2010PropOp46
 70
     1
102
RTVSPost2010Prop47
 90
       50
102
RTVSPost2010PropOp47
 70
     1
102
RTVSPost2010Prop48
 90
       50
102
RTVSPost2010PropOp48
 70
     1
102
RTVSPost2010Prop49
280
     0
102
RTVSPost2010PropOp49
 70
     1
102
RTVSPost2010Prop50
 90
       50
102
RTVSPost2010PropOp50
 70
     1
102
RTVSPost2010Prop51ColorIndex
 90
      256
102
RTVSPost2010Prop51ColorRGB
 90
-16777216
102
RTVSPost2010PropOp51
 70
     0
102
RTVSPost2010Prop52
140
1.0
102
RTVSPost2010PropOp52
 70
     0
102
RTVSPost2010Prop53
 90
        2
102
RTVSPost2010PropOp53
 70
     1
102
RTVSPost2010Prop54
  1
strokes_ogs.tif
102
RTVSPost2010PropOp54
 70
     1
102
RTVSPost2010Prop55
280
     0
102
RTVSPost2010PropOp55
 70
     1
102
RTVSPost2010Prop56
140
1.0
102
RTVSPost2010PropOp56
 70
     1
102
RTVSPost2010Prop57
140
1.0
102
RTVSPost2010PropOp57
 70
     1
102
RTVSPropertyOp0
 70
     1
102
RTVSPropertyOp1
 70
     1
102
RTVSPropertyOp2
 70
     1
102
RTVSPropertyOp3
 70
     1
102
RTVSPropertyOp4
 70
     1
102
RTVSPropertyOp5
 70
     1
102
RTVSPropertyOp6
 70
     1
102
RTVSPropertyOp7
 70
     1
102
RTVSPropertyOp8
 70
     1
102
RTVSPropertyOp9
 70
     1
102
RTVSPropertyOp10
 70
     1
102
RTVSPropertyOp11
 70
     1
102
RTVSPropertyOp12
 70
     1
102
RTVSPropertyOp13
 70
     1
102
RTVSPropertyOp14
 70
     1
102
RTVSPropertyOp15
 70
     1
102
RTVSPropertyOp16
 70
     1
102
RTVSPropertyOp17
 70
     1
102
RTVSPropertyOp18
 70
     1
102
RTVSPropertyOp19
 70
     1
102
RTVSPropertyOp20
 70
     1
102
RTVSPropertyOp21
 70
     1
102
RTVSPropertyOp22
 70
     1
102
RTVSPropertyOp23
 70
     1
102
RTVSPropertyOp24
 70
     1
102
RTVSPropertyOp25
 70
     1
102
RTVSPropertyOp26
 70
     1
102
RTVSPropertyOp27
 70
     1
102
RTVSPropertyOp28
 70
     1
102
RTVSPropertyOp29
 70
     1
102
RTVSPropertyOp30
 70
     1
102
RTVSPropertyOp31
 70
     1
102
RTVSPropertyOp32
 70
     1
102
RTVSPropertyOp33
 70
     1
102
RTVSPropertyOp34
 70
     1
102
RTVSPropertyOp35
 70
     1
102
RTVSPropertyOp36
 70
     1
102
RTVSPropertyOp37
 70
     1
102
RTVSPropertyOp38
 70
     1
102
RTVSPropertyOp39
 70
     1
102
RTVSPropertyOp40
 70
     1
102
RTVSPropertyOp41
 70
     1
102
RTVSPropertyOp42
 70
     1
102
RTVSPropertyOp43
 70
     1
102
RTVSPropertyOp44
 70
     1
102
RTVSPropertyOp45
 70
     1
102
RTVSPropertyOp46
 70
     1
102
RTVSPropertyOp47
 70
     1
102
RTVSPropertyOp48
 70
     1
102
RTVSPropertyOp49
 70
     1
102
RTVSPropertyOp50
 70
     1
102
RTVSPropertyOp51
 70
     0
102
RTVSPropertyOp52
 70
     0
102
RTVSPropertyOp53
 70
     1
102
RTVSPropertyOp54
 70
     1
102
RTVSPropertyOp55
 70
     1
102
RTVSPropertyOp56
 70
     1
102
RTVSPropertyOp57
 70
     1
102
RTVSPropertyOp58
 70
     1
102
RTVSPropertyOp59
 70
     1
102
RTVSPropertyOp60
 70
     1
102
RTVSPropertyOp61
 70
     1
102
RTVSPropertyOp62
 70
     1
  0
XRECORD
  5
9D25
102
{ACAD_REACTORS
330
9D24
102
}
330
9D24
100
AcDbXrecord
280
     1
102
RTVSPost2010Prop28
280
     0
102
RTVSPost2010PropOp28
 70
     1
102
RTVSPost2010Prop29
280
     1
102
RTVSPost2010PropOp29
 70
     1
102
RTVSPost2010Prop30
280
     1
102
RTVSPost2010PropOp30
 70
     1
102
RTVSPost2010Prop31
280
     0
102
RTVSPost2010PropOp31
 70
     1
102
RTVSPost2010Prop32
280
     0
102
RTVSPost2010PropOp32
 70
     1
102
RTVSPost2010Prop33
280
     0
102
RTVSPost2010PropOp33
 70
     1
102
RTVSPost2010Prop34
280
     0
102
RTVSPost2010PropOp34
 70
     1
102
RTVSPost2010Prop35
280
     0
102
RTVSPost2010PropOp35
 70
     1
102
RTVSPost2010Prop36
280
     0
102
RTVSPost2010PropOp36
 70
     1
102
RTVSPost2010Prop37
 90
       50
102
RTVSPost2010PropOp37
 70
     1
102
RTVSPost2010Prop38
140
0.0
102
RTVSPost2010PropOp38
 70
     1
102
RTVSPost2010Prop39
140
1.0
102
RTVSPost2010PropOp39
 70
     1
102
RTVSPost2010Prop40
 90
        0
102
RTVSPost2010PropOp40
 70
     1
102
RTVSPost2010Prop41ColorIndex
 90
       18
102
RTVSPost2010Prop41ColorRGB
 90
        0
102
RTVSPost2010PropOp41
 70
     1
102
RTVSPost2010Prop42
 90
       50
102
RTVSPost2010PropOp42
 70
     1
102
RTVSPost2010Prop43
 90
        3
102
RTVSPost2010PropOp43
 70
     1
102
RTVSPost2010Prop44ColorIndex
 90
        5
102
RTVSPost2010Prop44ColorRGB
 90
      255
102
RTVSPost2010PropOp44
 70
     1
102
RTVSPost2010Prop45
280
     0
102
RTVSPost2010PropOp45
 70
     1
102
RTVSPost2010Prop46
 90
       50
102
RTVSPost2010PropOp46
 70
     1
102
RTVSPost2010Prop47
 90
       50
102
RTVSPost2010PropOp47
 70
     1
102
RTVSPost2010Prop48
 90
       50
102
RTVSPost2010PropOp48
 70
     1
102
RTVSPost2010Prop49
280
     0
102
RTVSPost2010PropOp49
 70
     1
102
RTVSPost2010Prop50
 90
       50
102
RTVSPost2010PropOp50
 70
     1
102
RTVSPost2010Prop51ColorIndex
 90
      256
102
RTVSPost2010Prop51ColorRGB
 90
-16777216
102
RTVSPost2010PropOp51
 70
     0
102
RTVSPost2010Prop52
140
1.0
102
RTVSPost2010PropOp52
 70
     0
102
RTVSPost2010Prop53
 90
        2
102
RTVSPost2010PropOp53
 70
     1
102
RTVSPost2010Prop54
  1
strokes_ogs.tif
102
RTVSPost2010PropOp54
 70
     1
102
RTVSPost2010Prop55
280
     0
102
RTVSPost2010PropOp55
 70
     1
102
RTVSPost2010Prop56
140
1.0
102
RTVSPost2010PropOp56
 70
     1
102
RTVSPost2010Prop57
140
1.0
102
RTVSPost2010PropOp57
 70
     1
102
RTVSPropertyOp0
 70
     1
102
RTVSPropertyOp1
 70
     1
102
RTVSPropertyOp2
 70
     1
102
RTVSPropertyOp3
 70
     1
102
RTVSPropertyOp4
 70
     1
102
RTVSPropertyOp5
 70
     1
102
RTVSPropertyOp6
 70
     1
102
RTVSPropertyOp7
 70
     1
102
RTVSPropertyOp8
 70
     1
102
RTVSPropertyOp9
 70
     1
102
RTVSPropertyOp10
 70
     1
102
RTVSPropertyOp11
 70
     1
102
RTVSPropertyOp12
 70
     1
102
RTVSPropertyOp13
 70
     1
102
RTVSPropertyOp14
 70
     1
102
RTVSPropertyOp15
 70
     1
102
RTVSPropertyOp16
 70
     1
102
RTVSPropertyOp17
 70
     1
102
RTVSPropertyOp18
 70
     1
102
RTVSPropertyOp19
 70
     1
102
RTVSPropertyOp20
 70
     1
102
RTVSPropertyOp21
 70
     1
102
RTVSPropertyOp22
 70
     1
102
RTVSPropertyOp23
 70
     1
102
RTVSPropertyOp24
 70
     1
102
RTVSPropertyOp25
 70
     1
102
RTVSPropertyOp26
 70
     1
102
RTVSPropertyOp27
 70
     1
102
RTVSPropertyOp28
 70
     1
102
RTVSPropertyOp29
 70
     1
102
RTVSPropertyOp30
 70
     1
102
RTVSPropertyOp31
 70
     1
102
RTVSPropertyOp32
 70
     1
102
RTVSPropertyOp33
 70
     1
102
RTVSPropertyOp34
 70
     1
102
RTVSPropertyOp35
 70
     1
102
RTVSPropertyOp36
 70
     1
102
RTVSPropertyOp37
 70
     1
102
RTVSPropertyOp38
 70
     1
102
RTVSPropertyOp39
 70
     1
102
RTVSPropertyOp40
 70
     1
102
RTVSPropertyOp41
 70
     1
102
RTVSPropertyOp42
 70
     1
102
RTVSPropertyOp43
 70
     1
102
RTVSPropertyOp44
 70
     1
102
RTVSPropertyOp45
 70
     1
102
RTVSPropertyOp46
 70
     1
102
RTVSPropertyOp47
 70
     1
102
RTVSPropertyOp48
 70
     1
102
RTVSPropertyOp49
 70
     1
102
RTVSPropertyOp50
 70
     1
102
RTVSPropertyOp51
 70
     0
102
RTVSPropertyOp52
 70
     0
102
RTVSPropertyOp53
 70
     1
102
RTVSPropertyOp54
 70
     1
102
RTVSPropertyOp55
 70
     1
102
RTVSPropertyOp56
 70
     1
102
RTVSPropertyOp57
 70
     1
102
RTVSPropertyOp58
 70
     1
102
RTVSPropertyOp59
 70
     1
102
RTVSPropertyOp60
 70
     1
102
RTVSPropertyOp61
 70
     1
102
RTVSPropertyOp62
 70
     1
  0
XRECORD
  5
9D27
102
{ACAD_REACTORS
330
9D26
102
}
330
9D26
100
AcDbXrecord
280
     1
102
RTVSPost2010Prop28
280
     0
102
RTVSPost2010PropOp28
 70
     1
102
RTVSPost2010Prop29
280
     1
102
RTVSPost2010PropOp29
 70
     1
102
RTVSPost2010Prop30
280
     1
102
RTVSPost2010PropOp30
 70
     1
102
RTVSPost2010Prop31
280
     0
102
RTVSPost2010PropOp31
 70
     1
102
RTVSPost2010Prop32
280
     0
102
RTVSPost2010PropOp32
 70
     1
102
RTVSPost2010Prop33
280
     0
102
RTVSPost2010PropOp33
 70
     1
102
RTVSPost2010Prop34
280
     0
102
RTVSPost2010PropOp34
 70
     1
102
RTVSPost2010Prop35
280
     0
102
RTVSPost2010PropOp35
 70
     1
102
RTVSPost2010Prop36
280
     0
102
RTVSPost2010PropOp36
 70
     1
102
RTVSPost2010Prop37
 90
       50
102
RTVSPost2010PropOp37
 70
     1
102
RTVSPost2010Prop38
140
0.0
102
RTVSPost2010PropOp38
 70
     1
102
RTVSPost2010Prop39
140
1.0
102
RTVSPost2010PropOp39
 70
     1
102
RTVSPost2010Prop40
 90
        0
102
RTVSPost2010PropOp40
 70
     1
102
RTVSPost2010Prop41ColorIndex
 90
       18
102
RTVSPost2010Prop41ColorRGB
 90
        0
102
RTVSPost2010PropOp41
 70
     1
102
RTVSPost2010Prop42
 90
       50
102
RTVSPost2010PropOp42
 70
     1
102
RTVSPost2010Prop43
 90
        3
102
RTVSPost2010PropOp43
 70
     1
102
RTVSPost2010Prop44ColorIndex
 90
        5
102
RTVSPost2010Prop44ColorRGB
 90
      255
102
RTVSPost2010PropOp44
 70
     1
102
RTVSPost2010Prop45
280
     0
102
RTVSPost2010PropOp45
 70
     1
102
RTVSPost2010Prop46
 90
       50
102
RTVSPost2010PropOp46
 70
     1
102
RTVSPost2010Prop47
 90
       50
102
RTVSPost2010PropOp47
 70
     1
102
RTVSPost2010Prop48
 90
       50
102
RTVSPost2010PropOp48
 70
     1
102
RTVSPost2010Prop49
280
     0
102
RTVSPost2010PropOp49
 70
     1
102
RTVSPost2010Prop50
 90
       50
102
RTVSPost2010PropOp50
 70
     1
102
RTVSPost2010Prop51ColorIndex
 90
      256
102
RTVSPost2010Prop51ColorRGB
 90
-16777216
102
RTVSPost2010PropOp51
 70
     0
102
RTVSPost2010Prop52
140
1.0
102
RTVSPost2010PropOp52
 70
     0
102
RTVSPost2010Prop53
 90
        2
102
RTVSPost2010PropOp53
 70
     1
102
RTVSPost2010Prop54
  1
strokes_ogs.tif
102
RTVSPost2010PropOp54
 70
     1
102
RTVSPost2010Prop55
280
     0
102
RTVSPost2010PropOp55
 70
     1
102
RTVSPost2010Prop56
140
1.0
102
RTVSPost2010PropOp56
 70
     1
102
RTVSPost2010Prop57
140
1.0
102
RTVSPost2010PropOp57
 70
     1
102
RTVSPropertyOp0
 70
     1
102
RTVSPropertyOp1
 70
     1
102
RTVSPropertyOp2
 70
     1
102
RTVSPropertyOp3
 70
     1
102
RTVSPropertyOp4
 70
     1
102
RTVSPropertyOp5
 70
     1
102
RTVSPropertyOp6
 70
     1
102
RTVSPropertyOp7
 70
     1
102
RTVSPropertyOp8
 70
     1
102
RTVSPropertyOp9
 70
     1
102
RTVSPropertyOp10
 70
     1
102
RTVSPropertyOp11
 70
     1
102
RTVSPropertyOp12
 70
     1
102
RTVSPropertyOp13
 70
     1
102
RTVSPropertyOp14
 70
     1
102
RTVSPropertyOp15
 70
     1
102
RTVSPropertyOp16
 70
     1
102
RTVSPropertyOp17
 70
     1
102
RTVSPropertyOp18
 70
     1
102
RTVSPropertyOp19
 70
     1
102
RTVSPropertyOp20
 70
     1
102
RTVSPropertyOp21
 70
     1
102
RTVSPropertyOp22
 70
     1
102
RTVSPropertyOp23
 70
     1
102
RTVSPropertyOp24
 70
     1
102
RTVSPropertyOp25
 70
     1
102
RTVSPropertyOp26
 70
     1
102
RTVSPropertyOp27
 70
     1
102
RTVSPropertyOp28
 70
     1
102
RTVSPropertyOp29
 70
     1
102
RTVSPropertyOp30
 70
     1
102
RTVSPropertyOp31
 70
     1
102
RTVSPropertyOp32
 70
     1
102
RTVSPropertyOp33
 70
     1
102
RTVSPropertyOp34
 70
     1
102
RTVSPropertyOp35
 70
     1
102
RTVSPropertyOp36
 70
     1
102
RTVSPropertyOp37
 70
     1
102
RTVSPropertyOp38
 70
     1
102
RTVSPropertyOp39
 70
     1
102
RTVSPropertyOp40
 70
     1
102
RTVSPropertyOp41
 70
     1
102
RTVSPropertyOp42
 70
     1
102
RTVSPropertyOp43
 70
     1
102
RTVSPropertyOp44
 70
     1
102
RTVSPropertyOp45
 70
     1
102
RTVSPropertyOp46
 70
     1
102
RTVSPropertyOp47
 70
     1
102
RTVSPropertyOp48
 70
     1
102
RTVSPropertyOp49
 70
     1
102
RTVSPropertyOp50
 70
     1
102
RTVSPropertyOp51
 70
     0
102
RTVSPropertyOp52
 70
     0
102
RTVSPropertyOp53
 70
     1
102
RTVSPropertyOp54
 70
     1
102
RTVSPropertyOp55
 70
     1
102
RTVSPropertyOp56
 70
     1
102
RTVSPropertyOp57
 70
     1
102
RTVSPropertyOp58
 70
     1
102
RTVSPropertyOp59
 70
     1
102
RTVSPropertyOp60
 70
     1
102
RTVSPropertyOp61
 70
     1
102
RTVSPropertyOp62
 70
     1
  0
XRECORD
  5
9D2F
102
{ACAD_REACTORS
330
9D2E
102
}
330
9D2E
100
AcDbXrecord
280
     1
102
RTVSPost2010Prop28
280
     0
102
RTVSPost2010PropOp28
 70
     1
102
RTVSPost2010Prop29
280
     1
102
RTVSPost2010PropOp29
 70
     1
102
RTVSPost2010Prop30
280
     1
102
RTVSPost2010PropOp30
 70
     1
102
RTVSPost2010Prop31
280
     0
102
RTVSPost2010PropOp31
 70
     1
102
RTVSPost2010Prop32
280
     0
102
RTVSPost2010PropOp32
 70
     1
102
RTVSPost2010Prop33
280
     0
102
RTVSPost2010PropOp33
 70
     1
102
RTVSPost2010Prop34
280
     0
102
RTVSPost2010PropOp34
 70
     1
102
RTVSPost2010Prop35
280
     0
102
RTVSPost2010PropOp35
 70
     1
102
RTVSPost2010Prop36
280
     0
102
RTVSPost2010PropOp36
 70
     1
102
RTVSPost2010Prop37
 90
       50
102
RTVSPost2010PropOp37
 70
     1
102
RTVSPost2010Prop38
140
0.0
102
RTVSPost2010PropOp38
 70
     1
102
RTVSPost2010Prop39
140
1.0
102
RTVSPost2010PropOp39
 70
     1
102
RTVSPost2010Prop40
 90
        0
102
RTVSPost2010PropOp40
 70
     1
102
RTVSPost2010Prop41ColorIndex
 90
       18
102
RTVSPost2010Prop41ColorRGB
 90
        0
102
RTVSPost2010PropOp41
 70
     1
102
RTVSPost2010Prop42
 90
       50
102
RTVSPost2010PropOp42
 70
     1
102
RTVSPost2010Prop43
 90
        3
102
RTVSPost2010PropOp43
 70
     1
102
RTVSPost2010Prop44ColorIndex
 90
        5
102
RTVSPost2010Prop44ColorRGB
 90
      255
102
RTVSPost2010PropOp44
 70
     1
102
RTVSPost2010Prop45
280
     0
102
RTVSPost2010PropOp45
 70
     1
102
RTVSPost2010Prop46
 90
       50
102
RTVSPost2010PropOp46
 70
     1
102
RTVSPost2010Prop47
 90
       50
102
RTVSPost2010PropOp47
 70
     1
102
RTVSPost2010Prop48
 90
       50
102
RTVSPost2010PropOp48
 70
     1
102
RTVSPost2010Prop49
280
     0
102
RTVSPost2010PropOp49
 70
     1
102
RTVSPost2010Prop50
 90
       50
102
RTVSPost2010PropOp50
 70
     1
102
RTVSPost2010Prop51ColorIndex
 90
      256
102
RTVSPost2010Prop51ColorRGB
 90
-16777216
102
RTVSPost2010PropOp51
 70
     0
102
RTVSPost2010Prop52
140
1.0
102
RTVSPost2010PropOp52
 70
     0
102
RTVSPost2010Prop53
 90
        2
102
RTVSPost2010PropOp53
 70
     1
102
RTVSPost2010Prop54
  1
strokes_ogs.tif
102
RTVSPost2010PropOp54
 70
     1
102
RTVSPost2010Prop55
280
     0
102
RTVSPost2010PropOp55
 70
     1
102
RTVSPost2010Prop56
140
1.0
102
RTVSPost2010PropOp56
 70
     1
102
RTVSPost2010Prop57
140
1.0
102
RTVSPost2010PropOp57
 70
     1
102
RTVSPropertyOp0
 70
     1
102
RTVSPropertyOp1
 70
     1
102
RTVSPropertyOp2
 70
     1
102
RTVSPropertyOp3
 70
     1
102
RTVSPropertyOp4
 70
     1
102
RTVSPropertyOp5
 70
     1
102
RTVSPropertyOp6
 70
     1
102
RTVSPropertyOp7
 70
     1
102
RTVSPropertyOp8
 70
     1
102
RTVSPropertyOp9
 70
     1
102
RTVSPropertyOp10
 70
     1
102
RTVSPropertyOp11
 70
     1
102
RTVSPropertyOp12
 70
     1
102
RTVSPropertyOp13
 70
     1
102
RTVSPropertyOp14
 70
     1
102
RTVSPropertyOp15
 70
     1
102
RTVSPropertyOp16
 70
     1
102
RTVSPropertyOp17
 70
     1
102
RTVSPropertyOp18
 70
     1
102
RTVSPropertyOp19
 70
     1
102
RTVSPropertyOp20
 70
     1
102
RTVSPropertyOp21
 70
     1
102
RTVSPropertyOp22
 70
     1
102
RTVSPropertyOp23
 70
     1
102
RTVSPropertyOp24
 70
     1
102
RTVSPropertyOp25
 70
     1
102
RTVSPropertyOp26
 70
     1
102
RTVSPropertyOp27
 70
     1
102
RTVSPropertyOp28
 70
     1
102
RTVSPropertyOp29
 70
     1
102
RTVSPropertyOp30
 70
     1
102
RTVSPropertyOp31
 70
     1
102
RTVSPropertyOp32
 70
     1
102
RTVSPropertyOp33
 70
     1
102
RTVSPropertyOp34
 70
     1
102
RTVSPropertyOp35
 70
     1
102
RTVSPropertyOp36
 70
     1
102
RTVSPropertyOp37
 70
     1
102
RTVSPropertyOp38
 70
     1
102
RTVSPropertyOp39
 70
     1
102
RTVSPropertyOp40
 70
     1
102
RTVSPropertyOp41
 70
     1
102
RTVSPropertyOp42
 70
     1
102
RTVSPropertyOp43
 70
     1
102
RTVSPropertyOp44
 70
     1
102
RTVSPropertyOp45
 70
     1
102
RTVSPropertyOp46
 70
     1
102
RTVSPropertyOp47
 70
     1
102
RTVSPropertyOp48
 70
     1
102
RTVSPropertyOp49
 70
     1
102
RTVSPropertyOp50
 70
     1
102
RTVSPropertyOp51
 70
     0
102
RTVSPropertyOp52
 70
     0
102
RTVSPropertyOp53
 70
     1
102
RTVSPropertyOp54
 70
     1
102
RTVSPropertyOp55
 70
     1
102
RTVSPropertyOp56
 70
     1
102
RTVSPropertyOp57
 70
     1
102
RTVSPropertyOp58
 70
     1
102
RTVSPropertyOp59
 70
     1
102
RTVSPropertyOp60
 70
     1
102
RTVSPropertyOp61
 70
     1
102
RTVSPropertyOp62
 70
     1
  0
XRECORD
  5
9D4B
102
{ACAD_REACTORS
330
9D4A
102
}
330
9D4A
100
AcDbXrecord
280
     1
102
RTVSPost2010Prop28
280
     0
102
RTVSPost2010PropOp28
 70
     1
102
RTVSPost2010Prop29
280
     1
102
RTVSPost2010PropOp29
 70
     1
102
RTVSPost2010Prop30
280
     1
102
RTVSPost2010PropOp30
 70
     1
102
RTVSPost2010Prop31
280
     0
102
RTVSPost2010PropOp31
 70
     1
102
RTVSPost2010Prop32
280
     0
102
RTVSPost2010PropOp32
 70
     1
102
RTVSPost2010Prop33
280
     0
102
RTVSPost2010PropOp33
 70
     1
102
RTVSPost2010Prop34
280
     0
102
RTVSPost2010PropOp34
 70
     1
102
RTVSPost2010Prop35
280
     0
102
RTVSPost2010PropOp35
 70
     1
102
RTVSPost2010Prop36
280
     0
102
RTVSPost2010PropOp36
 70
     1
102
RTVSPost2010Prop37
 90
       50
102
RTVSPost2010PropOp37
 70
     0
102
RTVSPost2010Prop38
140
0.0
102
RTVSPost2010PropOp38
 70
     0
102
RTVSPost2010Prop39
140
1.0
102
RTVSPost2010PropOp39
 70
     0
102
RTVSPost2010Prop40
 90
        0
102
RTVSPost2010PropOp40
 70
     0
102
RTVSPost2010Prop41ColorIndex
 90
       18
102
RTVSPost2010Prop41ColorRGB
 90
        0
102
RTVSPost2010PropOp41
 70
     0
102
RTVSPost2010Prop42
 90
       50
102
RTVSPost2010PropOp42
 70
     0
102
RTVSPost2010Prop43
 90
        3
102
RTVSPost2010PropOp43
 70
     0
102
RTVSPost2010Prop44ColorIndex
 90
        5
102
RTVSPost2010Prop44ColorRGB
 90
      255
102
RTVSPost2010PropOp44
 70
     0
102
RTVSPost2010Prop45
280
     0
102
RTVSPost2010PropOp45
 70
     1
102
RTVSPost2010Prop46
 90
       50
102
RTVSPost2010PropOp46
 70
     0
102
RTVSPost2010Prop47
 90
       50
102
RTVSPost2010PropOp47
 70
     0
102
RTVSPost2010Prop48
 90
       50
102
RTVSPost2010PropOp48
 70
     0
102
RTVSPost2010Prop49
280
     0
102
RTVSPost2010PropOp49
 70
     1
102
RTVSPost2010Prop50
 90
       50
102
RTVSPost2010PropOp50
 70
     0
102
RTVSPost2010Prop51ColorIndex
 90
      256
102
RTVSPost2010Prop51ColorRGB
 90
-16777216
102
RTVSPost2010PropOp51
 70
     0
102
RTVSPost2010Prop52
140
1.0
102
RTVSPost2010PropOp52
 70
     0
102
RTVSPost2010Prop53
 90
        2
102
RTVSPost2010PropOp53
 70
     0
102
RTVSPost2010Prop54
  1
strokes_ogs.tif
102
RTVSPost2010PropOp54
 70
     0
102
RTVSPost2010Prop55
280
     0
102
RTVSPost2010PropOp55
 70
     1
102
RTVSPost2010Prop56
140
1.0
102
RTVSPost2010PropOp56
 70
     0
102
RTVSPost2010Prop57
140
1.0
102
RTVSPost2010PropOp57
 70
     0
102
RTVSPropertyOp0
 70
     0
102
RTVSPropertyOp1
 70
     0
102
RTVSPropertyOp2
 70
     0
102
RTVSPropertyOp3
 70
     0
102
RTVSPropertyOp4
 70
     0
102
RTVSPropertyOp5
 70
     0
102
RTVSPropertyOp6
 70
     0
102
RTVSPropertyOp7
 70
     0
102
RTVSPropertyOp8
 70
     0
102
RTVSPropertyOp9
 70
     0
102
RTVSPropertyOp10
 70
     0
102
RTVSPropertyOp11
 70
     0
102
RTVSPropertyOp12
 70
     0
102
RTVSPropertyOp13
 70
     0
102
RTVSPropertyOp14
 70
     2
102
RTVSPropertyOp15
 70
     0
102
RTVSPropertyOp16
 70
     0
102
RTVSPropertyOp17
 70
     0
102
RTVSPropertyOp18
 70
     0
102
RTVSPropertyOp19
 70
     0
102
RTVSPropertyOp20
 70
     0
102
RTVSPropertyOp21
 70
     0
102
RTVSPropertyOp22
 70
     0
102
RTVSPropertyOp23
 70
     0
102
RTVSPropertyOp24
 70
     0
102
RTVSPropertyOp25
 70
     0
102
RTVSPropertyOp26
 70
     0
102
RTVSPropertyOp27
 70
     0
102
RTVSPropertyOp28
 70
     1
102
RTVSPropertyOp29
 70
     1
102
RTVSPropertyOp30
 70
     1
102
RTVSPropertyOp31
 70
     1
102
RTVSPropertyOp32
 70
     1
102
RTVSPropertyOp33
 70
     1
102
RTVSPropertyOp34
 70
     1
102
RTVSPropertyOp35
 70
     1
102
RTVSPropertyOp36
 70
     1
102
RTVSPropertyOp37
 70
     0
102
RTVSPropertyOp38
 70
     0
102
RTVSPropertyOp39
 70
     0
102
RTVSPropertyOp40
 70
     0
102
RTVSPropertyOp41
 70
     0
102
RTVSPropertyOp42
 70
     0
102
RTVSPropertyOp43
 70
     0
102
RTVSPropertyOp44
 70
     0
102
RTVSPropertyOp45
 70
     1
102
RTVSPropertyOp46
 70
     0
102
RTVSPropertyOp47
 70
     0
102
RTVSPropertyOp48
 70
     0
102
RTVSPropertyOp49
 70
     1
102
RTVSPropertyOp50
 70
     0
102
RTVSPropertyOp51
 70
     0
102
RTVSPropertyOp52
 70
     0
102
RTVSPropertyOp53
 70
     0
102
RTVSPropertyOp54
 70
     0
102
RTVSPropertyOp55
 70
     1
102
RTVSPropertyOp56
 70
     0
102
RTVSPropertyOp57
 70
     0
102
RTVSPropertyOp58
 70
     0
102
RTVSPropertyOp59
 70
     0
102
RTVSPropertyOp60
 70
     0
102
RTVSPropertyOp61
 70
     0
102
RTVSPropertyOp62
 70
     0
  0
XRECORD
  5
9D3B
102
{ACAD_REACTORS
330
9D3A
102
}
330
9D3A
100
AcDbXrecord
280
     1
102
RTVSPost2010Prop28
280
     0
102
RTVSPost2010PropOp28
 70
     1
102
RTVSPost2010Prop29
280
     1
102
RTVSPost2010PropOp29
 70
     1
102
RTVSPost2010Prop30
280
     1
102
RTVSPost2010PropOp30
 70
     1
102
RTVSPost2010Prop31
280
     0
102
RTVSPost2010PropOp31
 70
     1
102
RTVSPost2010Prop32
280
     0
102
RTVSPost2010PropOp32
 70
     1
102
RTVSPost2010Prop33
280
     0
102
RTVSPost2010PropOp33
 70
     1
102
RTVSPost2010Prop34
280
     0
102
RTVSPost2010PropOp34
 70
     1
102
RTVSPost2010Prop35
280
     0
102
RTVSPost2010PropOp35
 70
     1
102
RTVSPost2010Prop36
280
     0
102
RTVSPost2010PropOp36
 70
     1
102
RTVSPost2010Prop37
 90
       50
102
RTVSPost2010PropOp37
 70
     1
102
RTVSPost2010Prop38
140
0.0
102
RTVSPost2010PropOp38
 70
     1
102
RTVSPost2010Prop39
140
1.0
102
RTVSPost2010PropOp39
 70
     1
102
RTVSPost2010Prop40
 90
        0
102
RTVSPost2010PropOp40
 70
     1
102
RTVSPost2010Prop41ColorIndex
 90
       18
102
RTVSPost2010Prop41ColorRGB
 90
        0
102
RTVSPost2010PropOp41
 70
     1
102
RTVSPost2010Prop42
 90
       50
102
RTVSPost2010PropOp42
 70
     1
102
RTVSPost2010Prop43
 90
        3
102
RTVSPost2010PropOp43
 70
     1
102
RTVSPost2010Prop44ColorIndex
 90
        5
102
RTVSPost2010Prop44ColorRGB
 90
      255
102
RTVSPost2010PropOp44
 70
     1
102
RTVSPost2010Prop45
280
     0
102
RTVSPost2010PropOp45
 70
     1
102
RTVSPost2010Prop46
 90
       50
102
RTVSPost2010PropOp46
 70
     1
102
RTVSPost2010Prop47
 90
       50
102
RTVSPost2010PropOp47
 70
     1
102
RTVSPost2010Prop48
 90
       50
102
RTVSPost2010PropOp48
 70
     1
102
RTVSPost2010Prop49
280
     0
102
RTVSPost2010PropOp49
 70
     1
102
RTVSPost2010Prop50
 90
       50
102
RTVSPost2010PropOp50
 70
     1
102
RTVSPost2010Prop51ColorIndex
 90
      256
102
RTVSPost2010Prop51ColorRGB
 90
-16777216
102
RTVSPost2010PropOp51
 70
     0
102
RTVSPost2010Prop52
140
1.0
102
RTVSPost2010PropOp52
 70
     0
102
RTVSPost2010Prop53
 90
        2
102
RTVSPost2010PropOp53
 70
     1
102
RTVSPost2010Prop54
  1
strokes_ogs.tif
102
RTVSPost2010PropOp54
 70
     1
102
RTVSPost2010Prop55
280
     0
102
RTVSPost2010PropOp55
 70
     1
102
RTVSPost2010Prop56
140
1.0
102
RTVSPost2010PropOp56
 70
     1
102
RTVSPost2010Prop57
140
1.0
102
RTVSPost2010PropOp57
 70
     1
102
RTVSPropertyOp0
 70
     1
102
RTVSPropertyOp1
 70
     1
102
RTVSPropertyOp2
 70
     1
102
RTVSPropertyOp3
 70
     1
102
RTVSPropertyOp4
 70
     1
102
RTVSPropertyOp5
 70
     1
102
RTVSPropertyOp6
 70
     1
102
RTVSPropertyOp7
 70
     1
102
RTVSPropertyOp8
 70
     1
102
RTVSPropertyOp9
 70
     1
102
RTVSPropertyOp10
 70
     1
102
RTVSPropertyOp11
 70
     1
102
RTVSPropertyOp12
 70
     1
102
RTVSPropertyOp13
 70
     1
102
RTVSPropertyOp14
 70
     1
102
RTVSPropertyOp15
 70
     1
102
RTVSPropertyOp16
 70
     1
102
RTVSPropertyOp17
 70
     1
102
RTVSPropertyOp18
 70
     1
102
RTVSPropertyOp19
 70
     1
102
RTVSPropertyOp20
 70
     1
102
RTVSPropertyOp21
 70
     1
102
RTVSPropertyOp22
 70
     1
102
RTVSPropertyOp23
 70
     1
102
RTVSPropertyOp24
 70
     1
102
RTVSPropertyOp25
 70
     1
102
RTVSPropertyOp26
 70
     1
102
RTVSPropertyOp27
 70
     1
102
RTVSPropertyOp28
 70
     1
102
RTVSPropertyOp29
 70
     1
102
RTVSPropertyOp30
 70
     1
102
RTVSPropertyOp31
 70
     1
102
RTVSPropertyOp32
 70
     1
102
RTVSPropertyOp33
 70
     1
102
RTVSPropertyOp34
 70
     1
102
RTVSPropertyOp35
 70
     1
102
RTVSPropertyOp36
 70
     1
102
RTVSPropertyOp37
 70
     1
102
RTVSPropertyOp38
 70
     1
102
RTVSPropertyOp39
 70
     1
102
RTVSPropertyOp40
 70
     1
102
RTVSPropertyOp41
 70
     1
102
RTVSPropertyOp42
 70
     1
102
RTVSPropertyOp43
 70
     1
102
RTVSPropertyOp44
 70
     1
102
RTVSPropertyOp45
 70
     1
102
RTVSPropertyOp46
 70
     1
102
RTVSPropertyOp47
 70
     1
102
RTVSPropertyOp48
 70
     1
102
RTVSPropertyOp49
 70
     1
102
RTVSPropertyOp50
 70
     1
102
RTVSPropertyOp51
 70
     0
102
RTVSPropertyOp52
 70
     0
102
RTVSPropertyOp53
 70
     1
102
RTVSPropertyOp54
 70
     1
102
RTVSPropertyOp55
 70
     1
102
RTVSPropertyOp56
 70
     1
102
RTVSPropertyOp57
 70
     1
102
RTVSPropertyOp58
 70
     1
102
RTVSPropertyOp59
 70
     1
102
RTVSPropertyOp60
 70
     1
102
RTVSPropertyOp61
 70
     1
102
RTVSPropertyOp62
 70
     1
  0
XRECORD
  5
9D4D
102
{ACAD_REACTORS
330
9D4C
102
}
330
9D4C
100
AcDbXrecord
280
     1
102
RTVSPost2010Prop28
280
     0
102
RTVSPost2010PropOp28
 70
     1
102
RTVSPost2010Prop29
280
     1
102
RTVSPost2010PropOp29
 70
     1
102
RTVSPost2010Prop30
280
     1
102
RTVSPost2010PropOp30
 70
     1
102
RTVSPost2010Prop31
280
     0
102
RTVSPost2010PropOp31
 70
     1
102
RTVSPost2010Prop32
280
     0
102
RTVSPost2010PropOp32
 70
     1
102
RTVSPost2010Prop33
280
     0
102
RTVSPost2010PropOp33
 70
     1
102
RTVSPost2010Prop34
280
     0
102
RTVSPost2010PropOp34
 70
     1
102
RTVSPost2010Prop35
280
     0
102
RTVSPost2010PropOp35
 70
     1
102
RTVSPost2010Prop36
280
     0
102
RTVSPost2010PropOp36
 70
     1
102
RTVSPost2010Prop37
 90
       50
102
RTVSPost2010PropOp37
 70
     0
102
RTVSPost2010Prop38
140
0.0
102
RTVSPost2010PropOp38
 70
     0
102
RTVSPost2010Prop39
140
1.0
102
RTVSPost2010PropOp39
 70
     0
102
RTVSPost2010Prop40
 90
        0
102
RTVSPost2010PropOp40
 70
     0
102
RTVSPost2010Prop41ColorIndex
 90
       18
102
RTVSPost2010Prop41ColorRGB
 90
        0
102
RTVSPost2010PropOp41
 70
     0
102
RTVSPost2010Prop42
 90
       50
102
RTVSPost2010PropOp42
 70
     0
102
RTVSPost2010Prop43
 90
        3
102
RTVSPost2010PropOp43
 70
     0
102
RTVSPost2010Prop44ColorIndex
 90
        5
102
RTVSPost2010Prop44ColorRGB
 90
      255
102
RTVSPost2010PropOp44
 70
     0
102
RTVSPost2010Prop45
280
     0
102
RTVSPost2010PropOp45
 70
     1
102
RTVSPost2010Prop46
 90
       50
102
RTVSPost2010PropOp46
 70
     0
102
RTVSPost2010Prop47
 90
       50
102
RTVSPost2010PropOp47
 70
     0
102
RTVSPost2010Prop48
 90
       50
102
RTVSPost2010PropOp48
 70
     0
102
RTVSPost2010Prop49
280
     0
102
RTVSPost2010PropOp49
 70
     1
102
RTVSPost2010Prop50
 90
       50
102
RTVSPost2010PropOp50
 70
     0
102
RTVSPost2010Prop51ColorIndex
 90
      256
102
RTVSPost2010Prop51ColorRGB
 90
-16777216
102
RTVSPost2010PropOp51
 70
     0
102
RTVSPost2010Prop52
140
1.0
102
RTVSPost2010PropOp52
 70
     0
102
RTVSPost2010Prop53
 90
        2
102
RTVSPost2010PropOp53
 70
     0
102
RTVSPost2010Prop54
  1
strokes_ogs.tif
102
RTVSPost2010PropOp54
 70
     0
102
RTVSPost2010Prop55
280
     0
102
RTVSPost2010PropOp55
 70
     1
102
RTVSPost2010Prop56
140
1.0
102
RTVSPost2010PropOp56
 70
     0
102
RTVSPost2010Prop57
140
1.0
102
RTVSPost2010PropOp57
 70
     0
102
RTVSPropertyOp0
 70
     0
102
RTVSPropertyOp1
 70
     0
102
RTVSPropertyOp2
 70
     0
102
RTVSPropertyOp3
 70
     0
102
RTVSPropertyOp4
 70
     0
102
RTVSPropertyOp5
 70
     0
102
RTVSPropertyOp6
 70
     0
102
RTVSPropertyOp7
 70
     0
102
RTVSPropertyOp8
 70
     0
102
RTVSPropertyOp9
 70
     0
102
RTVSPropertyOp10
 70
     0
102
RTVSPropertyOp11
 70
     0
102
RTVSPropertyOp12
 70
     0
102
RTVSPropertyOp13
 70
     0
102
RTVSPropertyOp14
 70
     2
102
RTVSPropertyOp15
 70
     0
102
RTVSPropertyOp16
 70
     0
102
RTVSPropertyOp17
 70
     0
102
RTVSPropertyOp18
 70
     0
102
RTVSPropertyOp19
 70
     0
102
RTVSPropertyOp20
 70
     0
102
RTVSPropertyOp21
 70
     0
102
RTVSPropertyOp22
 70
     0
102
RTVSPropertyOp23
 70
     0
102
RTVSPropertyOp24
 70
     0
102
RTVSPropertyOp25
 70
     0
102
RTVSPropertyOp26
 70
     0
102
RTVSPropertyOp27
 70
     0
102
RTVSPropertyOp28
 70
     1
102
RTVSPropertyOp29
 70
     1
102
RTVSPropertyOp30
 70
     1
102
RTVSPropertyOp31
 70
     1
102
RTVSPropertyOp32
 70
     1
102
RTVSPropertyOp33
 70
     1
102
RTVSPropertyOp34
 70
     1
102
RTVSPropertyOp35
 70
     1
102
RTVSPropertyOp36
 70
     1
102
RTVSPropertyOp37
 70
     0
102
RTVSPropertyOp38
 70
     0
102
RTVSPropertyOp39
 70
     0
102
RTVSPropertyOp40
 70
     0
102
RTVSPropertyOp41
 70
     0
102
RTVSPropertyOp42
 70
     0
102
RTVSPropertyOp43
 70
     0
102
RTVSPropertyOp44
 70
     0
102
RTVSPropertyOp45
 70
     1
102
RTVSPropertyOp46
 70
     0
102
RTVSPropertyOp47
 70
     0
102
RTVSPropertyOp48
 70
     0
102
RTVSPropertyOp49
 70
     1
102
RTVSPropertyOp50
 70
     0
102
RTVSPropertyOp51
 70
     0
102
RTVSPropertyOp52
 70
     0
102
RTVSPropertyOp53
 70
     0
102
RTVSPropertyOp54
 70
     0
102
RTVSPropertyOp55
 70
     1
102
RTVSPropertyOp56
 70
     0
102
RTVSPropertyOp57
 70
     0
102
RTVSPropertyOp58
 70
     0
102
RTVSPropertyOp59
 70
     0
102
RTVSPropertyOp60
 70
     0
102
RTVSPropertyOp61
 70
     0
102
RTVSPropertyOp62
 70
     0
  0
XRECORD
  5
9D33
102
{ACAD_REACTORS
330
9D32
102
}
330
9D32
100
AcDbXrecord
280
     1
102
RTVSPost2010Prop28
280
     0
102
RTVSPost2010PropOp28
 70
     1
102
RTVSPost2010Prop29
280
     1
102
RTVSPost2010PropOp29
 70
     1
102
RTVSPost2010Prop30
280
     1
102
RTVSPost2010PropOp30
 70
     1
102
RTVSPost2010Prop31
280
     0
102
RTVSPost2010PropOp31
 70
     1
102
RTVSPost2010Prop32
280
     0
102
RTVSPost2010PropOp32
 70
     1
102
RTVSPost2010Prop33
280
     0
102
RTVSPost2010PropOp33
 70
     1
102
RTVSPost2010Prop34
280
     0
102
RTVSPost2010PropOp34
 70
     1
102
RTVSPost2010Prop35
280
     0
102
RTVSPost2010PropOp35
 70
     1
102
RTVSPost2010Prop36
280
     0
102
RTVSPost2010PropOp36
 70
     1
102
RTVSPost2010Prop37
 90
       50
102
RTVSPost2010PropOp37
 70
     1
102
RTVSPost2010Prop38
140
0.0
102
RTVSPost2010PropOp38
 70
     1
102
RTVSPost2010Prop39
140
1.0
102
RTVSPost2010PropOp39
 70
     1
102
RTVSPost2010Prop40
 90
        0
102
RTVSPost2010PropOp40
 70
     1
102
RTVSPost2010Prop41ColorIndex
 90
       18
102
RTVSPost2010Prop41ColorRGB
 90
        0
102
RTVSPost2010PropOp41
 70
     1
102
RTVSPost2010Prop42
 90
       50
102
RTVSPost2010PropOp42
 70
     1
102
RTVSPost2010Prop43
 90
        3
102
RTVSPost2010PropOp43
 70
     1
102
RTVSPost2010Prop44ColorIndex
 90
        5
102
RTVSPost2010Prop44ColorRGB
 90
      255
102
RTVSPost2010PropOp44
 70
     1
102
RTVSPost2010Prop45
280
     0
102
RTVSPost2010PropOp45
 70
     1
102
RTVSPost2010Prop46
 90
       50
102
RTVSPost2010PropOp46
 70
     1
102
RTVSPost2010Prop47
 90
       50
102
RTVSPost2010PropOp47
 70
     1
102
RTVSPost2010Prop48
 90
       50
102
RTVSPost2010PropOp48
 70
     1
102
RTVSPost2010Prop49
280
     0
102
RTVSPost2010PropOp49
 70
     1
102
RTVSPost2010Prop50
 90
       50
102
RTVSPost2010PropOp50
 70
     1
102
RTVSPost2010Prop51ColorIndex
 90
      256
102
RTVSPost2010Prop51ColorRGB
 90
-16777216
102
RTVSPost2010PropOp51
 70
     0
102
RTVSPost2010Prop52
140
1.0
102
RTVSPost2010PropOp52
 70
     0
102
RTVSPost2010Prop53
 90
        2
102
RTVSPost2010PropOp53
 70
     1
102
RTVSPost2010Prop54
  1
strokes_ogs.tif
102
RTVSPost2010PropOp54
 70
     1
102
RTVSPost2010Prop55
280
     0
102
RTVSPost2010PropOp55
 70
     1
102
RTVSPost2010Prop56
140
1.0
102
RTVSPost2010PropOp56
 70
     1
102
RTVSPost2010Prop57
140
1.0
102
RTVSPost2010PropOp57
 70
     1
102
RTVSPropertyOp0
 70
     1
102
RTVSPropertyOp1
 70
     1
102
RTVSPropertyOp2
 70
     1
102
RTVSPropertyOp3
 70
     1
102
RTVSPropertyOp4
 70
     1
102
RTVSPropertyOp5
 70
     1
102
RTVSPropertyOp6
 70
     1
102
RTVSPropertyOp7
 70
     1
102
RTVSPropertyOp8
 70
     1
102
RTVSPropertyOp9
 70
     1
102
RTVSPropertyOp10
 70
     1
102
RTVSPropertyOp11
 70
     1
102
RTVSPropertyOp12
 70
     1
102
RTVSPropertyOp13
 70
     1
102
RTVSPropertyOp14
 70
     1
102
RTVSPropertyOp15
 70
     1
102
RTVSPropertyOp16
 70
     1
102
RTVSPropertyOp17
 70
     1
102
RTVSPropertyOp18
 70
     1
102
RTVSPropertyOp19
 70
     1
102
RTVSPropertyOp20
 70
     1
102
RTVSPropertyOp21
 70
     1
102
RTVSPropertyOp22
 70
     1
102
RTVSPropertyOp23
 70
     1
102
RTVSPropertyOp24
 70
     1
102
RTVSPropertyOp25
 70
     1
102
RTVSPropertyOp26
 70
     1
102
RTVSPropertyOp27
 70
     1
102
RTVSPropertyOp28
 70
     1
102
RTVSPropertyOp29
 70
     1
102
RTVSPropertyOp30
 70
     1
102
RTVSPropertyOp31
 70
     1
102
RTVSPropertyOp32
 70
     1
102
RTVSPropertyOp33
 70
     1
102
RTVSPropertyOp34
 70
     1
102
RTVSPropertyOp35
 70
     1
102
RTVSPropertyOp36
 70
     1
102
RTVSPropertyOp37
 70
     1
102
RTVSPropertyOp38
 70
     1
102
RTVSPropertyOp39
 70
     1
102
RTVSPropertyOp40
 70
     1
102
RTVSPropertyOp41
 70
     1
102
RTVSPropertyOp42
 70
     1
102
RTVSPropertyOp43
 70
     1
102
RTVSPropertyOp44
 70
     1
102
RTVSPropertyOp45
 70
     1
102
RTVSPropertyOp46
 70
     1
102
RTVSPropertyOp47
 70
     1
102
RTVSPropertyOp48
 70
     1
102
RTVSPropertyOp49
 70
     1
102
RTVSPropertyOp50
 70
     1
102
RTVSPropertyOp51
 70
     0
102
RTVSPropertyOp52
 70
     0
102
RTVSPropertyOp53
 70
     1
102
RTVSPropertyOp54
 70
     1
102
RTVSPropertyOp55
 70
     1
102
RTVSPropertyOp56
 70
     1
102
RTVSPropertyOp57
 70
     1
102
RTVSPropertyOp58
 70
     1
102
RTVSPropertyOp59
 70
     1
102
RTVSPropertyOp60
 70
     1
102
RTVSPropertyOp61
 70
     1
102
RTVSPropertyOp62
 70
     1
  0
XRECORD
  5
9D49
102
{ACAD_REACTORS
330
9D48
102
}
330
9D48
100
AcDbXrecord
280
     1
102
RTVSPost2010Prop28
280
     0
102
RTVSPost2010PropOp28
 70
     1
102
RTVSPost2010Prop29
280
     1
102
RTVSPost2010PropOp29
 70
     1
102
RTVSPost2010Prop30
280
     1
102
RTVSPost2010PropOp30
 70
     1
102
RTVSPost2010Prop31
280
     0
102
RTVSPost2010PropOp31
 70
     1
102
RTVSPost2010Prop32
280
     0
102
RTVSPost2010PropOp32
 70
     1
102
RTVSPost2010Prop33
280
     0
102
RTVSPost2010PropOp33
 70
     1
102
RTVSPost2010Prop34
280
     0
102
RTVSPost2010PropOp34
 70
     1
102
RTVSPost2010Prop35
280
     0
102
RTVSPost2010PropOp35
 70
     1
102
RTVSPost2010Prop36
280
     0
102
RTVSPost2010PropOp36
 70
     1
102
RTVSPost2010Prop37
 90
       50
102
RTVSPost2010PropOp37
 70
     1
102
RTVSPost2010Prop38
140
0.0
102
RTVSPost2010PropOp38
 70
     1
102
RTVSPost2010Prop39
140
1.0
102
RTVSPost2010PropOp39
 70
     1
102
RTVSPost2010Prop40
 90
        0
102
RTVSPost2010PropOp40
 70
     1
102
RTVSPost2010Prop41ColorIndex
 90
       18
102
RTVSPost2010Prop41ColorRGB
 90
        0
102
RTVSPost2010PropOp41
 70
     1
102
RTVSPost2010Prop42
 90
       50
102
RTVSPost2010PropOp42
 70
     1
102
RTVSPost2010Prop43
 90
        3
102
RTVSPost2010PropOp43
 70
     1
102
RTVSPost2010Prop44ColorIndex
 90
        5
102
RTVSPost2010Prop44ColorRGB
 90
      255
102
RTVSPost2010PropOp44
 70
     1
102
RTVSPost2010Prop45
280
     0
102
RTVSPost2010PropOp45
 70
     1
102
RTVSPost2010Prop46
 90
       50
102
RTVSPost2010PropOp46
 70
     1
102
RTVSPost2010Prop47
 90
       50
102
RTVSPost2010PropOp47
 70
     1
102
RTVSPost2010Prop48
 90
       50
102
RTVSPost2010PropOp48
 70
     1
102
RTVSPost2010Prop49
280
     0
102
RTVSPost2010PropOp49
 70
     1
102
RTVSPost2010Prop50
 90
       50
102
RTVSPost2010PropOp50
 70
     1
102
RTVSPost2010Prop51ColorIndex
 90
      256
102
RTVSPost2010Prop51ColorRGB
 90
-16777216
102
RTVSPost2010PropOp51
 70
     0
102
RTVSPost2010Prop52
140
1.0
102
RTVSPost2010PropOp52
 70
     0
102
RTVSPost2010Prop53
 90
        2
102
RTVSPost2010PropOp53
 70
     1
102
RTVSPost2010Prop54
  1
strokes_ogs.tif
102
RTVSPost2010PropOp54
 70
     1
102
RTVSPost2010Prop55
280
     0
102
RTVSPost2010PropOp55
 70
     1
102
RTVSPost2010Prop56
140
1.0
102
RTVSPost2010PropOp56
 70
     1
102
RTVSPost2010Prop57
140
1.0
102
RTVSPost2010PropOp57
 70
     1
102
RTVSPropertyOp0
 70
     1
102
RTVSPropertyOp1
 70
     1
102
RTVSPropertyOp2
 70
     1
102
RTVSPropertyOp3
 70
     1
102
RTVSPropertyOp4
 70
     1
102
RTVSPropertyOp5
 70
     1
102
RTVSPropertyOp6
 70
     1
102
RTVSPropertyOp7
 70
     1
102
RTVSPropertyOp8
 70
     1
102
RTVSPropertyOp9
 70
     1
102
RTVSPropertyOp10
 70
     1
102
RTVSPropertyOp11
 70
     1
102
RTVSPropertyOp12
 70
     1
102
RTVSPropertyOp13
 70
     1
102
RTVSPropertyOp14
 70
     1
102
RTVSPropertyOp15
 70
     1
102
RTVSPropertyOp16
 70
     1
102
RTVSPropertyOp17
 70
     1
102
RTVSPropertyOp18
 70
     1
102
RTVSPropertyOp19
 70
     1
102
RTVSPropertyOp20
 70
     1
102
RTVSPropertyOp21
 70
     1
102
RTVSPropertyOp22
 70
     1
102
RTVSPropertyOp23
 70
     1
102
RTVSPropertyOp24
 70
     1
102
RTVSPropertyOp25
 70
     1
102
RTVSPropertyOp26
 70
     1
102
RTVSPropertyOp27
 70
     1
102
RTVSPropertyOp28
 70
     1
102
RTVSPropertyOp29
 70
     1
102
RTVSPropertyOp30
 70
     1
102
RTVSPropertyOp31
 70
     1
102
RTVSPropertyOp32
 70
     1
102
RTVSPropertyOp33
 70
     1
102
RTVSPropertyOp34
 70
     1
102
RTVSPropertyOp35
 70
     1
102
RTVSPropertyOp36
 70
     1
102
RTVSPropertyOp37
 70
     1
102
RTVSPropertyOp38
 70
     1
102
RTVSPropertyOp39
 70
     1
102
RTVSPropertyOp40
 70
     1
102
RTVSPropertyOp41
 70
     1
102
RTVSPropertyOp42
 70
     1
102
RTVSPropertyOp43
 70
     1
102
RTVSPropertyOp44
 70
     1
102
RTVSPropertyOp45
 70
     1
102
RTVSPropertyOp46
 70
     1
102
RTVSPropertyOp47
 70
     1
102
RTVSPropertyOp48
 70
     1
102
RTVSPropertyOp49
 70
     1
102
RTVSPropertyOp50
 70
     1
102
RTVSPropertyOp51
 70
     0
102
RTVSPropertyOp52
 70
     0
102
RTVSPropertyOp53
 70
     1
102
RTVSPropertyOp54
 70
     1
102
RTVSPropertyOp55
 70
     1
102
RTVSPropertyOp56
 70
     1
102
RTVSPropertyOp57
 70
     1
102
RTVSPropertyOp58
 70
     1
102
RTVSPropertyOp59
 70
     1
102
RTVSPropertyOp60
 70
     1
102
RTVSPropertyOp61
 70
     1
102
RTVSPropertyOp62
 70
     1
  0
XRECORD
  5
9D47
102
{ACAD_REACTORS
330
9D46
102
}
330
9D46
100
AcDbXrecord
280
     1
102
RTVSPost2010Prop28
280
     0
102
RTVSPost2010PropOp28
 70
     1
102
RTVSPost2010Prop29
280
     1
102
RTVSPost2010PropOp29
 70
     1
102
RTVSPost2010Prop30
280
     1
102
RTVSPost2010PropOp30
 70
     1
102
RTVSPost2010Prop31
280
     0
102
RTVSPost2010PropOp31
 70
     1
102
RTVSPost2010Prop32
280
     0
102
RTVSPost2010PropOp32
 70
     1
102
RTVSPost2010Prop33
280
     0
102
RTVSPost2010PropOp33
 70
     1
102
RTVSPost2010Prop34
280
     0
102
RTVSPost2010PropOp34
 70
     1
102
RTVSPost2010Prop35
280
     0
102
RTVSPost2010PropOp35
 70
     1
102
RTVSPost2010Prop36
280
     0
102
RTVSPost2010PropOp36
 70
     1
102
RTVSPost2010Prop37
 90
       50
102
RTVSPost2010PropOp37
 70
     1
102
RTVSPost2010Prop38
140
0.0
102
RTVSPost2010PropOp38
 70
     1
102
RTVSPost2010Prop39
140
1.0
102
RTVSPost2010PropOp39
 70
     1
102
RTVSPost2010Prop40
 90
        0
102
RTVSPost2010PropOp40
 70
     1
102
RTVSPost2010Prop41ColorIndex
 90
       18
102
RTVSPost2010Prop41ColorRGB
 90
        0
102
RTVSPost2010PropOp41
 70
     1
102
RTVSPost2010Prop42
 90
       50
102
RTVSPost2010PropOp42
 70
     1
102
RTVSPost2010Prop43
 90
        3
102
RTVSPost2010PropOp43
 70
     1
102
RTVSPost2010Prop44ColorIndex
 90
        5
102
RTVSPost2010Prop44ColorRGB
 90
      255
102
RTVSPost2010PropOp44
 70
     1
102
RTVSPost2010Prop45
280
     0
102
RTVSPost2010PropOp45
 70
     1
102
RTVSPost2010Prop46
 90
       50
102
RTVSPost2010PropOp46
 70
     1
102
RTVSPost2010Prop47
 90
       50
102
RTVSPost2010PropOp47
 70
     1
102
RTVSPost2010Prop48
 90
       50
102
RTVSPost2010PropOp48
 70
     1
102
RTVSPost2010Prop49
280
     0
102
RTVSPost2010PropOp49
 70
     1
102
RTVSPost2010Prop50
 90
       50
102
RTVSPost2010PropOp50
 70
     1
102
RTVSPost2010Prop51ColorIndex
 90
      256
102
RTVSPost2010Prop51ColorRGB
 90
-16777216
102
RTVSPost2010PropOp51
 70
     0
102
RTVSPost2010Prop52
140
1.0
102
RTVSPost2010PropOp52
 70
     0
102
RTVSPost2010Prop53
 90
        2
102
RTVSPost2010PropOp53
 70
     1
102
RTVSPost2010Prop54
  1
strokes_ogs.tif
102
RTVSPost2010PropOp54
 70
     1
102
RTVSPost2010Prop55
280
     0
102
RTVSPost2010PropOp55
 70
     1
102
RTVSPost2010Prop56
140
1.0
102
RTVSPost2010PropOp56
 70
     1
102
RTVSPost2010Prop57
140
1.0
102
RTVSPost2010PropOp57
 70
     1
102
RTVSPropertyOp0
 70
     1
102
RTVSPropertyOp1
 70
     1
102
RTVSPropertyOp2
 70
     1
102
RTVSPropertyOp3
 70
     1
102
RTVSPropertyOp4
 70
     1
102
RTVSPropertyOp5
 70
     1
102
RTVSPropertyOp6
 70
     1
102
RTVSPropertyOp7
 70
     1
102
RTVSPropertyOp8
 70
     1
102
RTVSPropertyOp9
 70
     1
102
RTVSPropertyOp10
 70
     1
102
RTVSPropertyOp11
 70
     1
102
RTVSPropertyOp12
 70
     1
102
RTVSPropertyOp13
 70
     1
102
RTVSPropertyOp14
 70
     1
102
RTVSPropertyOp15
 70
     1
102
RTVSPropertyOp16
 70
     1
102
RTVSPropertyOp17
 70
     1
102
RTVSPropertyOp18
 70
     1
102
RTVSPropertyOp19
 70
     1
102
RTVSPropertyOp20
 70
     1
102
RTVSPropertyOp21
 70
     1
102
RTVSPropertyOp22
 70
     1
102
RTVSPropertyOp23
 70
     1
102
RTVSPropertyOp24
 70
     1
102
RTVSPropertyOp25
 70
     1
102
RTVSPropertyOp26
 70
     1
102
RTVSPropertyOp27
 70
     1
102
RTVSPropertyOp28
 70
     1
102
RTVSPropertyOp29
 70
     1
102
RTVSPropertyOp30
 70
     1
102
RTVSPropertyOp31
 70
     1
102
RTVSPropertyOp32
 70
     1
102
RTVSPropertyOp33
 70
     1
102
RTVSPropertyOp34
 70
     1
102
RTVSPropertyOp35
 70
     1
102
RTVSPropertyOp36
 70
     1
102
RTVSPropertyOp37
 70
     1
102
RTVSPropertyOp38
 70
     1
102
RTVSPropertyOp39
 70
     1
102
RTVSPropertyOp40
 70
     1
102
RTVSPropertyOp41
 70
     1
102
RTVSPropertyOp42
 70
     1
102
RTVSPropertyOp43
 70
     1
102
RTVSPropertyOp44
 70
     1
102
RTVSPropertyOp45
 70
     1
102
RTVSPropertyOp46
 70
     1
102
RTVSPropertyOp47
 70
     1
102
RTVSPropertyOp48
 70
     1
102
RTVSPropertyOp49
 70
     1
102
RTVSPropertyOp50
 70
     1
102
RTVSPropertyOp51
 70
     0
102
RTVSPropertyOp52
 70
     0
102
RTVSPropertyOp53
 70
     1
102
RTVSPropertyOp54
 70
     1
102
RTVSPropertyOp55
 70
     1
102
RTVSPropertyOp56
 70
     1
102
RTVSPropertyOp57
 70
     1
102
RTVSPropertyOp58
 70
     1
102
RTVSPropertyOp59
 70
     1
102
RTVSPropertyOp60
 70
     1
102
RTVSPropertyOp61
 70
     1
102
RTVSPropertyOp62
 70
     1
  0
XRECORD
  5
9D41
102
{ACAD_REACTORS
330
9D40
102
}
330
9D40
100
AcDbXrecord
280
     1
102
RTVSPost2010Prop28
280
     0
102
RTVSPost2010PropOp28
 70
     1
102
RTVSPost2010Prop29
280
     1
102
RTVSPost2010PropOp29
 70
     1
102
RTVSPost2010Prop30
280
     1
102
RTVSPost2010PropOp30
 70
     1
102
RTVSPost2010Prop31
280
     0
102
RTVSPost2010PropOp31
 70
     1
102
RTVSPost2010Prop32
280
     0
102
RTVSPost2010PropOp32
 70
     1
102
RTVSPost2010Prop33
280
     0
102
RTVSPost2010PropOp33
 70
     1
102
RTVSPost2010Prop34
280
     0
102
RTVSPost2010PropOp34
 70
     1
102
RTVSPost2010Prop35
280
     0
102
RTVSPost2010PropOp35
 70
     1
102
RTVSPost2010Prop36
280
     0
102
RTVSPost2010PropOp36
 70
     1
102
RTVSPost2010Prop37
 90
       50
102
RTVSPost2010PropOp37
 70
     1
102
RTVSPost2010Prop38
140
0.0
102
RTVSPost2010PropOp38
 70
     1
102
RTVSPost2010Prop39
140
1.0
102
RTVSPost2010PropOp39
 70
     1
102
RTVSPost2010Prop40
 90
        0
102
RTVSPost2010PropOp40
 70
     1
102
RTVSPost2010Prop41ColorIndex
 90
       18
102
RTVSPost2010Prop41ColorRGB
 90
        0
102
RTVSPost2010PropOp41
 70
     1
102
RTVSPost2010Prop42
 90
       50
102
RTVSPost2010PropOp42
 70
     1
102
RTVSPost2010Prop43
 90
        3
102
RTVSPost2010PropOp43
 70
     1
102
RTVSPost2010Prop44ColorIndex
 90
        5
102
RTVSPost2010Prop44ColorRGB
 90
      255
102
RTVSPost2010PropOp44
 70
     1
102
RTVSPost2010Prop45
280
     0
102
RTVSPost2010PropOp45
 70
     1
102
RTVSPost2010Prop46
 90
       50
102
RTVSPost2010PropOp46
 70
     1
102
RTVSPost2010Prop47
 90
       50
102
RTVSPost2010PropOp47
 70
     1
102
RTVSPost2010Prop48
 90
       50
102
RTVSPost2010PropOp48
 70
     1
102
RTVSPost2010Prop49
280
     0
102
RTVSPost2010PropOp49
 70
     1
102
RTVSPost2010Prop50
 90
       50
102
RTVSPost2010PropOp50
 70
     1
102
RTVSPost2010Prop51ColorIndex
 90
      256
102
RTVSPost2010Prop51ColorRGB
 90
-16777216
102
RTVSPost2010PropOp51
 70
     0
102
RTVSPost2010Prop52
140
1.0
102
RTVSPost2010PropOp52
 70
     0
102
RTVSPost2010Prop53
 90
        2
102
RTVSPost2010PropOp53
 70
     1
102
RTVSPost2010Prop54
  1
strokes_ogs.tif
102
RTVSPost2010PropOp54
 70
     1
102
RTVSPost2010Prop55
280
     0
102
RTVSPost2010PropOp55
 70
     1
102
RTVSPost2010Prop56
140
1.0
102
RTVSPost2010PropOp56
 70
     1
102
RTVSPost2010Prop57
140
1.0
102
RTVSPost2010PropOp57
 70
     1
102
RTVSPropertyOp0
 70
     1
102
RTVSPropertyOp1
 70
     1
102
RTVSPropertyOp2
 70
     1
102
RTVSPropertyOp3
 70
     1
102
RTVSPropertyOp4
 70
     1
102
RTVSPropertyOp5
 70
     1
102
RTVSPropertyOp6
 70
     1
102
RTVSPropertyOp7
 70
     1
102
RTVSPropertyOp8
 70
     1
102
RTVSPropertyOp9
 70
     1
102
RTVSPropertyOp10
 70
     1
102
RTVSPropertyOp11
 70
     1
102
RTVSPropertyOp12
 70
     1
102
RTVSPropertyOp13
 70
     1
102
RTVSPropertyOp14
 70
     1
102
RTVSPropertyOp15
 70
     1
102
RTVSPropertyOp16
 70
     1
102
RTVSPropertyOp17
 70
     1
102
RTVSPropertyOp18
 70
     1
102
RTVSPropertyOp19
 70
     1
102
RTVSPropertyOp20
 70
     1
102
RTVSPropertyOp21
 70
     1
102
RTVSPropertyOp22
 70
     1
102
RTVSPropertyOp23
 70
     1
102
RTVSPropertyOp24
 70
     1
102
RTVSPropertyOp25
 70
     1
102
RTVSPropertyOp26
 70
     1
102
RTVSPropertyOp27
 70
     1
102
RTVSPropertyOp28
 70
     1
102
RTVSPropertyOp29
 70
     1
102
RTVSPropertyOp30
 70
     1
102
RTVSPropertyOp31
 70
     1
102
RTVSPropertyOp32
 70
     1
102
RTVSPropertyOp33
 70
     1
102
RTVSPropertyOp34
 70
     1
102
RTVSPropertyOp35
 70
     1
102
RTVSPropertyOp36
 70
     1
102
RTVSPropertyOp37
 70
     1
102
RTVSPropertyOp38
 70
     1
102
RTVSPropertyOp39
 70
     1
102
RTVSPropertyOp40
 70
     1
102
RTVSPropertyOp41
 70
     1
102
RTVSPropertyOp42
 70
     1
102
RTVSPropertyOp43
 70
     1
102
RTVSPropertyOp44
 70
     1
102
RTVSPropertyOp45
 70
     1
102
RTVSPropertyOp46
 70
     1
102
RTVSPropertyOp47
 70
     1
102
RTVSPropertyOp48
 70
     1
102
RTVSPropertyOp49
 70
     1
102
RTVSPropertyOp50
 70
     1
102
RTVSPropertyOp51
 70
     0
102
RTVSPropertyOp52
 70
     0
102
RTVSPropertyOp53
 70
     1
102
RTVSPropertyOp54
 70
     1
102
RTVSPropertyOp55
 70
     1
102
RTVSPropertyOp56
 70
     1
102
RTVSPropertyOp57
 70
     1
102
RTVSPropertyOp58
 70
     1
102
RTVSPropertyOp59
 70
     1
102
RTVSPropertyOp60
 70
     1
102
RTVSPropertyOp61
 70
     1
102
RTVSPropertyOp62
 70
     1
  0
XRECORD
  5
9D43
102
{ACAD_REACTORS
330
9D42
102
}
330
9D42
100
AcDbXrecord
280
     1
102
RTVSPost2010Prop28
280
     0
102
RTVSPost2010PropOp28
 70
     1
102
RTVSPost2010Prop29
280
     1
102
RTVSPost2010PropOp29
 70
     1
102
RTVSPost2010Prop30
280
     1
102
RTVSPost2010PropOp30
 70
     1
102
RTVSPost2010Prop31
280
     0
102
RTVSPost2010PropOp31
 70
     1
102
RTVSPost2010Prop32
280
     0
102
RTVSPost2010PropOp32
 70
     1
102
RTVSPost2010Prop33
280
     0
102
RTVSPost2010PropOp33
 70
     1
102
RTVSPost2010Prop34
280
     0
102
RTVSPost2010PropOp34
 70
     1
102
RTVSPost2010Prop35
280
     0
102
RTVSPost2010PropOp35
 70
     1
102
RTVSPost2010Prop36
280
     0
102
RTVSPost2010PropOp36
 70
     1
102
RTVSPost2010Prop37
 90
       50
102
RTVSPost2010PropOp37
 70
     1
102
RTVSPost2010Prop38
140
0.0
102
RTVSPost2010PropOp38
 70
     1
102
RTVSPost2010Prop39
140
1.0
102
RTVSPost2010PropOp39
 70
     1
102
RTVSPost2010Prop40
 90
        0
102
RTVSPost2010PropOp40
 70
     1
102
RTVSPost2010Prop41ColorIndex
 90
       18
102
RTVSPost2010Prop41ColorRGB
 90
        0
102
RTVSPost2010PropOp41
 70
     1
102
RTVSPost2010Prop42
 90
       50
102
RTVSPost2010PropOp42
 70
     1
102
RTVSPost2010Prop43
 90
        3
102
RTVSPost2010PropOp43
 70
     1
102
RTVSPost2010Prop44ColorIndex
 90
        5
102
RTVSPost2010Prop44ColorRGB
 90
      255
102
RTVSPost2010PropOp44
 70
     1
102
RTVSPost2010Prop45
280
     0
102
RTVSPost2010PropOp45
 70
     1
102
RTVSPost2010Prop46
 90
       50
102
RTVSPost2010PropOp46
 70
     1
102
RTVSPost2010Prop47
 90
       50
102
RTVSPost2010PropOp47
 70
     1
102
RTVSPost2010Prop48
 90
       50
102
RTVSPost2010PropOp48
 70
     1
102
RTVSPost2010Prop49
280
     0
102
RTVSPost2010PropOp49
 70
     1
102
RTVSPost2010Prop50
 90
       50
102
RTVSPost2010PropOp50
 70
     1
102
RTVSPost2010Prop51ColorIndex
 90
      256
102
RTVSPost2010Prop51ColorRGB
 90
-16777216
102
RTVSPost2010PropOp51
 70
     0
102
RTVSPost2010Prop52
140
1.0
102
RTVSPost2010PropOp52
 70
     0
102
RTVSPost2010Prop53
 90
        2
102
RTVSPost2010PropOp53
 70
     1
102
RTVSPost2010Prop54
  1
strokes_ogs.tif
102
RTVSPost2010PropOp54
 70
     1
102
RTVSPost2010Prop55
280
     0
102
RTVSPost2010PropOp55
 70
     1
102
RTVSPost2010Prop56
140
1.0
102
RTVSPost2010PropOp56
 70
     1
102
RTVSPost2010Prop57
140
1.0
102
RTVSPost2010PropOp57
 70
     1
102
RTVSPropertyOp0
 70
     1
102
RTVSPropertyOp1
 70
     1
102
RTVSPropertyOp2
 70
     1
102
RTVSPropertyOp3
 70
     1
102
RTVSPropertyOp4
 70
     1
102
RTVSPropertyOp5
 70
     1
102
RTVSPropertyOp6
 70
     1
102
RTVSPropertyOp7
 70
     1
102
RTVSPropertyOp8
 70
     1
102
RTVSPropertyOp9
 70
     1
102
RTVSPropertyOp10
 70
     1
102
RTVSPropertyOp11
 70
     1
102
RTVSPropertyOp12
 70
     1
102
RTVSPropertyOp13
 70
     1
102
RTVSPropertyOp14
 70
     1
102
RTVSPropertyOp15
 70
     1
102
RTVSPropertyOp16
 70
     1
102
RTVSPropertyOp17
 70
     1
102
RTVSPropertyOp18
 70
     1
102
RTVSPropertyOp19
 70
     1
102
RTVSPropertyOp20
 70
     1
102
RTVSPropertyOp21
 70
     1
102
RTVSPropertyOp22
 70
     1
102
RTVSPropertyOp23
 70
     1
102
RTVSPropertyOp24
 70
     1
102
RTVSPropertyOp25
 70
     1
102
RTVSPropertyOp26
 70
     1
102
RTVSPropertyOp27
 70
     1
102
RTVSPropertyOp28
 70
     1
102
RTVSPropertyOp29
 70
     1
102
RTVSPropertyOp30
 70
     1
102
RTVSPropertyOp31
 70
     1
102
RTVSPropertyOp32
 70
     1
102
RTVSPropertyOp33
 70
     1
102
RTVSPropertyOp34
 70
     1
102
RTVSPropertyOp35
 70
     1
102
RTVSPropertyOp36
 70
     1
102
RTVSPropertyOp37
 70
     1
102
RTVSPropertyOp38
 70
     1
102
RTVSPropertyOp39
 70
     1
102
RTVSPropertyOp40
 70
     1
102
RTVSPropertyOp41
 70
     1
102
RTVSPropertyOp42
 70
     1
102
RTVSPropertyOp43
 70
     1
102
RTVSPropertyOp44
 70
     1
102
RTVSPropertyOp45
 70
     1
102
RTVSPropertyOp46
 70
     1
102
RTVSPropertyOp47
 70
     1
102
RTVSPropertyOp48
 70
     1
102
RTVSPropertyOp49
 70
     1
102
RTVSPropertyOp50
 70
     1
102
RTVSPropertyOp51
 70
     0
102
RTVSPropertyOp52
 70
     0
102
RTVSPropertyOp53
 70
     1
102
RTVSPropertyOp54
 70
     1
102
RTVSPropertyOp55
 70
     1
102
RTVSPropertyOp56
 70
     1
102
RTVSPropertyOp57
 70
     1
102
RTVSPropertyOp58
 70
     1
102
RTVSPropertyOp59
 70
     1
102
RTVSPropertyOp60
 70
     1
102
RTVSPropertyOp61
 70
     1
102
RTVSPropertyOp62
 70
     1
  0
XRECORD
  5
9D39
102
{ACAD_REACTORS
330
9D38
102
}
330
9D38
100
AcDbXrecord
280
     1
102
RTVSPost2010Prop28
280
     0
102
RTVSPost2010PropOp28
 70
     1
102
RTVSPost2010Prop29
280
     1
102
RTVSPost2010PropOp29
 70
     1
102
RTVSPost2010Prop30
280
     1
102
RTVSPost2010PropOp30
 70
     1
102
RTVSPost2010Prop31
280
     0
102
RTVSPost2010PropOp31
 70
     1
102
RTVSPost2010Prop32
280
     0
102
RTVSPost2010PropOp32
 70
     1
102
RTVSPost2010Prop33
280
     0
102
RTVSPost2010PropOp33
 70
     1
102
RTVSPost2010Prop34
280
     0
102
RTVSPost2010PropOp34
 70
     1
102
RTVSPost2010Prop35
280
     0
102
RTVSPost2010PropOp35
 70
     1
102
RTVSPost2010Prop36
280
     0
102
RTVSPost2010PropOp36
 70
     1
102
RTVSPost2010Prop37
 90
       50
102
RTVSPost2010PropOp37
 70
     1
102
RTVSPost2010Prop38
140
0.0
102
RTVSPost2010PropOp38
 70
     1
102
RTVSPost2010Prop39
140
1.0
102
RTVSPost2010PropOp39
 70
     1
102
RTVSPost2010Prop40
 90
        0
102
RTVSPost2010PropOp40
 70
     1
102
RTVSPost2010Prop41ColorIndex
 90
       18
102
RTVSPost2010Prop41ColorRGB
 90
        0
102
RTVSPost2010PropOp41
 70
     1
102
RTVSPost2010Prop42
 90
       50
102
RTVSPost2010PropOp42
 70
     1
102
RTVSPost2010Prop43
 90
        3
102
RTVSPost2010PropOp43
 70
     1
102
RTVSPost2010Prop44ColorIndex
 90
        5
102
RTVSPost2010Prop44ColorRGB
 90
      255
102
RTVSPost2010PropOp44
 70
     1
102
RTVSPost2010Prop45
280
     0
102
RTVSPost2010PropOp45
 70
     1
102
RTVSPost2010Prop46
 90
       50
102
RTVSPost2010PropOp46
 70
     1
102
RTVSPost2010Prop47
 90
       50
102
RTVSPost2010PropOp47
 70
     1
102
RTVSPost2010Prop48
 90
       50
102
RTVSPost2010PropOp48
 70
     1
102
RTVSPost2010Prop49
280
     0
102
RTVSPost2010PropOp49
 70
     1
102
RTVSPost2010Prop50
 90
       50
102
RTVSPost2010PropOp50
 70
     1
102
RTVSPost2010Prop51ColorIndex
 90
      256
102
RTVSPost2010Prop51ColorRGB
 90
-16777216
102
RTVSPost2010PropOp51
 70
     0
102
RTVSPost2010Prop52
140
1.0
102
RTVSPost2010PropOp52
 70
     0
102
RTVSPost2010Prop53
 90
        2
102
RTVSPost2010PropOp53
 70
     1
102
RTVSPost2010Prop54
  1
strokes_ogs.tif
102
RTVSPost2010PropOp54
 70
     1
102
RTVSPost2010Prop55
280
     0
102
RTVSPost2010PropOp55
 70
     1
102
RTVSPost2010Prop56
140
1.0
102
RTVSPost2010PropOp56
 70
     1
102
RTVSPost2010Prop57
140
1.0
102
RTVSPost2010PropOp57
 70
     1
102
RTVSPropertyOp0
 70
     1
102
RTVSPropertyOp1
 70
     1
102
RTVSPropertyOp2
 70
     1
102
RTVSPropertyOp3
 70
     1
102
RTVSPropertyOp4
 70
     1
102
RTVSPropertyOp5
 70
     1
102
RTVSPropertyOp6
 70
     1
102
RTVSPropertyOp7
 70
     1
102
RTVSPropertyOp8
 70
     1
102
RTVSPropertyOp9
 70
     1
102
RTVSPropertyOp10
 70
     1
102
RTVSPropertyOp11
 70
     1
102
RTVSPropertyOp12
 70
     1
102
RTVSPropertyOp13
 70
     1
102
RTVSPropertyOp14
 70
     1
102
RTVSPropertyOp15
 70
     1
102
RTVSPropertyOp16
 70
     1
102
RTVSPropertyOp17
 70
     1
102
RTVSPropertyOp18
 70
     1
102
RTVSPropertyOp19
 70
     1
102
RTVSPropertyOp20
 70
     1
102
RTVSPropertyOp21
 70
     1
102
RTVSPropertyOp22
 70
     1
102
RTVSPropertyOp23
 70
     1
102
RTVSPropertyOp24
 70
     1
102
RTVSPropertyOp25
 70
     1
102
RTVSPropertyOp26
 70
     1
102
RTVSPropertyOp27
 70
     1
102
RTVSPropertyOp28
 70
     1
102
RTVSPropertyOp29
 70
     1
102
RTVSPropertyOp30
 70
     1
102
RTVSPropertyOp31
 70
     1
102
RTVSPropertyOp32
 70
     1
102
RTVSPropertyOp33
 70
     1
102
RTVSPropertyOp34
 70
     1
102
RTVSPropertyOp35
 70
     1
102
RTVSPropertyOp36
 70
     1
102
RTVSPropertyOp37
 70
     1
102
RTVSPropertyOp38
 70
     1
102
RTVSPropertyOp39
 70
     1
102
RTVSPropertyOp40
 70
     1
102
RTVSPropertyOp41
 70
     1
102
RTVSPropertyOp42
 70
     1
102
RTVSPropertyOp43
 70
     1
102
RTVSPropertyOp44
 70
     1
102
RTVSPropertyOp45
 70
     1
102
RTVSPropertyOp46
 70
     1
102
RTVSPropertyOp47
 70
     1
102
RTVSPropertyOp48
 70
     1
102
RTVSPropertyOp49
 70
     1
102
RTVSPropertyOp50
 70
     1
102
RTVSPropertyOp51
 70
     0
102
RTVSPropertyOp52
 70
     0
102
RTVSPropertyOp53
 70
     1
102
RTVSPropertyOp54
 70
     1
102
RTVSPropertyOp55
 70
     1
102
RTVSPropertyOp56
 70
     1
102
RTVSPropertyOp57
 70
     1
102
RTVSPropertyOp58
 70
     1
102
RTVSPropertyOp59
 70
     1
102
RTVSPropertyOp60
 70
     1
102
RTVSPropertyOp61
 70
     1
102
RTVSPropertyOp62
 70
     1
  0
XRECORD
  5
9D2D
102
{ACAD_REACTORS
330
9D2C
102
}
330
9D2C
100
AcDbXrecord
280
     1
102
RTVSPost2010Prop28
280
     0
102
RTVSPost2010PropOp28
 70
     1
102
RTVSPost2010Prop29
280
     1
102
RTVSPost2010PropOp29
 70
     1
102
RTVSPost2010Prop30
280
     1
102
RTVSPost2010PropOp30
 70
     1
102
RTVSPost2010Prop31
280
     0
102
RTVSPost2010PropOp31
 70
     1
102
RTVSPost2010Prop32
280
     0
102
RTVSPost2010PropOp32
 70
     1
102
RTVSPost2010Prop33
280
     0
102
RTVSPost2010PropOp33
 70
     1
102
RTVSPost2010Prop34
280
     0
102
RTVSPost2010PropOp34
 70
     1
102
RTVSPost2010Prop35
280
     0
102
RTVSPost2010PropOp35
 70
     1
102
RTVSPost2010Prop36
280
     0
102
RTVSPost2010PropOp36
 70
     1
102
RTVSPost2010Prop37
 90
       50
102
RTVSPost2010PropOp37
 70
     1
102
RTVSPost2010Prop38
140
0.0
102
RTVSPost2010PropOp38
 70
     1
102
RTVSPost2010Prop39
140
1.0
102
RTVSPost2010PropOp39
 70
     1
102
RTVSPost2010Prop40
 90
        0
102
RTVSPost2010PropOp40
 70
     1
102
RTVSPost2010Prop41ColorIndex
 90
       18
102
RTVSPost2010Prop41ColorRGB
 90
        0
102
RTVSPost2010PropOp41
 70
     1
102
RTVSPost2010Prop42
 90
       50
102
RTVSPost2010PropOp42
 70
     1
102
RTVSPost2010Prop43
 90
        3
102
RTVSPost2010PropOp43
 70
     1
102
RTVSPost2010Prop44ColorIndex
 90
        5
102
RTVSPost2010Prop44ColorRGB
 90
      255
102
RTVSPost2010PropOp44
 70
     1
102
RTVSPost2010Prop45
280
     0
102
RTVSPost2010PropOp45
 70
     1
102
RTVSPost2010Prop46
 90
       50
102
RTVSPost2010PropOp46
 70
     1
102
RTVSPost2010Prop47
 90
       50
102
RTVSPost2010PropOp47
 70
     1
102
RTVSPost2010Prop48
 90
       50
102
RTVSPost2010PropOp48
 70
     1
102
RTVSPost2010Prop49
280
     0
102
RTVSPost2010PropOp49
 70
     1
102
RTVSPost2010Prop50
 90
       50
102
RTVSPost2010PropOp50
 70
     1
102
RTVSPost2010Prop51ColorIndex
 90
      256
102
RTVSPost2010Prop51ColorRGB
 90
-16777216
102
RTVSPost2010PropOp51
 70
     0
102
RTVSPost2010Prop52
140
1.0
102
RTVSPost2010PropOp52
 70
     0
102
RTVSPost2010Prop53
 90
        2
102
RTVSPost2010PropOp53
 70
     1
102
RTVSPost2010Prop54
  1
strokes_ogs.tif
102
RTVSPost2010PropOp54
 70
     1
102
RTVSPost2010Prop55
280
     0
102
RTVSPost2010PropOp55
 70
     1
102
RTVSPost2010Prop56
140
1.0
102
RTVSPost2010PropOp56
 70
     1
102
RTVSPost2010Prop57
140
1.0
102
RTVSPost2010PropOp57
 70
     1
102
RTVSPropertyOp0
 70
     1
102
RTVSPropertyOp1
 70
     1
102
RTVSPropertyOp2
 70
     1
102
RTVSPropertyOp3
 70
     1
102
RTVSPropertyOp4
 70
     1
102
RTVSPropertyOp5
 70
     1
102
RTVSPropertyOp6
 70
     1
102
RTVSPropertyOp7
 70
     1
102
RTVSPropertyOp8
 70
     1
102
RTVSPropertyOp9
 70
     1
102
RTVSPropertyOp10
 70
     1
102
RTVSPropertyOp11
 70
     1
102
RTVSPropertyOp12
 70
     1
102
RTVSPropertyOp13
 70
     1
102
RTVSPropertyOp14
 70
     1
102
RTVSPropertyOp15
 70
     1
102
RTVSPropertyOp16
 70
     1
102
RTVSPropertyOp17
 70
     1
102
RTVSPropertyOp18
 70
     1
102
RTVSPropertyOp19
 70
     1
102
RTVSPropertyOp20
 70
     1
102
RTVSPropertyOp21
 70
     1
102
RTVSPropertyOp22
 70
     1
102
RTVSPropertyOp23
 70
     1
102
RTVSPropertyOp24
 70
     1
102
RTVSPropertyOp25
 70
     1
102
RTVSPropertyOp26
 70
     1
102
RTVSPropertyOp27
 70
     1
102
RTVSPropertyOp28
 70
     1
102
RTVSPropertyOp29
 70
     1
102
RTVSPropertyOp30
 70
     1
102
RTVSPropertyOp31
 70
     1
102
RTVSPropertyOp32
 70
     1
102
RTVSPropertyOp33
 70
     1
102
RTVSPropertyOp34
 70
     1
102
RTVSPropertyOp35
 70
     1
102
RTVSPropertyOp36
 70
     1
102
RTVSPropertyOp37
 70
     1
102
RTVSPropertyOp38
 70
     1
102
RTVSPropertyOp39
 70
     1
102
RTVSPropertyOp40
 70
     1
102
RTVSPropertyOp41
 70
     1
102
RTVSPropertyOp42
 70
     1
102
RTVSPropertyOp43
 70
     1
102
RTVSPropertyOp44
 70
     1
102
RTVSPropertyOp45
 70
     1
102
RTVSPropertyOp46
 70
     1
102
RTVSPropertyOp47
 70
     1
102
RTVSPropertyOp48
 70
     1
102
RTVSPropertyOp49
 70
     1
102
RTVSPropertyOp50
 70
     1
102
RTVSPropertyOp51
 70
     0
102
RTVSPropertyOp52
 70
     0
102
RTVSPropertyOp53
 70
     1
102
RTVSPropertyOp54
 70
     1
102
RTVSPropertyOp55
 70
     1
102
RTVSPropertyOp56
 70
     1
102
RTVSPropertyOp57
 70
     1
102
RTVSPropertyOp58
 70
     1
102
RTVSPropertyOp59
 70
     1
102
RTVSPropertyOp60
 70
     1
102
RTVSPropertyOp61
 70
     1
102
RTVSPropertyOp62
 70
     1
  0
XRECORD
  5
9D45
102
{ACAD_REACTORS
330
9D44
102
}
330
9D44
100
AcDbXrecord
280
     1
102
RTVSPost2010Prop28
280
     0
102
RTVSPost2010PropOp28
 70
     1
102
RTVSPost2010Prop29
280
     1
102
RTVSPost2010PropOp29
 70
     1
102
RTVSPost2010Prop30
280
     1
102
RTVSPost2010PropOp30
 70
     1
102
RTVSPost2010Prop31
280
     0
102
RTVSPost2010PropOp31
 70
     1
102
RTVSPost2010Prop32
280
     0
102
RTVSPost2010PropOp32
 70
     1
102
RTVSPost2010Prop33
280
     0
102
RTVSPost2010PropOp33
 70
     1
102
RTVSPost2010Prop34
280
     0
102
RTVSPost2010PropOp34
 70
     1
102
RTVSPost2010Prop35
280
     0
102
RTVSPost2010PropOp35
 70
     1
102
RTVSPost2010Prop36
280
     0
102
RTVSPost2010PropOp36
 70
     1
102
RTVSPost2010Prop37
 90
       50
102
RTVSPost2010PropOp37
 70
     1
102
RTVSPost2010Prop38
140
0.0
102
RTVSPost2010PropOp38
 70
     1
102
RTVSPost2010Prop39
140
1.0
102
RTVSPost2010PropOp39
 70
     1
102
RTVSPost2010Prop40
 90
        0
102
RTVSPost2010PropOp40
 70
     1
102
RTVSPost2010Prop41ColorIndex
 90
       18
102
RTVSPost2010Prop41ColorRGB
 90
        0
102
RTVSPost2010PropOp41
 70
     1
102
RTVSPost2010Prop42
 90
       50
102
RTVSPost2010PropOp42
 70
     1
102
RTVSPost2010Prop43
 90
        3
102
RTVSPost2010PropOp43
 70
     1
102
RTVSPost2010Prop44ColorIndex
 90
        5
102
RTVSPost2010Prop44ColorRGB
 90
      255
102
RTVSPost2010PropOp44
 70
     1
102
RTVSPost2010Prop45
280
     0
102
RTVSPost2010PropOp45
 70
     1
102
RTVSPost2010Prop46
 90
       50
102
RTVSPost2010PropOp46
 70
     1
102
RTVSPost2010Prop47
 90
       50
102
RTVSPost2010PropOp47
 70
     1
102
RTVSPost2010Prop48
 90
       50
102
RTVSPost2010PropOp48
 70
     1
102
RTVSPost2010Prop49
280
     0
102
RTVSPost2010PropOp49
 70
     1
102
RTVSPost2010Prop50
 90
       50
102
RTVSPost2010PropOp50
 70
     1
102
RTVSPost2010Prop51ColorIndex
 90
      256
102
RTVSPost2010Prop51ColorRGB
 90
-16777216
102
RTVSPost2010PropOp51
 70
     0
102
RTVSPost2010Prop52
140
1.0
102
RTVSPost2010PropOp52
 70
     0
102
RTVSPost2010Prop53
 90
        2
102
RTVSPost2010PropOp53
 70
     1
102
RTVSPost2010Prop54
  1
strokes_ogs.tif
102
RTVSPost2010PropOp54
 70
     1
102
RTVSPost2010Prop55
280
     0
102
RTVSPost2010PropOp55
 70
     1
102
RTVSPost2010Prop56
140
1.0
102
RTVSPost2010PropOp56
 70
     1
102
RTVSPost2010Prop57
140
1.0
102
RTVSPost2010PropOp57
 70
     1
102
RTVSPropertyOp0
 70
     1
102
RTVSPropertyOp1
 70
     1
102
RTVSPropertyOp2
 70
     1
102
RTVSPropertyOp3
 70
     1
102
RTVSPropertyOp4
 70
     1
102
RTVSPropertyOp5
 70
     1
102
RTVSPropertyOp6
 70
     1
102
RTVSPropertyOp7
 70
     1
102
RTVSPropertyOp8
 70
     1
102
RTVSPropertyOp9
 70
     1
102
RTVSPropertyOp10
 70
     1
102
RTVSPropertyOp11
 70
     1
102
RTVSPropertyOp12
 70
     1
102
RTVSPropertyOp13
 70
     1
102
RTVSPropertyOp14
 70
     1
102
RTVSPropertyOp15
 70
     1
102
RTVSPropertyOp16
 70
     1
102
RTVSPropertyOp17
 70
     1
102
RTVSPropertyOp18
 70
     1
102
RTVSPropertyOp19
 70
     1
102
RTVSPropertyOp20
 70
     1
102
RTVSPropertyOp21
 70
     1
102
RTVSPropertyOp22
 70
     1
102
RTVSPropertyOp23
 70
     1
102
RTVSPropertyOp24
 70
     1
102
RTVSPropertyOp25
 70
     1
102
RTVSPropertyOp26
 70
     1
102
RTVSPropertyOp27
 70
     1
102
RTVSPropertyOp28
 70
     1
102
RTVSPropertyOp29
 70
     1
102
RTVSPropertyOp30
 70
     1
102
RTVSPropertyOp31
 70
     1
102
RTVSPropertyOp32
 70
     1
102
RTVSPropertyOp33
 70
     1
102
RTVSPropertyOp34
 70
     1
102
RTVSPropertyOp35
 70
     1
102
RTVSPropertyOp36
 70
     1
102
RTVSPropertyOp37
 70
     1
102
RTVSPropertyOp38
 70
     1
102
RTVSPropertyOp39
 70
     1
102
RTVSPropertyOp40
 70
     1
102
RTVSPropertyOp41
 70
     1
102
RTVSPropertyOp42
 70
     1
102
RTVSPropertyOp43
 70
     1
102
RTVSPropertyOp44
 70
     1
102
RTVSPropertyOp45
 70
     1
102
RTVSPropertyOp46
 70
     1
102
RTVSPropertyOp47
 70
     1
102
RTVSPropertyOp48
 70
     1
102
RTVSPropertyOp49
 70
     1
102
RTVSPropertyOp50
 70
     1
102
RTVSPropertyOp51
 70
     0
102
RTVSPropertyOp52
 70
     0
102
RTVSPropertyOp53
 70
     1
102
RTVSPropertyOp54
 70
     1
102
RTVSPropertyOp55
 70
     1
102
RTVSPropertyOp56
 70
     1
102
RTVSPropertyOp57
 70
     1
102
RTVSPropertyOp58
 70
     1
102
RTVSPropertyOp59
 70
     1
102
RTVSPropertyOp60
 70
     1
102
RTVSPropertyOp61
 70
     1
102
RTVSPropertyOp62
 70
     1
  0
ENDSEC
  0
EOF
