  0
SECTION
  2
HEADER
  9
$ACADVER
  1
AC1015
  9
$ACADMAINTVER
 70
    20
  9
$DWGCODEPAGE
  3
ANSI_932
  9
$INSBASE
 10
0.0
 20
0.0
 30
0.0
  9
$EXTMIN
 10
10.0
 20
9.999999999999998
 30
0.0
  9
$EXTMAX
 10
664.4026740000001
 20
784.849816
 30
0.0
  9
$LIMMIN
 10
0.0
 20
0.0
  9
$LIMMAX
 10
1227.6
 20
846.2999999999999
  9
$ORTHOMODE
 70
     0
  9
$REGENMODE
 70
     1
  9
$FILLMODE
 70
     1
  9
$QTEXTMODE
 70
     0
  9
$MIRRTEXT
 70
     1
  9
$LTSCALE
 40
20.0
  9
$ATTMODE
 70
     1
  9
$TEXTSIZE
 40
5.0
  9
$TRACEWID
 40
1.0
  9
$TEXTSTYLE
  7
STANDARD
  9
$CLAYER
  8
0
  9
$CELTYPE
  6
BYLAYER
  9
$CECOLOR
 62
   256
  9
$CELTSCALE
 40
1.0
  9
$DISPSILH
 70
     0
  9
$DIMSCALE
 40
1.0
  9
$DIMASZ
 40
3.0
  9
$DIMEXO
 40
1.0
  9
$DIMDLI
 40
10.0
  9
$DIMRND
 40
0.0
  9
$DIMDLE
 40
0.0
  9
$DIMEXE
 40
1.0
  9
$DIMTP
 40
0.0
  9
$DIMTM
 40
0.0
  9
$DIMTXT
 40
2.5
  9
$DIMCEN
 40
0.0
  9
$DIMTSZ
 40
0.0
  9
$DIMTOL
 70
     0
  9
$DIMLIM
 70
     0
  9
$DIMTIH
 70
     0
  9
$DIMTOH
 70
     0
  9
$DIMSE1
 70
     0
  9
$DIMSE2
 70
     0
  9
$DIMTAD
 70
     3
  9
$DIMZIN
 70
     8
  9
$DIMBLK
  1

  9
$DIMASO
 70
     1
  9
$DIMSHO
 70
     1
  9
$DIMPOST
  1

  9
$DIMAPOST
  1

  9
$DIMALT
 70
     0
  9
$DIMALTD
 70
     2
  9
$DIMALTF
 40
25.4
  9
$DIMLFAC
 40
1.0
  9
$DIMTOFL
 70
     1
  9
$DIMTVP
 40
0.0
  9
$DIMTIX
 70
     0
  9
$DIMSOXD
 70
     0
  9
$DIMSAH
 70
     1
  9
$DIMBLK1
  1

  9
$DIMBLK2
  1

  9
$DIMSTYLE
  2
STANDARD
  9
$DIMCLRD
 70
     0
  9
$DIMCLRE
 70
     0
  9
$DIMCLRT
 70
     0
  9
$DIMTFAC
 40
1.0
  9
$DIMGAP
 40
1.0
  9
$DIMJUST
 70
     0
  9
$DIMSD1
 70
     0
  9
$DIMSD2
 70
     0
  9
$DIMTOLJ
 70
     1
  9
$DIMTZIN
 70
     0
  9
$DIMALTZ
 70
     0
  9
$DIMALTTZ
 70
     0
  9
$DIMUPT
 70
     0
  9
$DIMDEC
 70
     4
  9
$DIMTDEC
 70
     4
  9
$DIMALTU
 70
     2
  9
$DIMALTTD
 70
     2
  9
$DIMTXSTY
  7
STANDARD
  9
$DIMAUNIT
 70
     0
  9
$DIMADEC
 70
     0
  9
$DIMALTRND
 40
0.0
  9
$DIMAZIN
 70
     0
  9
$DIMDSEP
 70
    46
  9
$DIMATFIT
 70
     3
  9
$DIMFRAC
 70
     0
  9
$DIMLDRBLK
  1

  9
$DIMLUNIT
 70
     2
  9
$DIMLWD
 70
    -2
  9
$DIMLWE
 70
    -2
  9
$DIMTMOVE
 70
     0
  9
$LUNITS
 70
     2
  9
$LUPREC
 70
     4
  9
$SKETCHINC
 40
1.0
  9
$FILLETRAD
 40
0.0
  9
$AUNITS
 70
     0
  9
$AUPREC
 70
     2
  9
$MENU
  1
.
  9
$ELEVATION
 40
0.0
  9
$PELEVATION
 40
0.0
  9
$THICKNESS
 40
0.0
  9
$LIMCHECK
 70
     0
  9
$CHAMFERA
 40
10.0
  9
$CHAMFERB
 40
10.0
  9
$CHAMFERC
 40
0.0
  9
$CHAMFERD
 40
0.0
  9
$SKPOLY
 70
     0
  9
$TDCREATE
 40
2451233.439967130
  9
$TDUCREATE
 40
2451233.064967130
  9
$TDUPDATE
 40
2457192.665743854
  9
$TDUUPDATE
 40
2457192.290743854
  9
$TDINDWG
 40
0.0000124421
  9
$TDUSRTIMER
 40
0.0000121181
  9
$USRTIMER
 70
     1
  9
$ANGBASE
 50
0.0
  9
$ANGDIR
 70
     0
  9
$PDMODE
 70
     0
  9
$PDSIZE
 40
0.0
  9
$PLINEWID
 40
0.0
  9
$SPLFRAME
 70
     0
  9
$SPLINETYPE
 70
     6
  9
$SPLINESEGS
 70
     8
  9
$HANDSEED
  5
14BBD
  9
$SURFTAB1
 70
     6
  9
$SURFTAB2
 70
     6
  9
$SURFTYPE
 70
     6
  9
$SURFU
 70
     6
  9
$SURFV
 70
     6
  9
$UCSBASE
  2

  9
$UCSNAME
  2

  9
$UCSORG
 10
0.0
 20
0.0
 30
0.0
  9
$UCSXDIR
 10
1.0
 20
0.0
 30
0.0
  9
$UCSYDIR
 10
0.0
 20
1.0
 30
0.0
  9
$UCSORTHOREF
  2

  9
$UCSORTHOVIEW
 70
     0
  9
$UCSORGTOP
 10
0.0
 20
0.0
 30
0.0
  9
$UCSORGBOTTOM
 10
0.0
 20
0.0
 30
0.0
  9
$UCSORGLEFT
 10
0.0
 20
0.0
 30
0.0
  9
$UCSORGRIGHT
 10
0.0
 20
0.0
 30
0.0
  9
$UCSORGFRONT
 10
0.0
 20
0.0
 30
0.0
  9
$UCSORGBACK
 10
0.0
 20
0.0
 30
0.0
  9
$PUCSBASE
  2

  9
$PUCSNAME
  2

  9
$PUCSORG
 10
0.0
 20
0.0
 30
0.0
  9
$PUCSXDIR
 10
1.0
 20
0.0
 30
0.0
  9
$PUCSYDIR
 10
0.0
 20
1.0
 30
0.0
  9
$PUCSORTHOREF
  2

  9
$PUCSORTHOVIEW
 70
     0
  9
$PUCSORGTOP
 10
0.0
 20
0.0
 30
0.0
  9
$PUCSORGBOTTOM
 10
0.0
 20
0.0
 30
0.0
  9
$PUCSORGLEFT
 10
0.0
 20
0.0
 30
0.0
  9
$PUCSORGRIGHT
 10
0.0
 20
0.0
 30
0.0
  9
$PUCSORGFRONT
 10
0.0
 20
0.0
 30
0.0
  9
$PUCSORGBACK
 10
0.0
 20
0.0
 30
0.0
  9
$USERI1
 70
     0
  9
$USERI2
 70
     0
  9
$USERI3
 70
     0
  9
$USERI4
 70
     0
  9
$USERI5
 70
     0
  9
$USERR1
 40
0.0
  9
$USERR2
 40
0.0
  9
$USERR3
 40
0.0
  9
$USERR4
 40
0.0
  9
$USERR5
 40
0.0
  9
$WORLDVIEW
 70
     1
  9
$SHADEDGE
 70
     3
  9
$SHADEDIF
 70
    70
  9
$TILEMODE
 70
     1
  9
$MAXACTVP
 70
    16
  9
$PINSBASE
 10
0.0
 20
0.0
 30
0.0
  9
$PLIMCHECK
 70
     0
  9
$PEXTMIN
 10
1.000000000000000E+20
 20
1.000000000000000E+20
 30
1.000000000000000E+20
  9
$PEXTMAX
 10
-1.000000000000000E+20
 20
-1.000000000000000E+20
 30
-1.000000000000000E+20
  9
$PLIMMIN
 10
0.0
 20
0.0
  9
$PLIMMAX
 10
420.0
 20
297.0
  9
$UNITMODE
 70
     0
  9
$VISRETAIN
 70
     0
  9
$PLINEGEN
 70
     0
  9
$PSLTSCALE
 70
     0
  9
$TREEDEPTH
 70
  3020
  9
$CMLSTYLE
  2
STANDARD
  9
$CMLJUST
 70
     0
  9
$CMLSCALE
 40
1.0
  9
$PROXYGRAPHICS
 70
     1
  9
$MEASUREMENT
 70
     0
  9
$CELWEIGHT
370
    -1
  9
$ENDCAPS
280
     0
  9
$JOINSTYLE
280
     0
  9
$LWDISPLAY
290
     0
  9
$INSUNITS
 70
     0
  9
$HYPERLINKBASE
  1

  9
$STYLESHEET
  1

  9
$XEDIT
290
     1
  9
$CEPSNTYPE
380
     0
  9
$PSTYLEMODE
290
     1
  9
$FINGERPRINTGUID
  2
{95791384-1E0B-4AEE-95D8-9B1EFB858E25}
  9
$VERSIONGUID
  2
{27B89131-F33C-4BD5-B2EE-B250938E0110}
  9
$EXTNAMES
290
     1
  9
$PSVPSCALE
 40
0.0
  9
$OLESTARTUP
290
     0
  0
ENDSEC
  0
SECTION
  2
CLASSES
  0
CLASS
  1
ACDBDICTIONARYWDFLT
  2
AcDbDictionaryWithDefault
  3
ObjectDBX Classes
 90
        0
280
     0
281
     0
  0
CLASS
  1
ACDBPLACEHOLDER
  2
AcDbPlaceHolder
  3
ObjectDBX Classes
 90
        0
280
     0
281
     0
  0
CLASS
  1
LAYOUT
  2
AcDbLayout
  3
ObjectDBX Classes
 90
        0
280
     0
281
     0
  0
CLASS
  1
DICTIONARYVAR
  2
AcDbDictionaryVar
  3
ObjectDBX Classes
 90
        0
280
     0
281
     0
  0
CLASS
  1
MATERIAL
  2
AcDbMaterial
  3
ObjectDBX Classes
 90
     1153
280
     0
281
     0
  0
CLASS
  1
VISUALSTYLE
  2
AcDbVisualStyle
  3
ObjectDBX Classes
 90
     4095
280
     0
281
     0
  0
CLASS
  1
TABLESTYLE
  2
AcDbTableStyle
  3
ObjectDBX Classes
 90
     4095
280
     0
281
     0
  0
CLASS
  1
SCALE
  2
AcDbScale
  3
ObjectDBX Classes
 90
     1153
280
     0
281
     0
  0
CLASS
  1
MLEADERSTYLE
  2
AcDbMLeaderStyle
  3
ACDB_MLEADERSTYLE_CLASS
 90
     4095
280
     0
281
     0
  0
CLASS
  1
ACDBSECTIONVIEWSTYLE
  2
AcDbSectionViewStyle
  3
ObjectDBX Classes
 90
     1025
280
     0
281
     0
  0
CLASS
  1
ACDBDETAILVIEWSTYLE
  2
AcDbDetailViewStyle
  3
ObjectDBX Classes
 90
     1025
280
     0
281
     0
  0
CLASS
  1
CELLSTYLEMAP
  2
AcDbCellStyleMap
  3
ObjectDBX Classes
 90
     1152
280
     0
281
     0
  0
ENDSEC
  0
SECTION
  2
TABLES
  0
TABLE
  2
VPORT
  5
14796
330
0
100
AcDbSymbolTable
 70
     1
  0
VPORT
  5
14B06
330
14796
100
AcDbSymbolTableRecord
100
AcDbViewportTableRecord
  2
*ACTIVE
 70
     0
 10
0.0
 20
0.0
 11
1.0
 21
1.0
 12
571.9223718408086
 22
397.4198269221811
 13
0.0
 23
0.0
 14
10.0
 24
10.0
 15
10.0
 25
10.0
 16
0.0
 26
0.0
 36
1.0
 17
0.0
 27
0.0
 37
0.0
 40
783.5418881585337
 41
1.899603698811096
 42
50.0
 43
0.0
 44
0.0
 50
0.0
 51
0.0
 71
     0
 72
   100
 73
     1
 74
     0
 75
     0
 76
     0
 77
     0
 78
     0
281
     0
 65
     1
110
0.0
120
0.0
130
0.0
111
1.0
121
0.0
131
0.0
112
0.0
122
1.0
132
0.0
 79
     0
146
0.0
1001
ACAD_NAV_VCDISPLAY
1070
     3
  0
ENDTAB
  0
TABLE
  2
LTYPE
  5
14793
330
0
100
AcDbSymbolTable
 70
     4
  0
LTYPE
  5
147A1
330
14793
100
AcDbSymbolTableRecord
100
AcDbLinetypeTableRecord
  2
BYBLOCK
 70
     0
  3

 72
    65
 73
     0
 40
0.0
  0
LTYPE
  5
147A2
330
14793
100
AcDbSymbolTableRecord
100
AcDbLinetypeTableRecord
  2
BYLAYER
 70
     0
  3

 72
    65
 73
     0
 40
0.0
  0
LTYPE
  5
147A3
330
14793
100
AcDbSymbolTableRecord
100
AcDbLinetypeTableRecord
  2
CONTINUOUS
 70
     0
  3
Solid line
 72
    65
 73
     0
 40
0.0
  0
LTYPE
  5
147B1
330
14793
100
AcDbSymbolTableRecord
100
AcDbLinetypeTableRecord
  2
DASHED
 70
     0
  3
__ __ __ __ __ __ __ __ __ __ __ __ __ __ __ __
 72
    65
 73
     2
 40
0.75
 49
0.5
 74
     0
 49
-0.25
 74
     0
  0
LTYPE
  5
147B2
330
14793
100
AcDbSymbolTableRecord
100
AcDbLinetypeTableRecord
  2
CENTER
 70
     0
  3
____ _ ____ _ ____ _ ____ _ ____ _ ____ _ ____ 
 72
    65
 73
     4
 40
2.0
 49
1.25
 74
     0
 49
-0.25
 74
     0
 49
0.25
 74
     0
 49
-0.25
 74
     0
  0
LTYPE
  5
147B3
330
14793
100
AcDbSymbolTableRecord
100
AcDbLinetypeTableRecord
  2
PHANTOM
 70
     0
  3
______  __  __  ______  __  __  ______  __  __ 
 72
    65
 73
     6
 40
2.5
 49
1.25
 74
     0
 49
-0.25
 74
     0
 49
0.25
 74
     0
 49
-0.25
 74
     0
 49
0.25
 74
     0
 49
-0.25
 74
     0
  0
ENDTAB
  0
TABLE
  2
LAYER
  5
14790
330
0
100
AcDbSymbolTable
 70
     8
  0
LAYER
  5
1479E
102
{ACAD_XDICTIONARY
360
14B61
102
}
330
14790
100
AcDbSymbolTableRecord
100
AcDbLayerTableRecord
  2
0
 70
     0
 62
     7
  6
CONTINUOUS
370
    -3
390
14B0F
  0
LAYER
  5
147B4
102
{ACAD_XDICTIONARY
360
14B63
102
}
330
14790
100
AcDbSymbolTableRecord
100
AcDbLayerTableRecord
  2
4
 70
     0
 62
     1
  6
CENTER
370
    -3
390
14B0F
  0
LAYER
  5
147B5
102
{ACAD_XDICTIONARY
360
14B65
102
}
330
14790
100
AcDbSymbolTableRecord
100
AcDbLayerTableRecord
  2
5
 70
     0
 62
     6
  6
PHANTOM
370
    -3
390
14B0F
  0
LAYER
  5
147B6
102
{ACAD_XDICTIONARY
360
14B67
102
}
330
14790
100
AcDbSymbolTableRecord
100
AcDbLayerTableRecord
  2
1
 70
     0
 62
     7
  6
CONTINUOUS
370
    -3
390
14B0F
  0
LAYER
  5
147B7
102
{ACAD_XDICTIONARY
360
14B69
102
}
330
14790
100
AcDbSymbolTableRecord
100
AcDbLayerTableRecord
  2
2
 70
     0
 62
     4
  6
CONTINUOUS
370
    -3
390
14B0F
  0
LAYER
  5
147B8
102
{ACAD_XDICTIONARY
360
14B6B
102
}
330
14790
100
AcDbSymbolTableRecord
100
AcDbLayerTableRecord
  2
3
 70
     0
 62
     2
  6
DASHED
370
    -3
390
14B0F
  0
LAYER
  5
147B9
102
{ACAD_XDICTIONARY
360
14B6D
102
}
330
14790
100
AcDbSymbolTableRecord
100
AcDbLayerTableRecord
  2
6
 70
     0
 62
     5
  6
CONTINUOUS
370
    -3
390
14B0F
  0
LAYER
  5
147BA
102
{ACAD_XDICTIONARY
360
14B6F
102
}
330
14790
100
AcDbSymbolTableRecord
100
AcDbLayerTableRecord
  2
7
 70
     0
 62
     3
  6
CONTINUOUS
370
    -3
390
14B0F
  0
ENDTAB
  0
TABLE
  2
STYLE
  5
14791
330
0
100
AcDbSymbolTable
 70
     1
  0
STYLE
  5
1479F
330
14791
100
AcDbSymbolTableRecord
100
AcDbTextStyleTableRecord
  2
STANDARD
 70
     0
 40
0.0
 41
1.0
 50
0.0
 71
     0
 42
5.0
  3
txt
  4

  0
ENDTAB
  0
TABLE
  2
VIEW
  5
14794
330
0
100
AcDbSymbolTable
 70
     0
  0
ENDTAB
  0
TABLE
  2
UCS
  5
14795
330
0
100
AcDbSymbolTable
 70
     0
  0
ENDTAB
  0
TABLE
  2
APPID
  5
14797
330
0
100
AcDbSymbolTable
 70
     3
  0
APPID
  5
147A0
330
14797
100
AcDbSymbolTableRecord
100
AcDbRegAppTableRecord
  2
ACAD
 70
     0
  0
APPID
  5
14B7B
330
14797
100
AcDbSymbolTableRecord
100
AcDbRegAppTableRecord
  2
ACAD_NAV_VCDISPLAY
 70
     0
  0
APPID
  5
14BB4
330
14797
100
AcDbSymbolTableRecord
100
AcDbRegAppTableRecord
  2
ACAD_MLEADERVER
 70
     0
  0
ENDTAB
  0
TABLE
  2
DIMSTYLE
  5
14798
330
0
100
AcDbSymbolTable
 70
     1
100
AcDbDimStyleTable
 71
     0
  0
DIMSTYLE
105
147BC
330
14798
100
AcDbSymbolTableRecord
100
AcDbDimStyleTableRecord
  2
STANDARD
 70
     0
 41
3.0
 42
1.0
 43
10.0
 44
1.0
 73
     0
 74
     0
 77
     3
 78
     8
140
2.5
141
0.0
147
1.0
172
     1
173
     1
284
     8
285
     8
286
     8
340
1479F
  0
ENDTAB
  0
TABLE
  2
BLOCK_RECORD
  5
1478F
330
0
100
AcDbSymbolTable
 70
     0
  0
BLOCK_RECORD
  5
147AC
102
{ACAD_XDICTIONARY
360
14B09
102
}
330
1478F
100
AcDbSymbolTableRecord
100
AcDbBlockTableRecord
  2
*MODEL_SPACE
340
14B5D
  0
BLOCK_RECORD
  5
147A8
102
{ACAD_XDICTIONARY
360
14B07
102
}
330
1478F
100
AcDbSymbolTableRecord
100
AcDbBlockTableRecord
  2
*PAPER_SPACE
340
14B5E
  0
ENDTAB
  0
ENDSEC
  0
SECTION
  2
BLOCKS
  0
BLOCK
  5
147AD
330
147AC
100
AcDbEntity
  8
0
100
AcDbBlockBegin
  2
*MODEL_SPACE
 70
     0
 10
0.0
 20
0.0
 30
0.0
  3
*MODEL_SPACE
  1

  0
ENDBLK
  5
147AE
330
147AC
100
AcDbEntity
  8
0
100
AcDbBlockEnd
  0
BLOCK
  5
147A9
330
147A8
100
AcDbEntity
 67
     1
  8
0
100
AcDbBlockBegin
  2
*PAPER_SPACE
 70
     0
 10
0.0
 20
0.0
 30
0.0
  3
*PAPER_SPACE
  1

  0
ENDBLK
  5
147AA
330
147A8
100
AcDbEntity
 67
     1
  8
0
100
AcDbBlockEnd
  0
ENDSEC
  0
SECTION
  2
ENTITIES
  0
TEXT
  5
147C4
330
147AC
100
AcDbEntity
  8
7
  6
Continuous
100
AcDbText
 10
10.0
 20
18.0
 30
0.0
 40
3.0
  1
TYPE No.TM-95-3
100
AcDbText
  0
TEXT
  5
147C5
330
147AC
100
AcDbEntity
  8
7
  6
Continuous
100
AcDbText
 10
10.0
 20
26.0
 30
0.0
 40
3.0
  1
CODE No.5276
100
AcDbText
  0
TEXT
  5
147C6
330
147AC
100
AcDbEntity
  8
1
  6
Continuous
100
AcDbText
 10
10.0
 20
10.0
 30
0.0
 40
1.399999999999999
  1
LAYER
100
AcDbText
  0
TEXT
  5
147C7
330
147AC
100
AcDbEntity
  8
1
  6
Continuous
100
AcDbText
 10
17.97951099999998
 20
10.04873699999998
 30
0.0
 40
1.399999999999999
  1
1
100
AcDbText
  0
TEXT
  5
147C8
330
147AC
100
AcDbEntity
  8
7
  6
Continuous
100
AcDbText
 10
29.97951099999999
 20
10.04873699999998
 30
0.0
 40
1.399999999999999
  1
7
100
AcDbText
  0
TEXT
  5
147C9
330
147AC
100
AcDbEntity
  8
4
  6
CENTER
100
AcDbText
 10
23.97951099999999
 20
10.04873699999998
 30
0.0
 40
1.399999999999999
  1
4
100
AcDbText
  0
TEXT
  5
147CA
330
147AC
100
AcDbEntity
  8
3
  6
DASHED
100
AcDbText
 10
21.979511
 20
10.04873699999998
 30
0.0
 40
1.399999999999999
  1
3
100
AcDbText
  0
TEXT
  5
147CB
330
147AC
100
AcDbEntity
  8
2
  6
Continuous
100
AcDbText
 10
19.97951099999999
 20
10.04873699999998
 30
0.0
 40
1.399999999999999
  1
2
100
AcDbText
  0
TEXT
  5
147CC
330
147AC
100
AcDbEntity
  8
6
  6
Continuous
100
AcDbText
 10
27.979511
 20
10.04873699999998
 30
0.0
 40
1.399999999999999
  1
6
100
AcDbText
  0
TEXT
  5
147CD
330
147AC
100
AcDbEntity
  8
5
  6
PHANTOM
100
AcDbText
 10
25.97951099999999
 20
10.04873699999998
 30
0.0
 40
1.399999999999999
  1
5
100
AcDbText
  0
LINE
  5
147CE
330
147AC
100
AcDbEntity
  8
1
  6
Continuous
100
AcDbLine
 10
298.8820759999999
 20
554.849816
 30
0.0
 11
317.8820759999999
 21
554.849816
 31
0.0
  0
LINE
  5
147CF
330
147AC
100
AcDbEntity
  8
1
  6
Continuous
100
AcDbLine
 10
298.8820759999999
 20
577.849816
 30
0.0
 11
345.882076
 21
577.849816
 31
0.0
  0
LINE
  5
147D0
330
147AC
100
AcDbEntity
  8
1
  6
Continuous
100
AcDbLine
 10
345.882076
 20
579.4498160000001
 30
0.0
 11
595.882076
 21
579.4498160000001
 31
0.0
  0
LINE
  5
147D1
330
147AC
100
AcDbEntity
  8
1
  6
Continuous
100
AcDbLine
 10
317.8820759999999
 20
553.249816
 30
0.0
 11
595.882076
 21
553.249816
 31
0.0
  0
LINE
  5
147D2
330
147AC
100
AcDbEntity
  8
1
  6
Continuous
100
AcDbLine
 10
595.882076
 20
553.249816
 30
0.0
 11
595.882076
 21
579.4498160000001
 31
0.0
  0
ARC
  5
147D3
330
147AC
100
AcDbEntity
  8
1
  6
Continuous
100
AcDbCircle
 10
298.8820759999999
 20
574.849816
 30
0.0
 40
3.0
100
AcDbArc
 50
90.0
 51
180.0
  0
ARC
  5
147D4
330
147AC
100
AcDbEntity
  8
1
  6
Continuous
100
AcDbCircle
 10
298.8820759999999
 20
557.849816
 30
0.0
 40
3.0
100
AcDbArc
 50
180.0
 51
270.0
  0
LINE
  5
147D5
330
147AC
100
AcDbEntity
  8
1
  6
Continuous
100
AcDbLine
 10
317.8820759999999
 20
553.249816
 30
0.0
 11
317.8820759999999
 21
554.849816
 31
0.0
  0
LINE
  5
147D6
330
147AC
100
AcDbEntity
  8
1
  6
Continuous
100
AcDbLine
 10
345.882076
 20
577.849816
 30
0.0
 11
345.882076
 21
579.4498160000001
 31
0.0
  0
LINE
  5
147D7
330
147AC
100
AcDbEntity
  8
4
  6
CENTER
100
AcDbLine
 10
290.8820759999999
 20
566.349816
 30
0.0
 11
600.8820759999998
 21
566.349816
 31
0.0
  0
ARC
  5
147D8
330
147AC
100
AcDbEntity
  8
1
  6
Continuous
100
AcDbCircle
 10
306.8820759999999
 20
560.849816
 30
0.0
 40
11.0
100
AcDbArc
 50
210.751502
 51
326.944269
  0
LINE
  5
147D9
330
147AC
100
AcDbEntity
  8
4
  6
CENTER
100
AcDbLine
 10
320.882076
 20
560.849816
 30
0.0
 11
292.8820759999999
 21
560.849816
 31
0.0
  0
LINE
  5
147DA
330
147AC
100
AcDbEntity
  8
4
  6
CENTER
100
AcDbLine
 10
306.8820759999999
 20
574.849816
 30
0.0
 11
306.8820759999999
 21
546.849816
 31
0.0
  0
CIRCLE
  5
147DB
330
147AC
100
AcDbEntity
  8
1
  6
Continuous
100
AcDbCircle
 10
315.8820759999999
 20
566.349816
 30
0.0
 40
2.0
  0
ARC
  5
147DC
330
147AC
100
AcDbEntity
  8
1
  6
Continuous
100
AcDbCircle
 10
306.8820759999999
 20
560.849816
 30
0.0
 40
11.0
100
AcDbArc
 50
21.052718
 51
41.806413
  0
LINE
  5
147DD
330
147AC
100
AcDbEntity
  8
4
  6
CENTER
100
AcDbLine
 10
315.8820759999999
 20
570.349816
 30
0.0
 11
315.8820759999999
 21
562.349816
 31
0.0
  0
CIRCLE
  5
147DE
330
147AC
100
AcDbEntity
  8
1
  6
Continuous
100
AcDbCircle
 10
306.8820759999999
 20
560.849816
 30
0.0
 40
3.649999999999999
  0
LINE
  5
147DF
330
147AC
100
AcDbEntity
  8
4
  6
CENTER
100
AcDbLine
 10
327.8820759999999
 20
560.349816
 30
0.0
 11
327.8820759999999
 21
572.349816
 31
0.0
  0
CIRCLE
  5
147E0
330
147AC
100
AcDbEntity
  8
1
  6
Continuous
100
AcDbCircle
 10
327.8820759999999
 20
566.349816
 30
0.0
 40
3.0
  0
LINE
  5
147E1
330
147AC
100
AcDbEntity
  8
4
  6
CENTER
100
AcDbLine
 10
411.882076
 20
560.349816
 30
0.0
 11
411.882076
 21
572.349816
 31
0.0
  0
CIRCLE
  5
147E2
330
147AC
100
AcDbEntity
  8
1
  6
Continuous
100
AcDbCircle
 10
411.882076
 20
566.349816
 30
0.0
 40
3.0
  0
CIRCLE
  5
147E3
330
147AC
100
AcDbEntity
  8
1
  6
Continuous
100
AcDbCircle
 10
495.882076
 20
566.349816
 30
0.0
 40
3.0
  0
LINE
  5
147E4
330
147AC
100
AcDbEntity
  8
4
  6
CENTER
100
AcDbLine
 10
495.882076
 20
560.349816
 30
0.0
 11
495.882076
 21
572.349816
 31
0.0
  0
LINE
  5
147E5
330
147AC
100
AcDbEntity
  8
4
  6
CENTER
100
AcDbLine
 10
579.8820759999999
 20
560.349816
 30
0.0
 11
579.8820759999999
 21
572.349816
 31
0.0
  0
CIRCLE
  5
147E6
330
147AC
100
AcDbEntity
  8
1
  6
Continuous
100
AcDbCircle
 10
579.8820759999999
 20
566.349816
 30
0.0
 40
3.0
  0
LINE
  5
147E7
330
147AC
100
AcDbEntity
  8
4
  6
CENTER
100
AcDbLine
 10
545.882076
 20
561.849816
 30
0.0
 11
545.882076
 21
570.849816
 31
0.0
  0
CIRCLE
  5
147E8
330
147AC
100
AcDbEntity
  8
1
  6
Continuous
100
AcDbCircle
 10
545.882076
 20
566.349816
 30
0.0
 40
2.0
  0
LINE
  5
147E9
330
147AC
100
AcDbEntity
  8
1
  6
Continuous
100
AcDbLine
 10
35.4
 20
579.4498160000001
 30
0.0
 11
29.0
 21
579.4498160000001
 31
0.0
  0
LINE
  5
147EA
330
147AC
100
AcDbEntity
  8
1
  6
Continuous
100
AcDbLine
 10
37.0
 20
577.849816
 30
0.0
 11
29.0
 21
577.849816
 31
0.0
  0
LINE
  5
147EB
330
147AC
100
AcDbEntity
  8
1
  6
Continuous
100
AcDbLine
 10
37.0
 20
577.849816
 30
0.0
 11
37.0
 21
554.849816
 31
0.0
  0
LINE
  5
147EC
330
147AC
100
AcDbEntity
  8
1
  6
Continuous
100
AcDbLine
 10
37.0
 20
554.849816
 30
0.0
 11
34.39999999999999
 21
554.849816
 31
0.0
  0
LINE
  5
147ED
330
147AC
100
AcDbEntity
  8
1
  6
Continuous
100
AcDbLine
 10
35.4
 20
553.249816
 30
0.0
 11
34.39999999999999
 21
553.249816
 31
0.0
  0
LINE
  5
147EE
330
147AC
100
AcDbEntity
  8
1
  6
Continuous
100
AcDbLine
 10
29.0
 20
579.4498160000001
 30
0.0
 11
29.0
 21
577.849816
 31
0.0
  0
LINE
  5
147EF
330
147AC
100
AcDbEntity
  8
1
  6
Continuous
100
AcDbLine
 10
35.4
 20
577.849816
 30
0.0
 11
35.4
 21
554.849816
 31
0.0
  0
ARC
  5
147F0
330
147AC
100
AcDbEntity
  8
1
  6
Continuous
100
AcDbCircle
 10
35.4
 20
577.849816
 30
0.0
 40
1.6
100
AcDbArc
 50
0.0
 51
90.0
  0
ARC
  5
147F1
330
147AC
100
AcDbEntity
  8
1
  6
Continuous
100
AcDbCircle
 10
35.4
 20
554.849816
 30
0.0
 40
1.6
100
AcDbArc
 50
270.0
 51
0.0
  0
LINE
  5
147F2
330
147AC
100
AcDbEntity
  8
4
  6
CENTER
100
AcDbLine
 10
32.512867
 20
566.349816
 30
0.0
 11
39.43426999999999
 21
566.349816
 31
0.0
  0
LINE
  5
147F3
330
147AC
100
AcDbEntity
  8
1
  6
Continuous
100
AcDbLine
 10
34.6
 20
576.349816
 30
0.0
 11
34.6
 21
565.599816
 31
0.0
  0
LINE
  5
147F4
330
147AC
100
AcDbEntity
  8
1
  6
Continuous
100
AcDbLine
 10
27.6
 20
576.349816
 30
0.0
 11
27.6
 21
573.4498160000002
 31
0.0
  0
ARC
  5
147F5
330
147AC
100
AcDbEntity
  8
1
  6
Continuous
100
AcDbCircle
 10
34.1
 20
555.349816
 30
0.0
 40
0.5
100
AcDbArc
 50
306.8698979999999
 51
0.0
  0
LINE
  5
147F6
330
147AC
100
AcDbEntity
  8
1
  6
Continuous
100
AcDbLine
 10
26.6
 20
570.099816
 30
0.0
 11
26.6
 21
561.599816
 31
0.0
  0
LINE
  5
147F7
330
147AC
100
AcDbEntity
  8
1
  6
Continuous
100
AcDbLine
 10
27.1
 20
561.099816
 30
0.0
 11
27.1
 21
570.599816
 31
0.0
  0
LINE
  5
147F8
330
147AC
100
AcDbEntity
  8
1
  6
Continuous
100
AcDbLine
 10
27.1
 20
561.099816
 30
0.0
 11
26.6
 21
561.599816
 31
0.0
  0
LINE
  5
147F9
330
147AC
100
AcDbEntity
  8
1
  6
Continuous
100
AcDbLine
 10
27.1
 20
570.599816
 30
0.0
 11
26.6
 21
570.099816
 31
0.0
  0
LINE
  5
147FA
330
147AC
100
AcDbEntity
  8
1
  6
Continuous
100
AcDbLine
 10
27.1
 20
561.099816
 30
0.0
 11
27.4
 21
561.099816
 31
0.0
  0
LINE
  5
147FB
330
147AC
100
AcDbEntity
  8
1
  6
Continuous
100
AcDbLine
 10
27.1
 20
570.599816
 30
0.0
 11
27.4
 21
570.599816
 31
0.0
  0
LINE
  5
147FC
330
147AC
100
AcDbEntity
  8
1
  6
Continuous
100
AcDbLine
 10
34.1
 20
576.849816
 30
0.0
 11
28.1
 21
576.849816
 31
0.0
  0
ARC
  5
147FD
330
147AC
100
AcDbEntity
  8
1
  6
Continuous
100
AcDbCircle
 10
34.1
 20
576.349816
 30
0.0
 40
0.5
100
AcDbArc
 50
0.0
 51
90.0
  0
ARC
  5
147FE
330
147AC
100
AcDbEntity
  8
1
  6
Continuous
100
AcDbCircle
 10
28.1
 20
576.349816
 30
0.0
 40
0.5
100
AcDbArc
 50
90.0
 51
180.0
  0
LINE
  5
147FF
330
147AC
100
AcDbEntity
  8
4
  6
CENTER
100
AcDbLine
 10
39.591998
 20
560.849816
 30
0.0
 11
25.943987
 21
560.849816
 31
0.0
  0
LINE
  5
14800
330
147AC
100
AcDbEntity
  8
1
  6
Continuous
100
AcDbLine
 10
34.9
 20
556.099816
 30
0.0
 11
34.9
 21
565.599816
 31
0.0
  0
LINE
  5
14801
330
147AC
100
AcDbEntity
  8
1
  6
Continuous
100
AcDbLine
 10
27.4
 20
571.349816
 30
0.0
 11
27.4
 21
550.349816
 31
0.0
  0
LINE
  5
14802
330
147AC
100
AcDbEntity
  8
1
  6
Continuous
100
AcDbLine
 10
34.39999999999999
 20
571.349816
 30
0.0
 11
34.39999999999999
 21
550.349816
 31
0.0
  0
ARC
  5
14803
330
147AC
100
AcDbEntity
  8
1
  6
Continuous
100
AcDbCircle
 10
33.9
 20
550.349816
 30
0.0
 40
0.5
100
AcDbArc
 50
270.0
 51
0.0
  0
LINE
  5
14804
330
147AC
100
AcDbEntity
  8
1
  6
Continuous
100
AcDbLine
 10
34.9
 20
556.099816
 30
0.0
 11
34.39999999999999
 21
556.099816
 31
0.0
  0
LINE
  5
14805
330
147AC
100
AcDbEntity
  8
1
  6
Continuous
100
AcDbLine
 10
27.9
 20
549.849816
 30
0.0
 11
33.9
 21
549.849816
 31
0.0
  0
ARC
  5
14806
330
147AC
100
AcDbEntity
  8
1
  6
Continuous
100
AcDbCircle
 10
27.9
 20
550.349816
 30
0.0
 40
0.5
100
AcDbArc
 50
180.0
 51
270.0
  0
LINE
  5
14807
330
147AC
100
AcDbEntity
  8
1
  6
Continuous
100
AcDbLine
 10
34.9
 20
556.099816
 30
0.0
 11
35.4
 21
556.599816
 31
0.0
  0
ARC
  5
14808
330
147AC
100
AcDbEntity
  8
1
  6
Continuous
100
AcDbCircle
 10
33.9
 20
571.349816
 30
0.0
 40
0.5
100
AcDbArc
 50
0.0
 51
90.0
  0
LINE
  5
14809
330
147AC
100
AcDbEntity
  8
1
  6
Continuous
100
AcDbLine
 10
34.9
 20
565.599816
 30
0.0
 11
34.39999999999999
 21
565.599816
 31
0.0
  0
LINE
  5
1480A
330
147AC
100
AcDbEntity
  8
1
  6
Continuous
100
AcDbLine
 10
26.6
 20
571.849816
 30
0.0
 11
33.9
 21
571.849816
 31
0.0
  0
ARC
  5
1480B
330
147AC
100
AcDbEntity
  8
1
  6
Continuous
100
AcDbCircle
 10
27.9
 20
571.349816
 30
0.0
 40
0.5
100
AcDbArc
 50
90.0
 51
180.0
  0
LINE
  5
1480C
330
147AC
100
AcDbEntity
  8
1
  6
Continuous
100
AcDbLine
 10
34.9
 20
565.599816
 30
0.0
 11
35.4
 21
565.099816
 31
0.0
  0
LINE
  5
1480D
330
147AC
100
AcDbEntity
  8
1
  6
Continuous
100
AcDbLine
 10
37.7
 20
564.499816
 30
0.0
 11
37.7
 21
557.199816
 31
0.0
  0
LINE
  5
1480E
330
147AC
100
AcDbEntity
  8
1
  6
Continuous
100
AcDbLine
 10
37.7
 20
564.499816
 30
0.0
 11
37.0
 21
563.7998159999997
 31
0.0
  0
LINE
  5
1480F
330
147AC
100
AcDbEntity
  8
1
  6
Continuous
100
AcDbLine
 10
37.7
 20
557.199816
 30
0.0
 11
37.0
 21
557.899816
 31
0.0
  0
LINE
  5
14810
330
147AC
100
AcDbEntity
  8
1
  6
Continuous
100
AcDbLine
 10
25.0
 20
551.849816
 30
0.0
 11
26.6
 21
551.849816
 31
0.0
  0
LINE
  5
14811
330
147AC
100
AcDbEntity
  8
1
  6
Continuous
100
AcDbLine
 10
26.6
 20
573.4498160000002
 30
0.0
 11
33.0
 21
573.4498160000002
 31
0.0
  0
LINE
  5
14812
330
147AC
100
AcDbEntity
  8
1
  6
Continuous
100
AcDbLine
 10
25.0
 20
571.849816
 30
0.0
 11
25.0
 21
551.849816
 31
0.0
  0
LINE
  5
14813
330
147AC
100
AcDbEntity
  8
1
  6
Continuous
100
AcDbLine
 10
26.6
 20
571.849816
 30
0.0
 11
26.6
 21
551.849816
 31
0.0
  0
LINE
  5
14814
330
147AC
100
AcDbEntity
  8
4
  6
CENTER
100
AcDbLine
 10
22.36147799999999
 20
561.849816
 30
0.0
 11
29.28288099999999
 21
561.849816
 31
0.0
  0
LINE
  5
14815
330
147AC
100
AcDbEntity
  8
1
  6
Continuous
100
AcDbLine
 10
33.0
 20
573.4498160000002
 30
0.0
 11
33.0
 21
571.849816
 31
0.0
  0
ARC
  5
14816
330
147AC
100
AcDbEntity
  8
1
  6
Continuous
100
AcDbCircle
 10
26.6
 20
571.849816
 30
0.0
 40
1.6
100
AcDbArc
 50
90.0
 51
180.0
  0
LINE
  5
14817
330
147AC
100
AcDbEntity
  8
4
  6
CENTER
100
AcDbLine
 10
22.36147799999999
 20
565.849816
 30
0.0
 11
36.169351
 21
565.849816
 31
0.0
  0
LINE
  5
14818
330
147AC
100
AcDbEntity
  8
1
  6
Continuous
100
AcDbLine
 10
24.3
 20
569.4998159999999
 30
0.0
 11
24.3
 21
562.199816
 31
0.0
  0
LINE
  5
14819
330
147AC
100
AcDbEntity
  8
1
  6
Continuous
100
AcDbLine
 10
24.3
 20
569.4998159999999
 30
0.0
 11
25.0
 21
568.7998159999997
 31
0.0
  0
LINE
  5
1481A
330
147AC
100
AcDbEntity
  8
1
  6
Continuous
100
AcDbLine
 10
24.3
 20
562.199816
 30
0.0
 11
25.0
 21
562.899816
 31
0.0
  0
LINE
  5
1481B
330
147AC
100
AcDbEntity
  8
1
  6
Continuous
100
AcDbLine
 10
34.6
 20
556.099816
 30
0.0
 11
34.6
 21
555.349816
 31
0.0
  0
LINE
  5
1481C
330
147AC
100
AcDbEntity
  8
1
  6
Continuous
100
AcDbLine
 10
27.6
 20
571.849816
 30
0.0
 11
27.6
 21
571.7498159999998
 31
0.0
  0
LINE
  5
1481D
330
147AC
100
AcDbEntity
  8
1
  6
Continuous
100
AcDbLine
 10
649.764152
 20
577.849816
 30
0.0
 11
649.764152
 21
554.849816
 31
0.0
  0
LINE
  5
1481E
330
147AC
100
AcDbEntity
  8
1
  6
Continuous
100
AcDbLine
 10
651.364152
 20
577.849816
 30
0.0
 11
651.364152
 21
554.849816
 31
0.0
  0
LINE
  5
1481F
330
147AC
100
AcDbEntity
  8
1
  6
Continuous
100
AcDbLine
 10
659.364152
 20
571.349816
 30
0.0
 11
659.364152
 21
570.599816
 31
0.0
  0
LINE
  5
14820
330
147AC
100
AcDbEntity
  8
1
  6
Continuous
100
AcDbLine
 10
652.3641519999999
 20
554.949816
 30
0.0
 11
652.3641519999999
 21
554.849816
 31
0.0
  0
LINE
  5
14821
330
147AC
100
AcDbEntity
  8
1
  6
Continuous
100
AcDbLine
 10
660.1641519999998
 20
571.849816
 30
0.0
 11
660.1641519999998
 21
551.849816
 31
0.0
  0
LINE
  5
14822
330
147AC
100
AcDbEntity
  8
1
  6
Continuous
100
AcDbLine
 10
661.7641519999997
 20
571.849816
 30
0.0
 11
661.7641519999997
 21
551.849816
 31
0.0
  0
LINE
  5
14823
330
147AC
100
AcDbEntity
  8
1
  6
Continuous
100
AcDbLine
 10
662.4641519999999
 20
569.4998159999999
 30
0.0
 11
662.4641519999999
 21
562.199816
 31
0.0
  0
LINE
  5
14824
330
147AC
100
AcDbEntity
  8
1
  6
Continuous
100
AcDbLine
 10
659.6641519999998
 20
561.099816
 30
0.0
 11
659.6641519999998
 21
570.599816
 31
0.0
  0
LINE
  5
14825
330
147AC
100
AcDbEntity
  8
1
  6
Continuous
100
AcDbLine
 10
660.1641519999998
 20
570.099816
 30
0.0
 11
660.1641519999998
 21
561.599816
 31
0.0
  0
LINE
  5
14826
330
147AC
100
AcDbEntity
  8
1
  6
Continuous
100
AcDbLine
 10
652.1641519999998
 20
576.349816
 30
0.0
 11
652.1641519999998
 21
555.349816
 31
0.0
  0
LINE
  5
14827
330
147AC
100
AcDbEntity
  8
4
  6
CENTER
100
AcDbLine
 10
664.4026740000001
 20
561.849816
 30
0.0
 11
657.4812709999998
 21
561.849816
 31
0.0
  0
LINE
  5
14828
330
147AC
100
AcDbEntity
  8
1
  6
Continuous
100
AcDbLine
 10
658.864152
 20
549.849816
 30
0.0
 11
652.8641519999998
 21
549.849816
 31
0.0
  0
LINE
  5
14829
330
147AC
100
AcDbEntity
  8
4
  6
CENTER
100
AcDbLine
 10
664.4026740000001
 20
565.849816
 30
0.0
 11
650.594801
 21
565.849816
 31
0.0
  0
LINE
  5
1482A
330
147AC
100
AcDbEntity
  8
4
  6
CENTER
100
AcDbLine
 10
647.1721539999997
 20
560.849816
 30
0.0
 11
660.8201659999997
 21
560.849816
 31
0.0
  0
ARC
  5
1482B
330
147AC
100
AcDbEntity
  8
1
  6
Continuous
100
AcDbCircle
 10
658.864152
 20
550.349816
 30
0.0
 40
0.5
100
AcDbArc
 50
270.0
 51
0.0
  0
LINE
  5
1482C
330
147AC
100
AcDbEntity
  8
1
  6
Continuous
100
AcDbLine
 10
661.7641519999997
 20
551.849816
 30
0.0
 11
660.1641519999998
 21
551.849816
 31
0.0
  0
LINE
  5
1482D
330
147AC
100
AcDbEntity
  8
1
  6
Continuous
100
AcDbLine
 10
662.4641519999999
 20
562.199816
 30
0.0
 11
661.7641519999997
 21
562.899816
 31
0.0
  0
LINE
  5
1482E
330
147AC
100
AcDbEntity
  8
1
  6
Continuous
100
AcDbLine
 10
659.6641519999998
 20
561.099816
 30
0.0
 11
660.1641519999998
 21
561.599816
 31
0.0
  0
LINE
  5
1482F
330
147AC
100
AcDbEntity
  8
1
  6
Continuous
100
AcDbLine
 10
659.6641519999998
 20
561.099816
 30
0.0
 11
659.1641519999998
 21
561.099816
 31
0.0
  0
ARC
  5
14830
330
147AC
100
AcDbEntity
  8
1
  6
Continuous
100
AcDbCircle
 10
651.364152
 20
554.849816
 30
0.0
 40
1.6
100
AcDbArc
 50
180.0
 51
270.0
  0
LINE
  5
14831
330
147AC
100
AcDbEntity
  8
1
  6
Continuous
100
AcDbLine
 10
651.864152
 20
556.099816
 30
0.0
 11
651.864152
 21
565.599816
 31
0.0
  0
ARC
  5
14832
330
147AC
100
AcDbEntity
  8
1
  6
Continuous
100
AcDbCircle
 10
652.8641519999998
 20
550.349816
 30
0.0
 40
0.5
100
AcDbArc
 50
180.0
 51
270.0
  0
LINE
  5
14833
330
147AC
100
AcDbEntity
  8
1
  6
Continuous
100
AcDbLine
 10
651.864152
 20
556.099816
 30
0.0
 11
652.1641519999998
 21
556.099816
 31
0.0
  0
LINE
  5
14834
330
147AC
100
AcDbEntity
  8
1
  6
Continuous
100
AcDbLine
 10
651.864152
 20
556.099816
 30
0.0
 11
651.364152
 21
556.599816
 31
0.0
  0
LINE
  5
14835
330
147AC
100
AcDbEntity
  8
1
  6
Continuous
100
AcDbLine
 10
651.864152
 20
565.599816
 30
0.0
 11
652.1641519999998
 21
565.599816
 31
0.0
  0
LINE
  5
14836
330
147AC
100
AcDbEntity
  8
1
  6
Continuous
100
AcDbLine
 10
651.864152
 20
565.599816
 30
0.0
 11
651.364152
 21
565.099816
 31
0.0
  0
LINE
  5
14837
330
147AC
100
AcDbEntity
  8
1
  6
Continuous
100
AcDbLine
 10
651.364152
 20
554.849816
 30
0.0
 11
658.6641519999998
 21
554.849816
 31
0.0
  0
LINE
  5
14838
330
147AC
100
AcDbEntity
  8
1
  6
Continuous
100
AcDbLine
 10
651.364152
 20
553.249816
 30
0.0
 11
657.764152
 21
553.249816
 31
0.0
  0
LINE
  5
14839
330
147AC
100
AcDbEntity
  8
1
  6
Continuous
100
AcDbLine
 10
649.0641519999997
 20
564.499816
 30
0.0
 11
649.764152
 21
563.7998159999997
 31
0.0
  0
LINE
  5
1483A
330
147AC
100
AcDbEntity
  8
1
  6
Continuous
100
AcDbLine
 10
649.0641519999997
 20
557.199816
 30
0.0
 11
649.764152
 21
557.899816
 31
0.0
  0
LINE
  5
1483B
330
147AC
100
AcDbEntity
  8
1
  6
Continuous
100
AcDbLine
 10
649.0641519999997
 20
564.499816
 30
0.0
 11
649.0641519999997
 21
557.199816
 31
0.0
  0
LINE
  5
1483C
330
147AC
100
AcDbEntity
  8
1
  6
Continuous
100
AcDbLine
 10
661.7641519999997
 20
571.849816
 30
0.0
 11
659.1641519999998
 21
571.849816
 31
0.0
  0
LINE
  5
1483D
330
147AC
100
AcDbEntity
  8
1
  6
Continuous
100
AcDbLine
 10
660.1641519999998
 20
573.4498160000002
 30
0.0
 11
659.1641519999998
 21
573.4498160000002
 31
0.0
  0
LINE
  5
1483E
330
147AC
100
AcDbEntity
  8
1
  6
Continuous
100
AcDbLine
 10
652.6641519999998
 20
576.849816
 30
0.0
 11
658.6641519999998
 21
576.849816
 31
0.0
  0
ARC
  5
1483F
330
147AC
100
AcDbEntity
  8
1
  6
Continuous
100
AcDbCircle
 10
658.864152
 20
571.349816
 30
0.0
 40
0.5
100
AcDbArc
 50
0.0
 51
53.130102
  0
ARC
  5
14840
330
147AC
100
AcDbEntity
  8
1
  6
Continuous
100
AcDbCircle
 10
660.1641519999998
 20
571.849816
 30
0.0
 40
1.6
100
AcDbArc
 50
0.0
 51
90.0
  0
LINE
  5
14841
330
147AC
100
AcDbEntity
  8
1
  6
Continuous
100
AcDbLine
 10
662.4641519999999
 20
569.4998159999999
 30
0.0
 11
661.7641519999997
 21
568.7998159999997
 31
0.0
  0
LINE
  5
14842
330
147AC
100
AcDbEntity
  8
1
  6
Continuous
100
AcDbLine
 10
659.6641519999998
 20
570.599816
 30
0.0
 11
660.1641519999998
 21
570.099816
 31
0.0
  0
ARC
  5
14843
330
147AC
100
AcDbEntity
  8
1
  6
Continuous
100
AcDbCircle
 10
658.6641519999998
 20
576.349816
 30
0.0
 40
0.5
100
AcDbArc
 50
0.0
 51
90.0
  0
LINE
  5
14844
330
147AC
100
AcDbEntity
  8
1
  6
Continuous
100
AcDbLine
 10
659.1641519999998
 20
576.349816
 30
0.0
 11
659.1641519999998
 21
555.349816
 31
0.0
  0
LINE
  5
14845
330
147AC
100
AcDbEntity
  8
1
  6
Continuous
100
AcDbLine
 10
659.6641519999998
 20
570.599816
 30
0.0
 11
659.1641519999998
 21
570.599816
 31
0.0
  0
ARC
  5
14846
330
147AC
100
AcDbEntity
  8
1
  6
Continuous
100
AcDbCircle
 10
651.364152
 20
577.849816
 30
0.0
 40
1.6
100
AcDbArc
 50
90.0
 51
180.0
  0
ARC
  5
14847
330
147AC
100
AcDbEntity
  8
1
  6
Continuous
100
AcDbCircle
 10
652.6641519999998
 20
576.349816
 30
0.0
 40
0.5
100
AcDbArc
 50
90.0
 51
180.0
  0
LINE
  5
14848
330
147AC
100
AcDbEntity
  8
4
  6
CENTER
100
AcDbLine
 10
654.2512849999999
 20
566.349816
 30
0.0
 11
647.329882
 21
566.349816
 31
0.0
  0
LINE
  5
14849
330
147AC
100
AcDbEntity
  8
1
  6
Continuous
100
AcDbLine
 10
657.764152
 20
579.4498160000001
 30
0.0
 11
657.764152
 21
577.849816
 31
0.0
  0
LINE
  5
1484A
330
147AC
100
AcDbEntity
  8
1
  6
Continuous
100
AcDbLine
 10
651.364152
 20
579.4498160000001
 30
0.0
 11
657.764152
 21
579.4498160000001
 31
0.0
  0
LINE
  5
1484B
330
147AC
100
AcDbEntity
  8
1
  6
Continuous
100
AcDbLine
 10
651.364152
 20
577.849816
 30
0.0
 11
657.764152
 21
577.849816
 31
0.0
  0
LINE
  5
1484C
330
147AC
100
AcDbEntity
  8
1
  6
Continuous
100
AcDbLine
 10
657.764152
 20
553.249816
 30
0.0
 11
657.764152
 21
554.849816
 31
0.0
  0
ARC
  5
1484D
330
147AC
100
AcDbEntity
  8
1
  6
Continuous
100
AcDbCircle
 10
652.6641519999998
 20
555.349816
 30
0.0
 40
0.5
100
AcDbArc
 50
180.0
 51
270.0
  0
ARC
  5
1484E
330
147AC
100
AcDbEntity
  8
1
  6
Continuous
100
AcDbCircle
 10
658.6641519999998
 20
555.349816
 30
0.0
 40
0.5
100
AcDbArc
 50
270.0
 51
0.0
  0
LINE
  5
1484F
330
147AC
100
AcDbEntity
  8
1
  6
Continuous
100
AcDbLine
 10
652.3641519999999
 20
553.249816
 30
0.0
 11
652.3641519999999
 21
550.349816
 31
0.0
  0
LINE
  5
14850
330
147AC
100
AcDbEntity
  8
1
  6
Continuous
100
AcDbLine
 10
659.364152
 20
561.099816
 30
0.0
 11
659.364152
 21
550.349816
 31
0.0
  0
LINE
  5
14851
330
147AC
100
AcDbEntity
  8
1
  6
Continuous
100
AcDbLine
 10
592.8820759999998
 20
667.849816
 30
0.0
 11
348.8820759999999
 21
667.849816
 31
0.0
  0
LINE
  5
14852
330
147AC
100
AcDbEntity
  8
1
  6
Continuous
100
AcDbLine
 10
595.882076
 20
659.849816
 30
0.0
 11
295.882076
 21
659.849816
 31
0.0
  0
LINE
  5
14853
330
147AC
100
AcDbEntity
  8
1
  6
Continuous
100
AcDbLine
 10
295.882076
 20
659.849816
 30
0.0
 11
295.882076
 21
661.4498160000001
 31
0.0
  0
LINE
  5
14854
330
147AC
100
AcDbEntity
  8
1
  6
Continuous
100
AcDbLine
 10
345.882076
 20
659.849816
 30
0.0
 11
345.882076
 21
664.849816
 31
0.0
  0
LINE
  5
14855
330
147AC
100
AcDbEntity
  8
1
  6
Continuous
100
AcDbLine
 10
345.882076
 20
661.4498160000001
 30
0.0
 11
295.882076
 21
661.4498160000001
 31
0.0
  0
ARC
  5
14856
330
147AC
100
AcDbEntity
  8
1
  6
Continuous
100
AcDbCircle
 10
348.8820759999999
 20
664.849816
 30
0.0
 40
3.0
100
AcDbArc
 50
90.0
 51
180.0
  0
LINE
  5
14857
330
147AC
100
AcDbEntity
  8
1
  6
Continuous
100
AcDbLine
 10
595.882076
 20
659.849816
 30
0.0
 11
595.882076
 21
664.849816
 31
0.0
  0
ARC
  5
14858
330
147AC
100
AcDbEntity
  8
1
  6
Continuous
100
AcDbCircle
 10
592.8820759999998
 20
664.849816
 30
0.0
 40
3.0
100
AcDbArc
 50
0.0
 51
90.0
  0
LINE
  5
14859
330
147AC
100
AcDbEntity
  8
1
  6
Continuous
100
AcDbLine
 10
317.8820759999999
 20
661.4498160000001
 30
0.0
 11
317.8820759999999
 21
663.849816
 31
0.0
  0
LINE
  5
1485A
330
147AC
100
AcDbEntity
  8
4
  6
CENTER
100
AcDbLine
 10
306.8820759999999
 20
673.2695859999997
 30
0.0
 11
306.8820759999999
 21
655.349816
 31
0.0
  0
ARC
  5
1485B
330
147AC
100
AcDbEntity
  8
1
  6
Continuous
100
AcDbCircle
 10
317.3820759999999
 20
662.9498160000001
 30
0.0
 40
0.5
100
AcDbArc
 50
270.0
 51
0.0
  0
LINE
  5
1485C
330
147AC
100
AcDbEntity
  8
1
  6
Continuous
100
AcDbLine
 10
317.3820759999999
 20
662.4498160000001
 30
0.0
 11
296.3820759999999
 21
662.4498160000001
 31
0.0
  0
ARC
  5
1485D
330
147AC
100
AcDbEntity
  8
1
  6
Continuous
100
AcDbCircle
 10
296.3820759999999
 20
662.9498160000001
 30
0.0
 40
0.5
100
AcDbArc
 50
180.0
 51
270.0
  0
LINE
  5
1485E
330
147AC
100
AcDbEntity
  8
1
  6
Continuous
100
AcDbLine
 10
302.132076
 20
661.9498160000001
 30
0.0
 11
302.6320759999999
 21
661.4498160000001
 31
0.0
  0
LINE
  5
1485F
330
147AC
100
AcDbEntity
  8
1
  6
Continuous
100
AcDbLine
 10
302.132076
 20
661.9498160000001
 30
0.0
 11
302.132076
 21
662.4498160000001
 31
0.0
  0
LINE
  5
14860
330
147AC
100
AcDbEntity
  8
1
  6
Continuous
100
AcDbLine
 10
311.6320759999999
 20
661.9498160000001
 30
0.0
 11
311.1320759999999
 21
661.4498160000001
 31
0.0
  0
LINE
  5
14861
330
147AC
100
AcDbEntity
  8
1
  6
Continuous
100
AcDbLine
 10
311.6320759999999
 20
661.9498160000001
 30
0.0
 11
311.6320759999999
 21
662.4498160000001
 31
0.0
  0
LINE
  5
14862
330
147AC
100
AcDbEntity
  8
1
  6
Continuous
100
AcDbLine
 10
302.132076
 20
661.9498160000001
 30
0.0
 11
311.6320759999999
 21
661.9498160000001
 31
0.0
  0
LINE
  5
14863
330
147AC
100
AcDbEntity
  8
1
  6
Continuous
100
AcDbLine
 10
310.5320759999999
 20
659.149816
 30
0.0
 11
303.2320759999998
 21
659.149816
 31
0.0
  0
LINE
  5
14864
330
147AC
100
AcDbEntity
  8
1
  6
Continuous
100
AcDbLine
 10
303.2320759999998
 20
659.149816
 30
0.0
 11
303.9320759999998
 21
659.849816
 31
0.0
  0
LINE
  5
14865
330
147AC
100
AcDbEntity
  8
1
  6
Continuous
100
AcDbLine
 10
310.5320759999999
 20
659.149816
 30
0.0
 11
309.832076
 21
659.849816
 31
0.0
  0
LINE
  5
14866
330
147AC
100
AcDbEntity
  8
1
  6
Continuous
100
AcDbLine
 10
295.882076
 20
662.9498160000001
 30
0.0
 11
295.882076
 21
663.849816
 31
0.0
  0
LINE
  5
14867
330
147AC
100
AcDbEntity
  8
4
  6
CENTER
100
AcDbLine
 10
315.8820759999999
 20
664.562335
 30
0.0
 11
315.8820759999999
 21
656.562335
 31
0.0
  0
LINE
  5
14868
330
147AC
100
AcDbEntity
  8
4
  6
CENTER
100
AcDbLine
 10
327.8820759999999
 20
664.562335
 30
0.0
 11
327.8820759999999
 21
656.562335
 31
0.0
  0
LINE
  5
14869
330
147AC
100
AcDbEntity
  8
4
  6
CENTER
100
AcDbLine
 10
411.882076
 20
664.562335
 30
0.0
 11
411.882076
 21
656.562335
 31
0.0
  0
LINE
  5
1486A
330
147AC
100
AcDbEntity
  8
4
  6
CENTER
100
AcDbLine
 10
495.882076
 20
664.562335
 30
0.0
 11
495.882076
 21
656.562335
 31
0.0
  0
LINE
  5
1486B
330
147AC
100
AcDbEntity
  8
4
  6
CENTER
100
AcDbLine
 10
579.8820759999999
 20
664.562335
 30
0.0
 11
579.8820759999999
 21
656.562335
 31
0.0
  0
LINE
  5
1486C
330
147AC
100
AcDbEntity
  8
4
  6
CENTER
100
AcDbLine
 10
545.882076
 20
664.562335
 30
0.0
 11
545.882076
 21
656.562335
 31
0.0
  0
LINE
  5
1486D
330
147AC
100
AcDbEntity
  8
1
  6
Continuous
100
AcDbLine
 10
345.882076
 20
752.249816
 30
0.0
 11
595.882076
 21
752.249816
 31
0.0
  0
LINE
  5
1486E
330
147AC
100
AcDbEntity
  8
3
  6
DASHED
100
AcDbLine
 10
317.8820759999999
 20
778.449816
 30
0.0
 11
390.4197919999999
 21
778.449816
 31
0.0
  0
LINE
  5
1486F
330
147AC
100
AcDbEntity
  8
4
  6
CENTER
100
AcDbLine
 10
85.882076
 20
769.849816
 30
0.0
 11
395.882076
 21
769.849816
 31
0.0
  0
LINE
  5
14870
330
147AC
100
AcDbEntity
  8
4
  6
CENTER
100
AcDbLine
 10
290.8820759999999
 20
765.349816
 30
0.0
 11
600.8820759999998
 21
765.349816
 31
0.0
  0
LINE
  5
14871
330
147AC
100
AcDbEntity
  8
3
  6
DASHED
100
AcDbLine
 10
295.882076
 20
776.849816
 30
0.0
 11
295.882076
 21
758.249816
 31
0.0
  0
LINE
  5
14872
330
147AC
100
AcDbEntity
  8
4
  6
CENTER
100
AcDbLine
 10
495.882076
 20
771.349816
 30
0.0
 11
495.882076
 21
759.349816
 31
0.0
  0
LINE
  5
14873
330
147AC
100
AcDbEntity
  8
4
  6
CENTER
100
AcDbLine
 10
411.882076
 20
771.349816
 30
0.0
 11
411.882076
 21
759.349816
 31
0.0
  0
LINE
  5
14874
330
147AC
100
AcDbEntity
  8
4
  6
CENTER
100
AcDbLine
 10
327.8820759999999
 20
771.349816
 30
0.0
 11
327.8820759999999
 21
759.349816
 31
0.0
  0
LINE
  5
14875
330
147AC
100
AcDbEntity
  8
4
  6
CENTER
100
AcDbLine
 10
315.8820759999999
 20
761.349816
 30
0.0
 11
315.8820759999999
 21
769.349816
 31
0.0
  0
LINE
  5
14876
330
147AC
100
AcDbEntity
  8
4
  6
CENTER
100
AcDbLine
 10
306.8820759999999
 20
756.849816
 30
0.0
 11
306.8820759999999
 21
784.849816
 31
0.0
  0
ARC
  5
14877
330
147AC
100
AcDbEntity
  8
1
  6
Continuous
100
AcDbCircle
 10
306.8820759999999
 20
770.849816
 30
0.0
 40
11.0
100
AcDbArc
 50
54.903199
 51
125.096801
  0
LINE
  5
14878
330
147AC
100
AcDbEntity
  8
4
  6
CENTER
100
AcDbLine
 10
320.882076
 20
770.849816
 30
0.0
 11
292.8820759999999
 21
770.849816
 31
0.0
  0
ARC
  5
14879
330
147AC
100
AcDbEntity
  8
1
  6
Continuous
100
AcDbCircle
 10
298.8820759999999
 20
756.849816
 30
0.0
 40
3.0
100
AcDbArc
 50
180.0
 51
270.0
  0
LINE
  5
1487A
330
147AC
100
AcDbEntity
  8
1
  6
Continuous
100
AcDbLine
 10
345.882076
 20
753.849816
 30
0.0
 11
345.882076
 21
752.249816
 31
0.0
  0
LINE
  5
1487B
330
147AC
100
AcDbEntity
  8
1
  6
Continuous
100
AcDbLine
 10
595.882076
 20
778.449816
 30
0.0
 11
595.882076
 21
752.249816
 31
0.0
  0
LINE
  5
1487C
330
147AC
100
AcDbEntity
  8
4
  6
CENTER
100
AcDbLine
 10
545.882076
 20
769.849816
 30
0.0
 11
545.882076
 21
760.849816
 31
0.0
  0
LINE
  5
1487D
330
147AC
100
AcDbEntity
  8
4
  6
CENTER
100
AcDbLine
 10
579.8820759999999
 20
771.349816
 30
0.0
 11
579.8820759999999
 21
759.349816
 31
0.0
  0
LINE
  5
1487E
330
147AC
100
AcDbEntity
  8
1
  6
Continuous
100
AcDbLine
 10
298.8820759999999
 20
753.849816
 30
0.0
 11
595.882076
 21
753.849816
 31
0.0
  0
LINE
  5
1487F
330
147AC
100
AcDbEntity
  8
1
  6
Continuous
100
AcDbLine
 10
93.88207599999999
 20
779.849816
 30
0.0
 11
387.8820759999999
 21
779.849816
 31
0.0
  0
ARC
  5
14880
330
147AC
100
AcDbEntity
  8
1
  6
Continuous
100
AcDbCircle
 10
93.88207599999999
 20
776.849816
 30
0.0
 40
3.0
100
AcDbArc
 50
90.0
 51
180.0
  0
LINE
  5
14881
330
147AC
100
AcDbEntity
  8
1
  6
Continuous
100
AcDbLine
 10
90.882076
 20
776.849816
 30
0.0
 11
90.882076
 21
758.249816
 31
0.0
  0
LINE
  5
14882
330
147AC
100
AcDbEntity
  8
1
  6
Continuous
100
AcDbLine
 10
90.882076
 20
758.249816
 30
0.0
 11
309.8820759999999
 21
758.249816
 31
0.0
  0
LINE
  5
14883
330
147AC
100
AcDbEntity
  8
1
  6
Continuous
100
AcDbLine
 10
309.8820759999999
 20
760.249816
 30
0.0
 11
323.8820759999999
 21
760.249816
 31
0.0
  0
LINE
  5
14884
330
147AC
100
AcDbEntity
  8
1
  6
Continuous
100
AcDbLine
 10
309.8820759999999
 20
758.249816
 30
0.0
 11
309.8820759999999
 21
760.249816
 31
0.0
  0
LINE
  5
14885
330
147AC
100
AcDbEntity
  8
1
  6
Continuous
100
AcDbLine
 10
310.705606
 20
760.249816
 30
0.0
 11
309.8820759999999
 21
759.849816
 31
0.0
  0
LINE
  5
14886
330
147AC
100
AcDbEntity
  8
1
  6
Continuous
100
AcDbLine
 10
313.999723
 20
760.249816
 30
0.0
 11
309.8820759999999
 21
758.249816
 31
0.0
  0
LINE
  5
14887
330
147AC
100
AcDbEntity
  8
1
  6
Continuous
100
AcDbLine
 10
323.8820759999999
 20
758.249816
 30
0.0
 11
323.8820759999999
 21
760.249816
 31
0.0
  0
LINE
  5
14888
330
147AC
100
AcDbEntity
  8
1
  6
Continuous
100
AcDbLine
 10
323.0585469999998
 20
760.249816
 30
0.0
 11
323.8820759999999
 21
759.849816
 31
0.0
  0
LINE
  5
14889
330
147AC
100
AcDbEntity
  8
1
  6
Continuous
100
AcDbLine
 10
319.7644289999999
 20
760.249816
 30
0.0
 11
323.8820759999999
 21
758.249816
 31
0.0
  0
LINE
  5
1488A
330
147AC
100
AcDbEntity
  8
1
  6
Continuous
100
AcDbLine
 10
323.8820759999999
 20
758.249816
 30
0.0
 11
368.882076
 21
758.249816
 31
0.0
  0
LINE
  5
1488B
330
147AC
100
AcDbEntity
  8
1
  6
Continuous
100
AcDbLine
 10
368.882076
 20
759.849816
 30
0.0
 11
387.8820759999999
 21
759.849816
 31
0.0
  0
LINE
  5
1488C
330
147AC
100
AcDbEntity
  8
1
  6
Continuous
100
AcDbLine
 10
368.882076
 20
759.849816
 30
0.0
 11
368.882076
 21
758.249816
 31
0.0
  0
ARC
  5
1488D
330
147AC
100
AcDbEntity
  8
1
  6
Continuous
100
AcDbCircle
 10
387.8820759999999
 20
762.849816
 30
0.0
 40
3.0
100
AcDbArc
 50
270.0
 51
0.0
  0
ARC
  5
1488E
330
147AC
100
AcDbEntity
  8
1
  6
Continuous
100
AcDbCircle
 10
387.8820759999999
 20
776.849816
 30
0.0
 40
3.0
100
AcDbArc
 50
0.0
 51
90.0
  0
ARC
  5
1488F
330
147AC
100
AcDbEntity
  8
1
  6
Continuous
100
AcDbCircle
 10
379.8820759999999
 20
765.849816
 30
0.0
 40
11.0
100
AcDbArc
 50
213.0557309999999
 51
329.2484979999999
  0
CIRCLE
  5
14890
330
147AC
100
AcDbEntity
  8
1
  6
Continuous
100
AcDbCircle
 10
379.8820759999999
 20
765.849816
 30
0.0
 40
3.649999999999999
  0
LINE
  5
14891
330
147AC
100
AcDbEntity
  8
4
  6
CENTER
100
AcDbLine
 10
366.117928
 20
765.849816
 30
0.0
 11
393.802443
 21
765.849816
 31
0.0
  0
LINE
  5
14892
330
147AC
100
AcDbEntity
  8
4
  6
CENTER
100
AcDbLine
 10
379.8820759999999
 20
775.5502759999997
 30
0.0
 11
379.8820759999999
 21
756.149356
 31
0.0
  0
CIRCLE
  5
14893
330
147AC
100
AcDbEntity
  8
1
  6
Continuous
100
AcDbCircle
 10
370.882076
 20
769.849816
 30
0.0
 40
2.0
  0
LINE
  5
14894
330
147AC
100
AcDbEntity
  8
4
  6
CENTER
100
AcDbLine
 10
370.882076
 20
774.349816
 30
0.0
 11
370.882076
 21
765.349816
 31
0.0
  0
LINE
  5
14895
330
147AC
100
AcDbEntity
  8
4
  6
CENTER
100
AcDbLine
 10
358.8820759999999
 20
775.849816
 30
0.0
 11
358.8820759999999
 21
763.849816
 31
0.0
  0
CIRCLE
  5
14896
330
147AC
100
AcDbEntity
  8
1
  6
Continuous
100
AcDbCircle
 10
358.8820759999999
 20
769.849816
 30
0.0
 40
3.0
  0
LINE
  5
14897
330
147AC
100
AcDbEntity
  8
4
  6
CENTER
100
AcDbLine
 10
274.882076
 20
775.849816
 30
0.0
 11
274.882076
 21
763.849816
 31
0.0
  0
CIRCLE
  5
14898
330
147AC
100
AcDbEntity
  8
1
  6
Continuous
100
AcDbCircle
 10
274.882076
 20
769.849816
 30
0.0
 40
3.0
  0
LINE
  5
14899
330
147AC
100
AcDbEntity
  8
4
  6
CENTER
100
AcDbLine
 10
190.882076
 20
775.849816
 30
0.0
 11
190.882076
 21
763.849816
 31
0.0
  0
CIRCLE
  5
1489A
330
147AC
100
AcDbEntity
  8
1
  6
Continuous
100
AcDbCircle
 10
190.882076
 20
769.849816
 30
0.0
 40
3.0
  0
CIRCLE
  5
1489B
330
147AC
100
AcDbEntity
  8
1
  6
Continuous
100
AcDbCircle
 10
106.8820759999999
 20
769.849816
 30
0.0
 40
3.0
  0
LINE
  5
1489C
330
147AC
100
AcDbEntity
  8
4
  6
CENTER
100
AcDbLine
 10
106.8820759999999
 20
775.849816
 30
0.0
 11
106.8820759999999
 21
763.849816
 31
0.0
  0
CIRCLE
  5
1489D
330
147AC
100
AcDbEntity
  8
1
  6
Continuous
100
AcDbCircle
 10
140.882076
 20
769.849816
 30
0.0
 40
2.0
  0
LINE
  5
1489E
330
147AC
100
AcDbEntity
  8
4
  6
CENTER
100
AcDbLine
 10
140.882076
 20
765.849816
 30
0.0
 11
140.882076
 21
773.849816
 31
0.0
  0
LINE
  5
1489F
330
147AC
100
AcDbEntity
  8
1
  6
Continuous
100
AcDbLine
 10
390.8820759999999
 20
776.849816
 30
0.0
 11
390.8820759999999
 21
762.849816
 31
0.0
  0
LINE
  5
148A0
330
147AC
100
AcDbEntity
  8
1
  6
Continuous
100
AcDbLine
 10
90.882076
 20
573.4498160000002
 30
0.0
 11
295.882076
 21
573.4498160000002
 31
0.0
  0
LINE
  5
148A1
330
147AC
100
AcDbEntity
  8
1
  6
Continuous
100
AcDbLine
 10
93.88207599999999
 20
551.849816
 30
0.0
 11
300.5575209999999
 21
551.849816
 31
0.0
  0
CIRCLE
  5
148A2
330
147AC
100
AcDbEntity
  8
1
  6
Continuous
100
AcDbCircle
 10
140.882076
 20
561.849816
 30
0.0
 40
2.0
  0
LINE
  5
148A3
330
147AC
100
AcDbEntity
  8
1
  6
Continuous
100
AcDbLine
 10
90.882076
 20
554.849816
 30
0.0
 11
90.882076
 21
573.4498160000002
 31
0.0
  0
LINE
  5
148A4
330
147AC
100
AcDbEntity
  8
4
  6
CENTER
100
AcDbLine
 10
140.882076
 20
565.849816
 30
0.0
 11
140.882076
 21
557.849816
 31
0.0
  0
ARC
  5
148A5
330
147AC
100
AcDbEntity
  8
1
  6
Continuous
100
AcDbCircle
 10
93.88207599999999
 20
554.849816
 30
0.0
 40
3.0
100
AcDbArc
 50
180.0
 51
270.0
  0
CIRCLE
  5
148A6
330
147AC
100
AcDbEntity
  8
1
  6
Continuous
100
AcDbCircle
 10
106.8820759999999
 20
561.849816
 30
0.0
 40
3.0
  0
LINE
  5
148A7
330
147AC
100
AcDbEntity
  8
4
  6
CENTER
100
AcDbLine
 10
106.8820759999999
 20
555.849816
 30
0.0
 11
106.8820759999999
 21
567.849816
 31
0.0
  0
CIRCLE
  5
148A8
330
147AC
100
AcDbEntity
  8
1
  6
Continuous
100
AcDbCircle
 10
190.882076
 20
561.849816
 30
0.0
 40
3.0
  0
LINE
  5
148A9
330
147AC
100
AcDbEntity
  8
4
  6
CENTER
100
AcDbLine
 10
190.882076
 20
555.849816
 30
0.0
 11
190.882076
 21
567.849816
 31
0.0
  0
CIRCLE
  5
148AA
330
147AC
100
AcDbEntity
  8
1
  6
Continuous
100
AcDbCircle
 10
274.882076
 20
561.849816
 30
0.0
 40
3.0
  0
LINE
  5
148AB
330
147AC
100
AcDbEntity
  8
4
  6
CENTER
100
AcDbLine
 10
274.882076
 20
555.849816
 30
0.0
 11
274.882076
 21
567.849816
 31
0.0
  0
CIRCLE
  5
148AC
330
147AC
100
AcDbEntity
  8
1
  6
Continuous
100
AcDbCircle
 10
106.8820759999999
 20
561.849816
 30
0.0
 40
4.299999999999998
  0
CIRCLE
  5
148AD
330
147AC
100
AcDbEntity
  8
1
  6
Continuous
100
AcDbCircle
 10
190.882076
 20
561.849816
 30
0.0
 40
4.299999999999998
  0
CIRCLE
  5
148AE
330
147AC
100
AcDbEntity
  8
1
  6
Continuous
100
AcDbCircle
 10
274.882076
 20
561.849816
 30
0.0
 40
4.299999999999998
  0
LINE
  5
148AF
330
147AC
100
AcDbEntity
  8
1
  6
Continuous
100
AcDbLine
 10
90.882076
 20
571.849816
 30
0.0
 11
295.882076
 21
571.849816
 31
0.0
  0
LINE
  5
148B0
330
147AC
100
AcDbEntity
  8
1
  6
Continuous
100
AcDbLine
 10
295.882076
 20
758.249816
 30
0.0
 11
295.882076
 21
756.849816
 31
0.0
  0
LINE
  5
148B1
330
147AC
100
AcDbEntity
  8
3
  6
DASHED
100
AcDbLine
 10
317.8820759999999
 20
778.449816
 30
0.0
 11
317.8820759999999
 21
776.849816
 31
0.0
  0
LINE
  5
148B2
330
147AC
100
AcDbEntity
  8
3
  6
DASHED
100
AcDbLine
 10
295.882076
 20
776.849816
 30
0.0
 11
390.8820759999999
 21
776.849816
 31
0.0
  0
LINE
  5
148B3
330
147AC
100
AcDbEntity
  8
1
  6
Continuous
100
AcDbLine
 10
390.4197919999999
 20
778.449816
 30
0.0
 11
595.882076
 21
778.449816
 31
0.0
  0
LINE
  5
148B4
330
147AC
100
AcDbEntity
  8
1
  6
Continuous
100
AcDbLine
 10
390.8820759999999
 20
776.849816
 30
0.0
 11
595.882076
 21
776.849816
 31
0.0
  0
CIRCLE
  5
148B5
330
147AC
100
AcDbEntity
  8
1
  6
Continuous
100
AcDbCircle
 10
545.882076
 20
765.349816
 30
0.0
 40
2.0
  0
CIRCLE
  5
148B6
330
147AC
100
AcDbEntity
  8
1
  6
Continuous
100
AcDbCircle
 10
579.8820759999999
 20
765.349816
 30
0.0
 40
3.0
  0
CIRCLE
  5
148B7
330
147AC
100
AcDbEntity
  8
1
  6
Continuous
100
AcDbCircle
 10
579.8820759999999
 20
765.349816
 30
0.0
 40
4.299999999999998
  0
CIRCLE
  5
148B8
330
147AC
100
AcDbEntity
  8
1
  6
Continuous
100
AcDbCircle
 10
495.882076
 20
765.349816
 30
0.0
 40
4.299999999999998
  0
CIRCLE
  5
148B9
330
147AC
100
AcDbEntity
  8
1
  6
Continuous
100
AcDbCircle
 10
495.882076
 20
765.349816
 30
0.0
 40
3.0
  0
CIRCLE
  5
148BA
330
147AC
100
AcDbEntity
  8
1
  6
Continuous
100
AcDbCircle
 10
411.882076
 20
765.349816
 30
0.0
 40
3.0
  0
CIRCLE
  5
148BB
330
147AC
100
AcDbEntity
  8
1
  6
Continuous
100
AcDbCircle
 10
411.882076
 20
765.349816
 30
0.0
 40
4.299999999999998
  0
LINE
  5
148BC
330
147AC
100
AcDbEntity
  8
1
  6
Continuous
100
AcDbLine
 10
390.8820759999999
 20
671.849816
 30
0.0
 11
90.882076
 21
671.849816
 31
0.0
  0
LINE
  5
148BD
330
147AC
100
AcDbEntity
  8
1
  6
Continuous
100
AcDbLine
 10
390.8820759999999
 20
670.249816
 30
0.0
 11
368.882076
 21
670.249816
 31
0.0
  0
LINE
  5
148BE
330
147AC
100
AcDbEntity
  8
1
  6
Continuous
100
AcDbLine
 10
390.8820759999999
 20
670.249816
 30
0.0
 11
390.8820759999999
 21
671.849816
 31
0.0
  0
LINE
  5
148BF
330
147AC
100
AcDbEntity
  8
1
  6
Continuous
100
AcDbLine
 10
390.3820759999999
 20
669.249816
 30
0.0
 11
369.3820759999999
 21
669.249816
 31
0.0
  0
ARC
  5
148C0
330
147AC
100
AcDbEntity
  8
1
  6
Continuous
100
AcDbCircle
 10
390.3820759999999
 20
668.749816
 30
0.0
 40
0.5
100
AcDbArc
 50
0.0
 51
90.0
  0
LINE
  5
148C1
330
147AC
100
AcDbEntity
  8
1
  6
Continuous
100
AcDbLine
 10
390.8820759999999
 20
667.849816
 30
0.0
 11
390.8820759999999
 21
668.749816
 31
0.0
  0
LINE
  5
148C2
330
147AC
100
AcDbEntity
  8
3
  6
DASHED
100
AcDbLine
 10
368.882076
 20
666.849816
 30
0.0
 11
368.882076
 21
667.849816
 31
0.0
  0
ARC
  5
148C3
330
147AC
100
AcDbEntity
  8
1
  6
Continuous
100
AcDbCircle
 10
369.3820759999999
 20
668.749816
 30
0.0
 40
0.5
100
AcDbArc
 50
90.0
 51
180.0
  0
LINE
  5
148C4
330
147AC
100
AcDbEntity
  8
4
  6
CENTER
100
AcDbLine
 10
370.882076
 20
675.046399
 30
0.0
 11
370.882076
 21
667.046399
 31
0.0
  0
LINE
  5
148C5
330
147AC
100
AcDbEntity
  8
4
  6
CENTER
100
AcDbLine
 10
358.8820759999999
 20
675.046399
 30
0.0
 11
358.8820759999999
 21
667.046399
 31
0.0
  0
LINE
  5
148C6
330
147AC
100
AcDbEntity
  8
4
  6
CENTER
100
AcDbLine
 10
379.8820759999999
 20
658.395608
 30
0.0
 11
379.8820759999999
 21
676.349816
 31
0.0
  0
LINE
  5
148C7
330
147AC
100
AcDbEntity
  8
1
  6
Continuous
100
AcDbLine
 10
375.132076
 20
669.749816
 30
0.0
 11
375.132076
 21
669.249816
 31
0.0
  0
LINE
  5
148C8
330
147AC
100
AcDbEntity
  8
1
  6
Continuous
100
AcDbLine
 10
384.6320759999999
 20
669.749816
 30
0.0
 11
384.6320759999999
 21
669.249816
 31
0.0
  0
LINE
  5
148C9
330
147AC
100
AcDbEntity
  8
1
  6
Continuous
100
AcDbLine
 10
383.5320759999998
 20
672.5498159999999
 30
0.0
 11
382.832076
 21
671.849816
 31
0.0
  0
LINE
  5
148CA
330
147AC
100
AcDbEntity
  8
1
  6
Continuous
100
AcDbLine
 10
376.2320759999998
 20
672.5498159999999
 30
0.0
 11
376.9320759999998
 21
671.849816
 31
0.0
  0
LINE
  5
148CB
330
147AC
100
AcDbEntity
  8
1
  6
Continuous
100
AcDbLine
 10
383.5320759999998
 20
672.5498159999999
 30
0.0
 11
376.2320759999998
 21
672.5498159999999
 31
0.0
  0
LINE
  5
148CC
330
147AC
100
AcDbEntity
  8
1
  6
Continuous
100
AcDbLine
 10
375.132076
 20
669.749816
 30
0.0
 11
384.6320759999999
 21
669.749816
 31
0.0
  0
LINE
  5
148CD
330
147AC
100
AcDbEntity
  8
1
  6
Continuous
100
AcDbLine
 10
375.132076
 20
669.749816
 30
0.0
 11
375.6320759999999
 21
670.249816
 31
0.0
  0
LINE
  5
148CE
330
147AC
100
AcDbEntity
  8
1
  6
Continuous
100
AcDbLine
 10
384.6320759999999
 20
669.749816
 30
0.0
 11
384.1320759999999
 21
670.249816
 31
0.0
  0
LINE
  5
148CF
330
147AC
100
AcDbEntity
  8
1
  6
Continuous
100
AcDbLine
 10
316.882076
 20
669.849816
 30
0.0
 11
316.882076
 21
663.849816
 31
0.0
  0
LINE
  5
148D0
330
147AC
100
AcDbEntity
  8
1
  6
Continuous
100
AcDbLine
 10
309.8820759999999
 20
663.849816
 30
0.0
 11
309.8820759999999
 21
671.849816
 31
0.0
  0
LINE
  5
148D1
330
147AC
100
AcDbEntity
  8
1
  6
Continuous
100
AcDbLine
 10
323.8820759999999
 20
663.849816
 30
0.0
 11
323.8820759999999
 21
671.849816
 31
0.0
  0
LINE
  5
148D2
330
147AC
100
AcDbEntity
  8
4
  6
CENTER
100
AcDbLine
 10
316.882076
 20
663.296925
 30
0.0
 11
316.882076
 21
674.8831199999997
 31
0.0
  0
LINE
  5
148D3
330
147AC
100
AcDbEntity
  8
1
  6
Continuous
100
AcDbLine
 10
323.8820759999999
 20
669.849816
 30
0.0
 11
309.8820759999999
 21
669.849816
 31
0.0
  0
LINE
  5
148D4
330
147AC
100
AcDbEntity
  8
1
  6
Continuous
100
AcDbLine
 10
323.8820759999999
 20
670.249816
 30
0.0
 11
309.8820759999999
 21
670.249816
 31
0.0
  0
LINE
  5
148D5
330
147AC
100
AcDbEntity
  8
4
  6
CENTER
100
AcDbLine
 10
274.882076
 20
675.046399
 30
0.0
 11
274.882076
 21
667.046399
 31
0.0
  0
LINE
  5
148D6
330
147AC
100
AcDbEntity
  8
4
  6
CENTER
100
AcDbLine
 10
190.882076
 20
675.046399
 30
0.0
 11
190.882076
 21
667.046399
 31
0.0
  0
LINE
  5
148D7
330
147AC
100
AcDbEntity
  8
4
  6
CENTER
100
AcDbLine
 10
106.8820759999999
 20
675.046399
 30
0.0
 11
106.8820759999999
 21
667.046399
 31
0.0
  0
LINE
  5
148D8
330
147AC
100
AcDbEntity
  8
4
  6
CENTER
100
AcDbLine
 10
140.882076
 20
675.046399
 30
0.0
 11
140.882076
 21
667.046399
 31
0.0
  0
LINE
  5
148D9
330
147AC
100
AcDbEntity
  8
3
  6
DASHED
100
AcDbLine
 10
365.8820759999999
 20
663.849816
 30
0.0
 11
345.882076
 21
663.849816
 31
0.0
  0
ARC
  5
148DA
330
147AC
100
AcDbEntity
  8
1
  6
Continuous
100
AcDbCircle
 10
93.88207599999999
 20
666.849816
 30
0.0
 40
3.0
100
AcDbArc
 50
180.0
 51
270.0
  0
LINE
  5
148DB
330
147AC
100
AcDbEntity
  8
1
  6
Continuous
100
AcDbLine
 10
90.882076
 20
666.849816
 30
0.0
 11
90.882076
 21
671.849816
 31
0.0
  0
ARC
  5
148DC
330
147AC
100
AcDbEntity
  8
3
  6
DASHED
100
AcDbCircle
 10
365.8820759999999
 20
666.849816
 30
0.0
 40
3.0
100
AcDbArc
 50
270.0
 51
0.0
  0
LINE
  5
148DD
330
147AC
100
AcDbEntity
  8
1
  6
Continuous
100
AcDbLine
 10
368.882076
 20
667.849816
 30
0.0
 11
368.882076
 21
671.849816
 31
0.0
  0
LINE
  5
148DE
330
147AC
100
AcDbEntity
  8
1
  6
Continuous
100
AcDbLine
 10
345.882076
 20
663.849816
 30
0.0
 11
93.88207599999999
 21
663.849816
 31
0.0
  0
LINE
  5
148DF
330
147AC
100
AcDbEntity
  8
4
  6
CENTER
100
AcDbLine
 10
316.882076
 20
755.430289
 30
0.0
 11
316.882076
 21
764.095005
 31
0.0
  0
LINE
  5
148E0
330
147AC
100
AcDbEntity
  8
1
  6
Continuous
100
AcDbLine
 10
295.882076
 20
557.849816
 30
0.0
 11
295.882076
 21
574.849816
 31
0.0
  0
LINE
  5
148E1
330
147AC
100
AcDbEntity
  8
3
  6
DASHED
100
AcDbLine
 10
323.8820759999999
 20
573.4498160000002
 30
0.0
 11
368.882076
 21
573.4498160000002
 31
0.0
  0
LINE
  5
148E2
330
147AC
100
AcDbEntity
  8
3
  6
DASHED
100
AcDbLine
 10
309.8820759999999
 20
571.4498160000001
 30
0.0
 11
310.705606
 21
571.4498160000001
 31
0.0
  0
LINE
  5
148E3
330
147AC
100
AcDbEntity
  8
3
  6
DASHED
100
AcDbLine
 10
309.8820759999999
 20
571.849816
 30
0.0
 11
309.8820759999999
 21
571.4498160000001
 31
0.0
  0
LINE
  5
148E4
330
147AC
100
AcDbEntity
  8
3
  6
DASHED
100
AcDbLine
 10
316.882076
 20
568.4498160000003
 30
0.0
 11
309.8820759999999
 21
571.849816
 31
0.0
  0
LINE
  5
148E5
330
147AC
100
AcDbEntity
  8
3
  6
DASHED
100
AcDbLine
 10
316.882076
 20
570.0498159999997
 30
0.0
 11
309.8820759999999
 21
573.4498160000002
 31
0.0
  0
LINE
  5
148E6
330
147AC
100
AcDbEntity
  8
3
  6
DASHED
100
AcDbLine
 10
323.8820759999999
 20
571.849816
 30
0.0
 11
323.8820759999999
 21
571.4498160000001
 31
0.0
  0
LINE
  5
148E7
330
147AC
100
AcDbEntity
  8
3
  6
DASHED
100
AcDbLine
 10
316.882076
 20
568.4498160000003
 30
0.0
 11
323.8820759999999
 21
571.849816
 31
0.0
  0
LINE
  5
148E8
330
147AC
100
AcDbEntity
  8
3
  6
DASHED
100
AcDbLine
 10
316.882076
 20
570.0498159999997
 30
0.0
 11
323.8820759999999
 21
573.4498160000002
 31
0.0
  0
LINE
  5
148E9
330
147AC
100
AcDbEntity
  8
3
  6
DASHED
100
AcDbLine
 10
368.882076
 20
571.849816
 30
0.0
 11
368.882076
 21
573.4498160000002
 31
0.0
  0
ARC
  5
148EA
330
147AC
100
AcDbEntity
  8
3
  6
DASHED
100
AcDbCircle
 10
387.8820759999999
 20
568.849816
 30
0.0
 40
3.0
100
AcDbArc
 50
0.0
 51
61.024143
  0
LINE
  5
148EB
330
147AC
100
AcDbEntity
  8
3
  6
DASHED
100
AcDbLine
 10
390.8820759999999
 20
554.849816
 30
0.0
 11
390.8820759999999
 21
568.849816
 31
0.0
  0
LINE
  5
148EC
330
147AC
100
AcDbEntity
  8
1
  6
Continuous
100
AcDbLine
 10
313.206631
 20
551.849816
 30
0.0
 11
387.8820759999999
 21
551.849816
 31
0.0
  0
ARC
  5
148ED
330
147AC
100
AcDbEntity
  8
1
  6
Continuous
100
AcDbCircle
 10
387.8820759999999
 20
554.849816
 30
0.0
 40
3.0
100
AcDbArc
 50
270.0
 51
327.769047
  0
ARC
  5
148EE
330
147AC
100
AcDbEntity
  8
3
  6
DASHED
100
AcDbCircle
 10
387.8820759999999
 20
554.849816
 30
0.0
 40
3.0
100
AcDbArc
 50
327.769047
 51
0.0
  0
CIRCLE
  5
148EF
330
147AC
100
AcDbEntity
  8
3
  6
DASHED
100
AcDbCircle
 10
379.8820759999999
 20
565.849816
 30
0.0
 40
11.0
  0
LINE
  5
148F0
330
147AC
100
AcDbEntity
  8
3
  6
DASHED
100
AcDbLine
 10
295.882076
 20
573.4498160000002
 30
0.0
 11
309.8820759999999
 21
573.4498160000002
 31
0.0
  0
LINE
  5
148F1
330
147AC
100
AcDbEntity
  8
3
  6
DASHED
100
AcDbLine
 10
323.0585469999998
 20
571.4498160000001
 30
0.0
 11
323.8820759999999
 21
571.4498160000001
 31
0.0
  0
LINE
  5
148F2
330
147AC
100
AcDbEntity
  8
3
  6
DASHED
100
AcDbLine
 10
313.999723
 20
571.4498160000001
 30
0.0
 11
319.7644289999999
 21
571.4498160000001
 31
0.0
  0
LINE
  5
148F3
330
147AC
100
AcDbEntity
  8
3
  6
DASHED
100
AcDbLine
 10
295.882076
 20
571.849816
 30
0.0
 11
309.8820759999999
 21
571.849816
 31
0.0
  0
LINE
  5
148F4
330
147AC
100
AcDbEntity
  8
3
  6
DASHED
100
AcDbLine
 10
323.8820759999999
 20
571.849816
 30
0.0
 11
370.662532
 21
571.849816
 31
0.0
  0
LINE
  5
148F5
330
147AC
100
AcDbEntity
  8
4
  6
CENTER
100
AcDbLine
 10
379.8820759999999
 20
551.849816
 30
0.0
 11
379.8820759999999
 21
579.849816
 31
0.0
  0
LINE
  5
148F6
330
147AC
100
AcDbEntity
  8
1
  6
Continuous
100
AcDbLine
 10
595.882076
 20
471.4498159999997
 30
0.0
 11
295.882076
 21
471.4498159999997
 31
0.0
  0
LINE
  5
148F7
330
147AC
100
AcDbEntity
  8
1
  6
Continuous
100
AcDbLine
 10
592.8820759999998
 20
463.4498159999998
 30
0.0
 11
320.882076
 21
463.4498159999998
 31
0.0
  0
LINE
  5
148F8
330
147AC
100
AcDbEntity
  8
1
  6
Continuous
100
AcDbLine
 10
295.882076
 20
467.4498159999997
 30
0.0
 11
93.88207599999999
 21
467.4498159999997
 31
0.0
  0
LINE
  5
148F9
330
147AC
100
AcDbEntity
  8
1
  6
Continuous
100
AcDbLine
 10
390.8820759999999
 20
459.4498159999998
 30
0.0
 11
90.882076
 21
459.4498159999998
 31
0.0
  0
LINE
  5
148FA
330
147AC
100
AcDbEntity
  8
1
  6
Continuous
100
AcDbLine
 10
90.882076
 20
464.449816
 30
0.0
 11
90.882076
 21
459.4498159999998
 31
0.0
  0
ARC
  5
148FB
330
147AC
100
AcDbEntity
  8
1
  6
Continuous
100
AcDbCircle
 10
93.88207599999999
 20
464.449816
 30
0.0
 40
3.0
100
AcDbArc
 50
90.0
 51
180.0
  0
LINE
  5
148FC
330
147AC
100
AcDbEntity
  8
4
  6
CENTER
100
AcDbLine
 10
140.882076
 20
456.253233
 30
0.0
 11
140.882076
 21
464.253233
 31
0.0
  0
LINE
  5
148FD
330
147AC
100
AcDbEntity
  8
4
  6
CENTER
100
AcDbLine
 10
106.8820759999999
 20
456.253233
 30
0.0
 11
106.8820759999999
 21
464.253233
 31
0.0
  0
LINE
  5
148FE
330
147AC
100
AcDbEntity
  8
4
  6
CENTER
100
AcDbLine
 10
190.882076
 20
456.253233
 30
0.0
 11
190.882076
 21
464.253233
 31
0.0
  0
LINE
  5
148FF
330
147AC
100
AcDbEntity
  8
3
  6
DASHED
100
AcDbLine
 10
365.8820759999999
 20
467.4498159999997
 30
0.0
 11
295.882076
 21
467.4498159999997
 31
0.0
  0
LINE
  5
14900
330
147AC
100
AcDbEntity
  8
1
  6
Continuous
100
AcDbLine
 10
317.3820759999999
 20
468.8498159999999
 30
0.0
 11
296.3820759999999
 21
468.8498159999999
 31
0.0
  0
LINE
  5
14901
330
147AC
100
AcDbEntity
  8
1
  6
Continuous
100
AcDbLine
 10
317.8820759999999
 20
469.8498159999998
 30
0.0
 11
295.882076
 21
469.8498159999998
 31
0.0
  0
LINE
  5
14902
330
147AC
100
AcDbEntity
  8
4
  6
CENTER
100
AcDbLine
 10
274.882076
 20
456.253233
 30
0.0
 11
274.882076
 21
464.253233
 31
0.0
  0
LINE
  5
14903
330
147AC
100
AcDbEntity
  8
1
  6
Continuous
100
AcDbLine
 10
295.882076
 20
468.349816
 30
0.0
 11
295.882076
 21
462.3498159999998
 31
0.0
  0
ARC
  5
14904
330
147AC
100
AcDbEntity
  8
1
  6
Continuous
100
AcDbCircle
 10
296.3820759999999
 20
468.349816
 30
0.0
 40
0.5
100
AcDbArc
 50
90.0
 51
180.0
  0
LINE
  5
14905
330
147AC
100
AcDbEntity
  8
1
  6
Continuous
100
AcDbLine
 10
295.882076
 20
471.4498159999997
 30
0.0
 11
295.882076
 21
469.8498159999998
 31
0.0
  0
LINE
  5
14906
330
147AC
100
AcDbEntity
  8
1
  6
Continuous
100
AcDbLine
 10
316.882076
 20
461.449816
 30
0.0
 11
316.882076
 21
461.8498159999998
 31
0.0
  0
LINE
  5
14907
330
147AC
100
AcDbEntity
  8
1
  6
Continuous
100
AcDbLine
 10
309.8820759999999
 20
461.8498159999998
 30
0.0
 11
309.8820759999999
 21
461.049816
 31
0.0
  0
LINE
  5
14908
330
147AC
100
AcDbEntity
  8
3
  6
DASHED
100
AcDbLine
 10
323.8820759999999
 20
467.4498159999997
 30
0.0
 11
323.8820759999999
 21
463.4498159999998
 31
0.0
  0
LINE
  5
14909
330
147AC
100
AcDbEntity
  8
4
  6
CENTER
100
AcDbLine
 10
316.882076
 20
468.002707
 30
0.0
 11
316.882076
 21
456.416512
 31
0.0
  0
LINE
  5
1490A
330
147AC
100
AcDbEntity
  8
4
  6
CENTER
100
AcDbLine
 10
326.882076
 20
456.253233
 30
0.0
 11
326.882076
 21
464.253233
 31
0.0
  0
LINE
  5
1490B
330
147AC
100
AcDbEntity
  8
4
  6
CENTER
100
AcDbLine
 10
311.8820759999999
 20
456.253233
 30
0.0
 11
311.8820759999999
 21
464.253233
 31
0.0
  0
LINE
  5
1490C
330
147AC
100
AcDbEntity
  8
4
  6
CENTER
100
AcDbLine
 10
306.8820759999999
 20
458.030046
 30
0.0
 11
306.8820759999999
 21
475.9498159999998
 31
0.0
  0
LINE
  5
1490D
330
147AC
100
AcDbEntity
  8
4
  6
CENTER
100
AcDbLine
 10
315.8820759999999
 20
466.737296
 30
0.0
 11
315.8820759999999
 21
474.7372959999998
 31
0.0
  0
LINE
  5
1490E
330
147AC
100
AcDbEntity
  8
1
  6
Continuous
100
AcDbLine
 10
310.5320759999999
 20
472.149816
 30
0.0
 11
309.832076
 21
471.4498159999997
 31
0.0
  0
LINE
  5
1490F
330
147AC
100
AcDbEntity
  8
1
  6
Continuous
100
AcDbLine
 10
303.2320759999998
 20
472.149816
 30
0.0
 11
303.9320759999998
 21
471.4498159999997
 31
0.0
  0
LINE
  5
14910
330
147AC
100
AcDbEntity
  8
1
  6
Continuous
100
AcDbLine
 10
310.5320759999999
 20
472.149816
 30
0.0
 11
303.2320759999998
 21
472.149816
 31
0.0
  0
LINE
  5
14911
330
147AC
100
AcDbEntity
  8
1
  6
Continuous
100
AcDbLine
 10
302.132076
 20
469.3498159999998
 30
0.0
 11
311.6320759999999
 21
469.3498159999998
 31
0.0
  0
LINE
  5
14912
330
147AC
100
AcDbEntity
  8
1
  6
Continuous
100
AcDbLine
 10
311.6320759999999
 20
469.3498159999998
 30
0.0
 11
311.6320759999999
 21
468.8498159999999
 31
0.0
  0
LINE
  5
14913
330
147AC
100
AcDbEntity
  8
1
  6
Continuous
100
AcDbLine
 10
311.6320759999999
 20
469.3498159999998
 30
0.0
 11
311.1320759999999
 21
469.8498159999998
 31
0.0
  0
LINE
  5
14914
330
147AC
100
AcDbEntity
  8
1
  6
Continuous
100
AcDbLine
 10
302.132076
 20
469.3498159999998
 30
0.0
 11
302.132076
 21
468.8498159999999
 31
0.0
  0
LINE
  5
14915
330
147AC
100
AcDbEntity
  8
1
  6
Continuous
100
AcDbLine
 10
302.132076
 20
469.3498159999998
 30
0.0
 11
302.6320759999999
 21
469.8498159999998
 31
0.0
  0
ARC
  5
14916
330
147AC
100
AcDbEntity
  8
1
  6
Continuous
100
AcDbCircle
 10
317.3820759999999
 20
468.349816
 30
0.0
 40
0.5
100
AcDbArc
 50
0.0
 51
90.0
  0
LINE
  5
14917
330
147AC
100
AcDbEntity
  8
1
  6
Continuous
100
AcDbLine
 10
317.8820759999999
 20
471.4498159999997
 30
0.0
 11
317.8820759999999
 21
462.3498159999998
 31
0.0
  0
LINE
  5
14918
330
147AC
100
AcDbEntity
  8
4
  6
CENTER
100
AcDbLine
 10
327.8820759999999
 20
466.737296
 30
0.0
 11
327.8820759999999
 21
474.7372959999998
 31
0.0
  0
LINE
  5
14919
330
147AC
100
AcDbEntity
  8
1
  6
Continuous
100
AcDbLine
 10
323.8820759999999
 20
461.049816
 30
0.0
 11
309.8820759999999
 21
461.049816
 31
0.0
  0
LINE
  5
1491A
330
147AC
100
AcDbEntity
  8
1
  6
Continuous
100
AcDbLine
 10
323.8820759999999
 20
461.449816
 30
0.0
 11
309.8820759999999
 21
461.449816
 31
0.0
  0
LINE
  5
1491B
330
147AC
100
AcDbEntity
  8
1
  6
Continuous
100
AcDbLine
 10
390.8820759999999
 20
461.049816
 30
0.0
 11
90.882076
 21
461.049816
 31
0.0
  0
LINE
  5
1491C
330
147AC
100
AcDbEntity
  8
1
  6
Continuous
100
AcDbLine
 10
390.3820759999999
 20
462.049816
 30
0.0
 11
369.3820759999999
 21
462.049816
 31
0.0
  0
LINE
  5
1491D
330
147AC
100
AcDbEntity
  8
1
  6
Continuous
100
AcDbLine
 10
368.882076
 20
463.4498159999998
 30
0.0
 11
368.882076
 21
461.049816
 31
0.0
  0
LINE
  5
1491E
330
147AC
100
AcDbEntity
  8
4
  6
CENTER
100
AcDbLine
 10
358.8820759999999
 20
456.253233
 30
0.0
 11
358.8820759999999
 21
464.253233
 31
0.0
  0
LINE
  5
1491F
330
147AC
100
AcDbEntity
  8
4
  6
CENTER
100
AcDbLine
 10
370.882076
 20
456.253233
 30
0.0
 11
370.882076
 21
464.253233
 31
0.0
  0
LINE
  5
14920
330
147AC
100
AcDbEntity
  8
3
  6
DASHED
100
AcDbLine
 10
368.882076
 20
464.449816
 30
0.0
 11
368.882076
 21
463.4498159999998
 31
0.0
  0
ARC
  5
14921
330
147AC
100
AcDbEntity
  8
3
  6
DASHED
100
AcDbCircle
 10
365.8820759999999
 20
464.449816
 30
0.0
 40
3.0
100
AcDbArc
 50
0.0
 51
90.0
  0
ARC
  5
14922
330
147AC
100
AcDbEntity
  8
1
  6
Continuous
100
AcDbCircle
 10
369.3820759999999
 20
462.549816
 30
0.0
 40
0.5
100
AcDbArc
 50
180.0
 51
270.0
  0
LINE
  5
14923
330
147AC
100
AcDbEntity
  8
1
  6
Continuous
100
AcDbLine
 10
384.6320759999999
 20
461.549816
 30
0.0
 11
384.6320759999999
 21
462.049816
 31
0.0
  0
LINE
  5
14924
330
147AC
100
AcDbEntity
  8
1
  6
Continuous
100
AcDbLine
 10
375.132076
 20
461.549816
 30
0.0
 11
375.132076
 21
462.049816
 31
0.0
  0
LINE
  5
14925
330
147AC
100
AcDbEntity
  8
4
  6
CENTER
100
AcDbLine
 10
379.8820759999999
 20
472.904023
 30
0.0
 11
379.8820759999999
 21
454.9498159999997
 31
0.0
  0
LINE
  5
14926
330
147AC
100
AcDbEntity
  8
1
  6
Continuous
100
AcDbLine
 10
390.8820759999999
 20
463.4498159999998
 30
0.0
 11
390.8820759999999
 21
462.549816
 31
0.0
  0
ARC
  5
14927
330
147AC
100
AcDbEntity
  8
1
  6
Continuous
100
AcDbCircle
 10
390.3820759999999
 20
462.549816
 30
0.0
 40
0.5
100
AcDbArc
 50
270.0
 51
0.0
  0
LINE
  5
14928
330
147AC
100
AcDbEntity
  8
1
  6
Continuous
100
AcDbLine
 10
384.6320759999999
 20
461.549816
 30
0.0
 11
384.1320759999999
 21
461.049816
 31
0.0
  0
LINE
  5
14929
330
147AC
100
AcDbEntity
  8
1
  6
Continuous
100
AcDbLine
 10
375.132076
 20
461.549816
 30
0.0
 11
375.6320759999999
 21
461.049816
 31
0.0
  0
LINE
  5
1492A
330
147AC
100
AcDbEntity
  8
1
  6
Continuous
100
AcDbLine
 10
375.132076
 20
461.549816
 30
0.0
 11
384.6320759999999
 21
461.549816
 31
0.0
  0
LINE
  5
1492B
330
147AC
100
AcDbEntity
  8
1
  6
Continuous
100
AcDbLine
 10
383.5320759999998
 20
458.7498159999998
 30
0.0
 11
376.2320759999998
 21
458.7498159999998
 31
0.0
  0
LINE
  5
1492C
330
147AC
100
AcDbEntity
  8
1
  6
Continuous
100
AcDbLine
 10
376.2320759999998
 20
458.7498159999998
 30
0.0
 11
376.9320759999998
 21
459.4498159999998
 31
0.0
  0
LINE
  5
1492D
330
147AC
100
AcDbEntity
  8
1
  6
Continuous
100
AcDbLine
 10
383.5320759999998
 20
458.7498159999998
 30
0.0
 11
382.832076
 21
459.4498159999998
 31
0.0
  0
LINE
  5
1492E
330
147AC
100
AcDbEntity
  8
1
  6
Continuous
100
AcDbLine
 10
390.8820759999999
 20
461.049816
 30
0.0
 11
390.8820759999999
 21
459.4498159999998
 31
0.0
  0
LINE
  5
1492F
330
147AC
100
AcDbEntity
  8
4
  6
CENTER
100
AcDbLine
 10
411.882076
 20
466.737296
 30
0.0
 11
411.882076
 21
474.7372959999998
 31
0.0
  0
LINE
  5
14930
330
147AC
100
AcDbEntity
  8
4
  6
CENTER
100
AcDbLine
 10
495.882076
 20
466.737296
 30
0.0
 11
495.882076
 21
474.7372959999998
 31
0.0
  0
LINE
  5
14931
330
147AC
100
AcDbEntity
  8
4
  6
CENTER
100
AcDbLine
 10
579.8820759999999
 20
466.737296
 30
0.0
 11
579.8820759999999
 21
474.7372959999998
 31
0.0
  0
LINE
  5
14932
330
147AC
100
AcDbEntity
  8
4
  6
CENTER
100
AcDbLine
 10
545.882076
 20
466.737296
 30
0.0
 11
545.882076
 21
474.7372959999998
 31
0.0
  0
LINE
  5
14933
330
147AC
100
AcDbEntity
  8
1
  6
Continuous
100
AcDbLine
 10
595.882076
 20
471.4498159999997
 30
0.0
 11
595.882076
 21
466.4498159999998
 31
0.0
  0
ARC
  5
14934
330
147AC
100
AcDbEntity
  8
1
  6
Continuous
100
AcDbCircle
 10
592.8820759999998
 20
466.4498159999998
 30
0.0
 40
3.0
100
AcDbArc
 50
270.0
 51
0.0
  0
ARC
  5
14935
330
147AC
100
AcDbEntity
  8
1
  6
Continuous
100
AcDbCircle
 10
320.882076
 20
466.4498159999998
 30
0.0
 40
3.0
100
AcDbArc
 50
180.0
 51
270.0
  0
LINE
  5
14936
330
147AC
100
AcDbEntity
  8
1
  6
Continuous
100
AcDbLine
 10
323.8820759999999
 20
463.4498159999998
 30
0.0
 11
323.8820759999999
 21
461.049816
 31
0.0
  0
LINE
  5
14937
330
147AC
100
AcDbEntity
  8
1
  6
Continuous
100
AcDbLine
 10
317.3820759999999
 20
461.8498159999998
 30
0.0
 11
296.3820759999999
 21
461.8498159999998
 31
0.0
  0
ARC
  5
14938
330
147AC
100
AcDbEntity
  8
1
  6
Continuous
100
AcDbCircle
 10
317.3820759999999
 20
462.3498159999998
 30
0.0
 40
0.5
100
AcDbArc
 50
270.0
 51
0.0
  0
ARC
  5
14939
330
147AC
100
AcDbEntity
  8
1
  6
Continuous
100
AcDbCircle
 10
296.3820759999999
 20
462.3498159999998
 30
0.0
 40
0.5
100
AcDbArc
 50
180.0
 51
270.0
  0
ARC
  5
1493A
330
147AC
100
AcDbEntity
  8
3
  6
DASHED
100
AcDbCircle
 10
306.8820759999999
 20
770.849816
 30
0.0
 40
11.0
100
AcDbArc
 50
125.096801
 51
54.903199
  0
ARC
  5
1493B
330
147AC
100
AcDbEntity
  8
3
  6
DASHED
100
AcDbCircle
 10
379.8820759999999
 20
765.849816
 30
0.0
 40
11.0
100
AcDbArc
 50
329.2484979999999
 51
213.0557309999999
  0
ARC
  5
1493C
330
147AC
100
AcDbEntity
  8
3
  6
DASHED
100
AcDbCircle
 10
306.8820759999999
 20
560.849816
 30
0.0
 40
11.0
100
AcDbArc
 50
326.944269
 51
21.052718
  0
ARC
  5
1493D
330
147AC
100
AcDbEntity
  8
3
  6
DASHED
100
AcDbCircle
 10
306.8820759999999
 20
560.849816
 30
0.0
 40
11.0
100
AcDbArc
 50
41.806413
 51
210.751502
  0
LINE
  5
1493E
330
147AC
100
AcDbEntity
  8
4
  6
CENTER
100
AcDbLine
 10
370.882076
 20
566.349816
 30
0.0
 11
370.882076
 21
557.349816
 31
0.0
  0
LINE
  5
1493F
330
147AC
100
AcDbEntity
  8
4
  6
CENTER
100
AcDbLine
 10
358.8820759999999
 20
567.849816
 30
0.0
 11
358.8820759999999
 21
555.849816
 31
0.0
  0
LINE
  5
14940
330
147AC
100
AcDbEntity
  8
4
  6
CENTER
100
AcDbLine
 10
393.7849700000001
 20
565.849816
 30
0.0
 11
365.7849699999999
 21
565.849816
 31
0.0
  0
LINE
  5
14941
330
147AC
100
AcDbEntity
  8
4
  6
CENTER
100
AcDbLine
 10
84.17394899999996
 20
561.849816
 30
0.0
 11
603.354646
 21
561.849816
 31
0.0
  0
LINE
  5
14942
330
147AC
100
AcDbEntity
  8
1
  6
Continuous
100
AcDbLine
 10
345.882076
 20
334.2999999999999
 30
0.0
 11
595.882076
 21
334.2999999999999
 31
0.0
  0
LINE
  5
14943
330
147AC
100
AcDbEntity
  8
1
  6
Continuous
100
AcDbLine
 10
317.8820759999999
 20
360.4999999999998
 30
0.0
 11
595.882076
 21
360.4999999999998
 31
0.0
  0
LINE
  5
14944
330
147AC
100
AcDbEntity
  8
4
  6
CENTER
100
AcDbLine
 10
290.8820759999999
 20
347.3999999999999
 30
0.0
 11
600.8820759999998
 21
347.3999999999999
 31
0.0
  0
LINE
  5
14945
330
147AC
100
AcDbEntity
  8
4
  6
CENTER
100
AcDbLine
 10
84.17394899999996
 20
351.8999999999999
 30
0.0
 11
396.477576
 21
351.8999999999999
 31
0.0
  0
LINE
  5
14946
330
147AC
100
AcDbEntity
  8
1
  6
Continuous
100
AcDbLine
 10
390.8820759999999
 20
136.8999999999997
 30
0.0
 11
595.882076
 21
136.8999999999997
 31
0.0
  0
LINE
  5
14947
330
147AC
100
AcDbEntity
  8
1
  6
Continuous
100
AcDbLine
 10
390.4197919999999
 20
135.3
 30
0.0
 11
595.882076
 21
135.3
 31
0.0
  0
LINE
  5
14948
330
147AC
100
AcDbEntity
  8
1
  6
Continuous
100
AcDbLine
 10
298.8820759999999
 20
159.9
 30
0.0
 11
595.882076
 21
159.9
 31
0.0
  0
LINE
  5
14949
330
147AC
100
AcDbEntity
  8
4
  6
CENTER
100
AcDbLine
 10
290.8820759999999
 20
148.3999999999998
 30
0.0
 11
600.8820759999998
 21
148.3999999999998
 31
0.0
  0
LINE
  5
1494A
330
147AC
100
AcDbEntity
  8
1
  6
Continuous
100
AcDbLine
 10
345.882076
 20
161.5
 30
0.0
 11
595.882076
 21
161.5
 31
0.0
  0
LINE
  5
1494B
330
147AC
100
AcDbEntity
  8
1
  6
Continuous
100
AcDbLine
 10
595.882076
 20
253.9
 30
0.0
 11
295.882076
 21
253.9
 31
0.0
  0
LINE
  5
1494C
330
147AC
100
AcDbEntity
  8
1
  6
Continuous
100
AcDbLine
 10
592.8820759999998
 20
245.9
 30
0.0
 11
348.8820759999999
 21
245.9
 31
0.0
  0
LINE
  5
1494D
330
147AC
100
AcDbEntity
  8
1
  6
Continuous
100
AcDbLine
 10
592.8820759999998
 20
49.5
 30
0.0
 11
320.882076
 21
49.5
 31
0.0
  0
LINE
  5
1494E
330
147AC
100
AcDbEntity
  8
1
  6
Continuous
100
AcDbLine
 10
595.882076
 20
41.5
 30
0.0
 11
295.882076
 21
41.5
 31
0.0
  0
LINE
  5
1494F
330
147AC
100
AcDbEntity
  8
1
  6
Continuous
100
AcDbLine
 10
90.882076
 20
340.3
 30
0.0
 11
295.882076
 21
340.3
 31
0.0
  0
LINE
  5
14950
330
147AC
100
AcDbEntity
  8
1
  6
Continuous
100
AcDbLine
 10
90.882076
 20
341.9
 30
0.0
 11
295.882076
 21
341.9
 31
0.0
  0
LINE
  5
14951
330
147AC
100
AcDbEntity
  8
1
  6
Continuous
100
AcDbLine
 10
93.88207599999999
 20
361.8999999999999
 30
0.0
 11
300.5575209999999
 21
361.8999999999999
 31
0.0
  0
LINE
  5
14952
330
147AC
100
AcDbEntity
  8
1
  6
Continuous
100
AcDbLine
 10
390.8820759999999
 20
51.9
 30
0.0
 11
90.882076
 21
51.9
 31
0.0
  0
LINE
  5
14953
330
147AC
100
AcDbEntity
  8
1
  6
Continuous
100
AcDbLine
 10
390.8820759999999
 20
53.5
 30
0.0
 11
90.882076
 21
53.5
 31
0.0
  0
LINE
  5
14954
330
147AC
100
AcDbEntity
  8
1
  6
Continuous
100
AcDbLine
 10
295.882076
 20
45.49999999999999
 30
0.0
 11
93.88207599999999
 21
45.49999999999999
 31
0.0
  0
ARC
  5
14955
330
147AC
100
AcDbEntity
  8
1
  6
Continuous
100
AcDbCircle
 10
93.88207599999999
 20
48.5
 30
0.0
 40
3.0
100
AcDbArc
 50
180.0
 51
270.0
  0
LINE
  5
14956
330
147AC
100
AcDbEntity
  8
1
  6
Continuous
100
AcDbLine
 10
90.882076
 20
48.5
 30
0.0
 11
90.882076
 21
53.5
 31
0.0
  0
LINE
  5
14957
330
147AC
100
AcDbEntity
  8
4
  6
CENTER
100
AcDbLine
 10
106.8820759999999
 20
56.696583
 30
0.0
 11
106.8820759999999
 21
48.69658300000001
 31
0.0
  0
LINE
  5
14958
330
147AC
100
AcDbEntity
  8
4
  6
CENTER
100
AcDbLine
 10
140.882076
 20
56.696583
 30
0.0
 11
140.882076
 21
48.69658300000001
 31
0.0
  0
LINE
  5
14959
330
147AC
100
AcDbEntity
  8
1
  6
Continuous
100
AcDbLine
 10
25.0
 20
159.9
 30
0.0
 11
25.0
 21
136.8999999999997
 31
0.0
  0
LINE
  5
1495A
330
147AC
100
AcDbEntity
  8
1
  6
Continuous
100
AcDbLine
 10
26.6
 20
159.9
 30
0.0
 11
26.6
 21
136.8999999999997
 31
0.0
  0
ARC
  5
1495B
330
147AC
100
AcDbEntity
  8
1
  6
Continuous
100
AcDbCircle
 10
27.9
 20
158.4
 30
0.0
 40
0.5
100
AcDbArc
 50
90.0
 51
180.0
  0
ARC
  5
1495C
330
147AC
100
AcDbEntity
  8
1
  6
Continuous
100
AcDbCircle
 10
33.9
 20
158.4
 30
0.0
 40
0.5
100
AcDbArc
 50
0.0
 51
90.0
  0
LINE
  5
1495D
330
147AC
100
AcDbEntity
  8
1
  6
Continuous
100
AcDbLine
 10
25.0
 20
136.8999999999997
 30
0.0
 11
27.6
 21
136.8999999999997
 31
0.0
  0
LINE
  5
1495E
330
147AC
100
AcDbEntity
  8
1
  6
Continuous
100
AcDbLine
 10
26.6
 20
135.3
 30
0.0
 11
27.6
 21
135.3
 31
0.0
  0
ARC
  5
1495F
330
147AC
100
AcDbEntity
  8
1
  6
Continuous
100
AcDbCircle
 10
26.6
 20
136.8999999999997
 30
0.0
 40
1.6
100
AcDbArc
 50
180.0
 51
270.0
  0
LINE
  5
14960
330
147AC
100
AcDbEntity
  8
4
  6
CENTER
100
AcDbLine
 10
29.487133
 20
148.3999999999998
 30
0.0
 11
22.56572999999999
 21
148.3999999999998
 31
0.0
  0
LINE
  5
14961
330
147AC
100
AcDbEntity
  8
1
  6
Continuous
100
AcDbLine
 10
27.4
 20
158.4
 30
0.0
 11
27.4
 21
147.65
 31
0.0
  0
LINE
  5
14962
330
147AC
100
AcDbEntity
  8
1
  6
Continuous
100
AcDbLine
 10
34.39999999999999
 20
158.4
 30
0.0
 11
34.39999999999999
 21
155.4999999999998
 31
0.0
  0
ARC
  5
14963
330
147AC
100
AcDbEntity
  8
1
  6
Continuous
100
AcDbCircle
 10
27.9
 20
137.4
 30
0.0
 40
0.5
100
AcDbArc
 50
180.0
 51
233.130102
  0
LINE
  5
14964
330
147AC
100
AcDbEntity
  8
1
  6
Continuous
100
AcDbLine
 10
35.4
 20
152.15
 30
0.0
 11
35.4
 21
143.65
 31
0.0
  0
LINE
  5
14965
330
147AC
100
AcDbEntity
  8
1
  6
Continuous
100
AcDbLine
 10
34.9
 20
143.1499999999998
 30
0.0
 11
34.9
 21
152.65
 31
0.0
  0
LINE
  5
14966
330
147AC
100
AcDbEntity
  8
1
  6
Continuous
100
AcDbLine
 10
34.9
 20
143.1499999999998
 30
0.0
 11
35.4
 21
143.65
 31
0.0
  0
LINE
  5
14967
330
147AC
100
AcDbEntity
  8
1
  6
Continuous
100
AcDbLine
 10
34.9
 20
152.65
 30
0.0
 11
35.4
 21
152.15
 31
0.0
  0
LINE
  5
14968
330
147AC
100
AcDbEntity
  8
1
  6
Continuous
100
AcDbLine
 10
34.9
 20
143.1499999999998
 30
0.0
 11
34.6
 21
143.1499999999998
 31
0.0
  0
LINE
  5
14969
330
147AC
100
AcDbEntity
  8
1
  6
Continuous
100
AcDbLine
 10
34.9
 20
152.65
 30
0.0
 11
34.6
 21
152.65
 31
0.0
  0
LINE
  5
1496A
330
147AC
100
AcDbEntity
  8
1
  6
Continuous
100
AcDbLine
 10
27.9
 20
158.9
 30
0.0
 11
33.9
 21
158.9
 31
0.0
  0
LINE
  5
1496B
330
147AC
100
AcDbEntity
  8
4
  6
CENTER
100
AcDbLine
 10
22.408002
 20
142.9
 30
0.0
 11
36.056013
 21
142.9
 31
0.0
  0
LINE
  5
1496C
330
147AC
100
AcDbEntity
  8
1
  6
Continuous
100
AcDbLine
 10
27.1
 20
138.15
 30
0.0
 11
27.1
 21
147.65
 31
0.0
  0
LINE
  5
1496D
330
147AC
100
AcDbEntity
  8
1
  6
Continuous
100
AcDbLine
 10
27.1
 20
138.15
 30
0.0
 11
27.6
 21
138.15
 31
0.0
  0
LINE
  5
1496E
330
147AC
100
AcDbEntity
  8
1
  6
Continuous
100
AcDbLine
 10
27.1
 20
138.15
 30
0.0
 11
26.6
 21
138.65
 31
0.0
  0
ARC
  5
1496F
330
147AC
100
AcDbEntity
  8
1
  6
Continuous
100
AcDbCircle
 10
28.1
 20
153.3999999999998
 30
0.0
 40
0.5
100
AcDbArc
 50
90.0
 51
180.0
  0
LINE
  5
14970
330
147AC
100
AcDbEntity
  8
1
  6
Continuous
100
AcDbLine
 10
27.1
 20
147.65
 30
0.0
 11
27.6
 21
147.65
 31
0.0
  0
LINE
  5
14971
330
147AC
100
AcDbEntity
  8
1
  6
Continuous
100
AcDbLine
 10
35.4
 20
153.9
 30
0.0
 11
28.1
 21
153.9
 31
0.0
  0
ARC
  5
14972
330
147AC
100
AcDbEntity
  8
1
  6
Continuous
100
AcDbCircle
 10
34.1
 20
153.3999999999998
 30
0.0
 40
0.5
100
AcDbArc
 50
0.0
 51
90.0
  0
LINE
  5
14973
330
147AC
100
AcDbEntity
  8
1
  6
Continuous
100
AcDbLine
 10
27.1
 20
147.65
 30
0.0
 11
26.6
 21
147.1499999999998
 31
0.0
  0
LINE
  5
14974
330
147AC
100
AcDbEntity
  8
1
  6
Continuous
100
AcDbLine
 10
24.3
 20
146.55
 30
0.0
 11
24.3
 21
139.25
 31
0.0
  0
LINE
  5
14975
330
147AC
100
AcDbEntity
  8
1
  6
Continuous
100
AcDbLine
 10
24.3
 20
146.55
 30
0.0
 11
25.0
 21
145.8499999999999
 31
0.0
  0
LINE
  5
14976
330
147AC
100
AcDbEntity
  8
1
  6
Continuous
100
AcDbLine
 10
24.3
 20
139.25
 30
0.0
 11
25.0
 21
139.9499999999999
 31
0.0
  0
LINE
  5
14977
330
147AC
100
AcDbEntity
  8
1
  6
Continuous
100
AcDbLine
 10
37.0
 20
133.9
 30
0.0
 11
35.4
 21
133.9
 31
0.0
  0
LINE
  5
14978
330
147AC
100
AcDbEntity
  8
1
  6
Continuous
100
AcDbLine
 10
35.4
 20
155.4999999999998
 30
0.0
 11
29.0
 21
155.4999999999998
 31
0.0
  0
LINE
  5
14979
330
147AC
100
AcDbEntity
  8
1
  6
Continuous
100
AcDbLine
 10
37.0
 20
153.9
 30
0.0
 11
37.0
 21
133.9
 31
0.0
  0
LINE
  5
1497A
330
147AC
100
AcDbEntity
  8
1
  6
Continuous
100
AcDbLine
 10
35.4
 20
153.9
 30
0.0
 11
35.4
 21
133.9
 31
0.0
  0
LINE
  5
1497B
330
147AC
100
AcDbEntity
  8
4
  6
CENTER
100
AcDbLine
 10
39.63852199999998
 20
143.9
 30
0.0
 11
32.71711899999999
 21
143.9
 31
0.0
  0
LINE
  5
1497C
330
147AC
100
AcDbEntity
  8
1
  6
Continuous
100
AcDbLine
 10
29.0
 20
155.4999999999998
 30
0.0
 11
29.0
 21
153.9
 31
0.0
  0
ARC
  5
1497D
330
147AC
100
AcDbEntity
  8
1
  6
Continuous
100
AcDbCircle
 10
35.4
 20
153.9
 30
0.0
 40
1.6
100
AcDbArc
 50
0.0
 51
90.0
  0
LINE
  5
1497E
330
147AC
100
AcDbEntity
  8
4
  6
CENTER
100
AcDbLine
 10
39.63852199999998
 20
147.9
 30
0.0
 11
25.830649
 21
147.9
 31
0.0
  0
LINE
  5
1497F
330
147AC
100
AcDbEntity
  8
1
  6
Continuous
100
AcDbLine
 10
37.7
 20
151.55
 30
0.0
 11
37.7
 21
144.25
 31
0.0
  0
LINE
  5
14980
330
147AC
100
AcDbEntity
  8
1
  6
Continuous
100
AcDbLine
 10
37.7
 20
151.55
 30
0.0
 11
37.0
 21
150.8499999999999
 31
0.0
  0
LINE
  5
14981
330
147AC
100
AcDbEntity
  8
1
  6
Continuous
100
AcDbLine
 10
37.7
 20
144.25
 30
0.0
 11
37.0
 21
144.95
 31
0.0
  0
LINE
  5
14982
330
147AC
100
AcDbEntity
  8
1
  6
Continuous
100
AcDbLine
 10
27.4
 20
138.15
 30
0.0
 11
27.4
 21
137.4
 31
0.0
  0
LINE
  5
14983
330
147AC
100
AcDbEntity
  8
1
  6
Continuous
100
AcDbLine
 10
34.39999999999999
 20
153.9
 30
0.0
 11
34.39999999999999
 21
153.8
 31
0.0
  0
ARC
  5
14984
330
147AC
100
AcDbEntity
  8
1
  6
Continuous
100
AcDbCircle
 10
28.1
 20
132.4
 30
0.0
 40
0.5
100
AcDbArc
 50
180.0
 51
270.0
  0
LINE
  5
14985
330
147AC
100
AcDbEntity
  8
1
  6
Continuous
100
AcDbLine
 10
34.1
 20
131.9
 30
0.0
 11
28.1
 21
131.9
 31
0.0
  0
ARC
  5
14986
330
147AC
100
AcDbEntity
  8
1
  6
Continuous
100
AcDbCircle
 10
34.1
 20
132.4
 30
0.0
 40
0.5
100
AcDbArc
 50
270.0
 51
0.0
  0
LINE
  5
14987
330
147AC
100
AcDbEntity
  8
1
  6
Continuous
100
AcDbLine
 10
34.6
 20
153.3999999999998
 30
0.0
 11
34.6
 21
132.4
 31
0.0
  0
LINE
  5
14988
330
147AC
100
AcDbEntity
  8
1
  6
Continuous
100
AcDbLine
 10
27.6
 20
153.3999999999998
 30
0.0
 11
27.6
 21
132.4
 31
0.0
  0
LINE
  5
14989
330
147AC
100
AcDbEntity
  8
1
  6
Continuous
100
AcDbLine
 10
26.6
 20
161.5
 30
0.0
 11
33.0
 21
161.5
 31
0.0
  0
LINE
  5
1498A
330
147AC
100
AcDbEntity
  8
1
  6
Continuous
100
AcDbLine
 10
25.0
 20
159.9
 30
0.0
 11
33.0
 21
159.9
 31
0.0
  0
LINE
  5
1498B
330
147AC
100
AcDbEntity
  8
1
  6
Continuous
100
AcDbLine
 10
33.0
 20
161.5
 30
0.0
 11
33.0
 21
159.9
 31
0.0
  0
ARC
  5
1498C
330
147AC
100
AcDbEntity
  8
1
  6
Continuous
100
AcDbCircle
 10
26.6
 20
159.9
 30
0.0
 40
1.6
100
AcDbArc
 50
90.0
 51
180.0
  0
LINE
  5
1498D
330
147AC
100
AcDbEntity
  8
1
  6
Continuous
100
AcDbLine
 10
90.882076
 20
358.8999999999999
 30
0.0
 11
90.882076
 21
340.3
 31
0.0
  0
ARC
  5
1498E
330
147AC
100
AcDbEntity
  8
1
  6
Continuous
100
AcDbCircle
 10
93.88207599999999
 20
358.8999999999999
 30
0.0
 40
3.0
100
AcDbArc
 50
90.0
 51
180.0
  0
CIRCLE
  5
1498F
330
147AC
100
AcDbEntity
  8
1
  6
Continuous
100
AcDbCircle
 10
140.882076
 20
351.8999999999999
 30
0.0
 40
2.0
  0
CIRCLE
  5
14990
330
147AC
100
AcDbEntity
  8
1
  6
Continuous
100
AcDbCircle
 10
106.8820759999999
 20
351.8999999999999
 30
0.0
 40
3.0
  0
LINE
  5
14991
330
147AC
100
AcDbEntity
  8
4
  6
CENTER
100
AcDbLine
 10
106.8820759999999
 20
357.8999999999999
 30
0.0
 11
106.8820759999999
 21
345.8999999999999
 31
0.0
  0
CIRCLE
  5
14992
330
147AC
100
AcDbEntity
  8
1
  6
Continuous
100
AcDbCircle
 10
106.8820759999999
 20
351.8999999999999
 30
0.0
 40
4.299999999999998
  0
LINE
  5
14993
330
147AC
100
AcDbEntity
  8
4
  6
CENTER
100
AcDbLine
 10
140.882076
 20
347.8999999999999
 30
0.0
 11
140.882076
 21
355.8999999999999
 31
0.0
  0
LINE
  5
14994
330
147AC
100
AcDbEntity
  8
4
  6
CENTER
100
AcDbLine
 10
190.882076
 20
56.696583
 30
0.0
 11
190.882076
 21
48.69658300000001
 31
0.0
  0
CIRCLE
  5
14995
330
147AC
100
AcDbEntity
  8
1
  6
Continuous
100
AcDbCircle
 10
190.882076
 20
351.8999999999999
 30
0.0
 40
3.0
  0
CIRCLE
  5
14996
330
147AC
100
AcDbEntity
  8
1
  6
Continuous
100
AcDbCircle
 10
190.882076
 20
351.8999999999999
 30
0.0
 40
4.299999999999998
  0
LINE
  5
14997
330
147AC
100
AcDbEntity
  8
4
  6
CENTER
100
AcDbLine
 10
190.882076
 20
357.8999999999999
 30
0.0
 11
190.882076
 21
345.8999999999999
 31
0.0
  0
LINE
  5
14998
330
147AC
100
AcDbEntity
  8
3
  6
DASHED
100
AcDbLine
 10
323.8820759999999
 20
340.3
 30
0.0
 11
371.9297179999998
 21
340.3
 31
0.0
  0
LINE
  5
14999
330
147AC
100
AcDbEntity
  8
1
  6
Continuous
100
AcDbLine
 10
313.206631
 20
361.8999999999999
 30
0.0
 11
387.8820759999999
 21
361.8999999999999
 31
0.0
  0
LINE
  5
1499A
330
147AC
100
AcDbEntity
  8
3
  6
DASHED
100
AcDbLine
 10
323.8820759999999
 20
341.9
 30
0.0
 11
368.882076
 21
341.9
 31
0.0
  0
LINE
  5
1499B
330
147AC
100
AcDbEntity
  8
3
  6
DASHED
100
AcDbLine
 10
365.8820759999999
 20
45.49999999999999
 30
0.0
 11
295.882076
 21
45.49999999999999
 31
0.0
  0
LINE
  5
1499C
330
147AC
100
AcDbEntity
  8
4
  6
CENTER
100
AcDbLine
 10
327.8820759999999
 20
46.21251899999999
 30
0.0
 11
327.8820759999999
 21
38.212519
 31
0.0
  0
LINE
  5
1499D
330
147AC
100
AcDbEntity
  8
1
  6
Continuous
100
AcDbLine
 10
317.8820759999999
 20
41.5
 30
0.0
 11
317.8820759999999
 21
50.6
 31
0.0
  0
LINE
  5
1499E
330
147AC
100
AcDbEntity
  8
4
  6
CENTER
100
AcDbLine
 10
315.8820759999999
 20
46.21251899999999
 30
0.0
 11
315.8820759999999
 21
38.212519
 31
0.0
  0
LINE
  5
1499F
330
147AC
100
AcDbEntity
  8
4
  6
CENTER
100
AcDbLine
 10
306.8820759999999
 20
54.91976999999999
 30
0.0
 11
306.8820759999999
 21
37.0
 31
0.0
  0
LINE
  5
149A0
330
147AC
100
AcDbEntity
  8
1
  6
Continuous
100
AcDbLine
 10
295.882076
 20
44.59999999999999
 30
0.0
 11
295.882076
 21
50.6
 31
0.0
  0
LINE
  5
149A1
330
147AC
100
AcDbEntity
  8
1
  6
Continuous
100
AcDbLine
 10
317.3820759999999
 20
51.1
 30
0.0
 11
296.3820759999999
 21
51.1
 31
0.0
  0
LINE
  5
149A2
330
147AC
100
AcDbEntity
  8
4
  6
CENTER
100
AcDbLine
 10
274.882076
 20
56.696583
 30
0.0
 11
274.882076
 21
48.69658300000001
 31
0.0
  0
ARC
  5
149A3
330
147AC
100
AcDbEntity
  8
1
  6
Continuous
100
AcDbCircle
 10
296.3820759999999
 20
50.6
 30
0.0
 40
0.5
100
AcDbArc
 50
90.0
 51
180.0
  0
ARC
  5
149A4
330
147AC
100
AcDbEntity
  8
1
  6
Continuous
100
AcDbCircle
 10
317.3820759999999
 20
50.6
 30
0.0
 40
0.5
100
AcDbArc
 50
0.0
 51
90.0
  0
LINE
  5
149A5
330
147AC
100
AcDbEntity
  8
1
  6
Continuous
100
AcDbLine
 10
323.8820759999999
 20
49.5
 30
0.0
 11
323.8820759999999
 21
51.9
 31
0.0
  0
ARC
  5
149A6
330
147AC
100
AcDbEntity
  8
1
  6
Continuous
100
AcDbCircle
 10
320.882076
 20
46.5
 30
0.0
 40
3.0
100
AcDbArc
 50
90.0
 51
180.0
  0
LINE
  5
149A7
330
147AC
100
AcDbEntity
  8
1
  6
Continuous
100
AcDbLine
 10
323.8820759999999
 20
51.5
 30
0.0
 11
309.8820759999999
 21
51.5
 31
0.0
  0
LINE
  5
149A8
330
147AC
100
AcDbEntity
  8
1
  6
Continuous
100
AcDbLine
 10
323.8820759999999
 20
51.9
 30
0.0
 11
309.8820759999999
 21
51.9
 31
0.0
  0
LINE
  5
149A9
330
147AC
100
AcDbEntity
  8
4
  6
CENTER
100
AcDbLine
 10
311.8820759999999
 20
56.696583
 30
0.0
 11
311.8820759999999
 21
48.69658300000001
 31
0.0
  0
LINE
  5
149AA
330
147AC
100
AcDbEntity
  8
4
  6
CENTER
100
AcDbLine
 10
316.882076
 20
44.947109
 30
0.0
 11
316.882076
 21
56.533304
 31
0.0
  0
LINE
  5
149AB
330
147AC
100
AcDbEntity
  8
3
  6
DASHED
100
AcDbLine
 10
323.8820759999999
 20
45.49999999999999
 30
0.0
 11
323.8820759999999
 21
49.5
 31
0.0
  0
LINE
  5
149AC
330
147AC
100
AcDbEntity
  8
1
  6
Continuous
100
AcDbLine
 10
309.8820759999999
 20
51.1
 30
0.0
 11
309.8820759999999
 21
51.9
 31
0.0
  0
LINE
  5
149AD
330
147AC
100
AcDbEntity
  8
1
  6
Continuous
100
AcDbLine
 10
316.882076
 20
51.5
 30
0.0
 11
316.882076
 21
51.1
 31
0.0
  0
LINE
  5
149AE
330
147AC
100
AcDbEntity
  8
4
  6
CENTER
100
AcDbLine
 10
326.882076
 20
56.696583
 30
0.0
 11
326.882076
 21
48.69658300000001
 31
0.0
  0
LINE
  5
149AF
330
147AC
100
AcDbEntity
  8
1
  6
Continuous
100
AcDbLine
 10
317.8820759999999
 20
43.1
 30
0.0
 11
295.882076
 21
43.1
 31
0.0
  0
LINE
  5
149B0
330
147AC
100
AcDbEntity
  8
1
  6
Continuous
100
AcDbLine
 10
317.3820759999999
 20
44.1
 30
0.0
 11
296.3820759999999
 21
44.1
 31
0.0
  0
LINE
  5
149B1
330
147AC
100
AcDbEntity
  8
1
  6
Continuous
100
AcDbLine
 10
295.882076
 20
41.5
 30
0.0
 11
295.882076
 21
43.1
 31
0.0
  0
ARC
  5
149B2
330
147AC
100
AcDbEntity
  8
1
  6
Continuous
100
AcDbCircle
 10
296.3820759999999
 20
44.59999999999999
 30
0.0
 40
0.5
100
AcDbArc
 50
180.0
 51
270.0
  0
ARC
  5
149B3
330
147AC
100
AcDbEntity
  8
1
  6
Continuous
100
AcDbCircle
 10
317.3820759999999
 20
44.59999999999999
 30
0.0
 40
0.5
100
AcDbArc
 50
270.0
 51
0.0
  0
LINE
  5
149B4
330
147AC
100
AcDbEntity
  8
1
  6
Continuous
100
AcDbLine
 10
302.132076
 20
43.6
 30
0.0
 11
302.6320759999999
 21
43.1
 31
0.0
  0
LINE
  5
149B5
330
147AC
100
AcDbEntity
  8
1
  6
Continuous
100
AcDbLine
 10
302.132076
 20
43.6
 30
0.0
 11
302.132076
 21
44.1
 31
0.0
  0
LINE
  5
149B6
330
147AC
100
AcDbEntity
  8
1
  6
Continuous
100
AcDbLine
 10
311.6320759999999
 20
43.6
 30
0.0
 11
311.1320759999999
 21
43.1
 31
0.0
  0
LINE
  5
149B7
330
147AC
100
AcDbEntity
  8
1
  6
Continuous
100
AcDbLine
 10
311.6320759999999
 20
43.6
 30
0.0
 11
311.6320759999999
 21
44.1
 31
0.0
  0
LINE
  5
149B8
330
147AC
100
AcDbEntity
  8
1
  6
Continuous
100
AcDbLine
 10
302.132076
 20
43.6
 30
0.0
 11
311.6320759999999
 21
43.6
 31
0.0
  0
LINE
  5
149B9
330
147AC
100
AcDbEntity
  8
1
  6
Continuous
100
AcDbLine
 10
310.5320759999999
 20
40.8
 30
0.0
 11
303.2320759999998
 21
40.8
 31
0.0
  0
LINE
  5
149BA
330
147AC
100
AcDbEntity
  8
1
  6
Continuous
100
AcDbLine
 10
303.2320759999998
 20
40.8
 30
0.0
 11
303.9320759999998
 21
41.5
 31
0.0
  0
LINE
  5
149BB
330
147AC
100
AcDbEntity
  8
1
  6
Continuous
100
AcDbLine
 10
310.5320759999999
 20
40.8
 30
0.0
 11
309.832076
 21
41.5
 31
0.0
  0
ARC
  5
149BC
330
147AC
100
AcDbEntity
  8
1
  6
Continuous
100
AcDbCircle
 10
298.8820759999999
 20
338.8999999999999
 30
0.0
 40
3.0
100
AcDbArc
 50
180.0
 51
270.0
  0
ARC
  5
149BD
330
147AC
100
AcDbEntity
  8
1
  6
Continuous
100
AcDbCircle
 10
298.8820759999999
 20
355.8999999999999
 30
0.0
 40
3.0
100
AcDbArc
 50
90.0
 51
180.0
  0
LINE
  5
149BE
330
147AC
100
AcDbEntity
  8
4
  6
CENTER
100
AcDbLine
 10
320.882076
 20
352.8999999999999
 30
0.0
 11
292.8820759999999
 21
352.8999999999999
 31
0.0
  0
LINE
  5
149BF
330
147AC
100
AcDbEntity
  8
3
  6
DASHED
100
AcDbLine
 10
295.882076
 20
340.3
 30
0.0
 11
309.8820759999999
 21
340.3
 31
0.0
  0
LINE
  5
149C0
330
147AC
100
AcDbEntity
  8
3
  6
DASHED
100
AcDbLine
 10
295.882076
 20
341.9
 30
0.0
 11
309.8820759999999
 21
341.9
 31
0.0
  0
ARC
  5
149C1
330
147AC
100
AcDbEntity
  8
3
  6
DASHED
100
AcDbCircle
 10
306.8820759999999
 20
352.8999999999999
 30
0.0
 40
11.0
100
AcDbArc
 50
149.248498
 51
318.1935870000001
  0
ARC
  5
149C2
330
147AC
100
AcDbEntity
  8
1
  6
Continuous
100
AcDbCircle
 10
306.8820759999999
 20
352.8999999999999
 30
0.0
 40
11.0
100
AcDbArc
 50
33.055731
 51
149.248498
  0
CIRCLE
  5
149C3
330
147AC
100
AcDbEntity
  8
1
  6
Continuous
100
AcDbCircle
 10
274.882076
 20
351.8999999999999
 30
0.0
 40
3.0
  0
LINE
  5
149C4
330
147AC
100
AcDbEntity
  8
4
  6
CENTER
100
AcDbLine
 10
274.882076
 20
357.8999999999999
 30
0.0
 11
274.882076
 21
345.8999999999999
 31
0.0
  0
CIRCLE
  5
149C5
330
147AC
100
AcDbEntity
  8
1
  6
Continuous
100
AcDbCircle
 10
274.882076
 20
351.8999999999999
 30
0.0
 40
4.299999999999998
  0
LINE
  5
149C6
330
147AC
100
AcDbEntity
  8
1
  6
Continuous
100
AcDbLine
 10
295.882076
 20
355.8999999999999
 30
0.0
 11
295.882076
 21
338.8999999999999
 31
0.0
  0
CIRCLE
  5
149C7
330
147AC
100
AcDbEntity
  8
1
  6
Continuous
100
AcDbCircle
 10
327.8820759999999
 20
347.3999999999999
 30
0.0
 40
3.0
  0
LINE
  5
149C8
330
147AC
100
AcDbEntity
  8
1
  6
Continuous
100
AcDbLine
 10
298.8820759999999
 20
358.8999999999999
 30
0.0
 11
317.8820759999999
 21
358.8999999999999
 31
0.0
  0
LINE
  5
149C9
330
147AC
100
AcDbEntity
  8
1
  6
Continuous
100
AcDbLine
 10
317.8820759999999
 20
360.4999999999998
 30
0.0
 11
317.8820759999999
 21
358.8999999999999
 31
0.0
  0
CIRCLE
  5
149CA
330
147AC
100
AcDbEntity
  8
1
  6
Continuous
100
AcDbCircle
 10
315.8820759999999
 20
347.3999999999999
 30
0.0
 40
2.0
  0
ARC
  5
149CB
330
147AC
100
AcDbEntity
  8
1
  6
Continuous
100
AcDbCircle
 10
306.8820759999999
 20
352.8999999999999
 30
0.0
 40
11.0
100
AcDbArc
 50
318.1935870000001
 51
338.9472819999999
  0
LINE
  5
149CC
330
147AC
100
AcDbEntity
  8
4
  6
CENTER
100
AcDbLine
 10
315.8820759999999
 20
343.3999999999999
 30
0.0
 11
315.8820759999999
 21
351.3999999999999
 31
0.0
  0
CIRCLE
  5
149CD
330
147AC
100
AcDbEntity
  8
1
  6
Continuous
100
AcDbCircle
 10
306.8820759999999
 20
352.8999999999999
 30
0.0
 40
3.649999999999999
  0
LINE
  5
149CE
330
147AC
100
AcDbEntity
  8
3
  6
DASHED
100
AcDbLine
 10
309.8820759999999
 20
342.3
 30
0.0
 11
310.705606
 21
342.3
 31
0.0
  0
LINE
  5
149CF
330
147AC
100
AcDbEntity
  8
3
  6
DASHED
100
AcDbLine
 10
309.8820759999999
 20
341.9
 30
0.0
 11
309.8820759999999
 21
342.3
 31
0.0
  0
LINE
  5
149D0
330
147AC
100
AcDbEntity
  8
3
  6
DASHED
100
AcDbLine
 10
316.882076
 20
345.3
 30
0.0
 11
309.8820759999999
 21
341.9
 31
0.0
  0
LINE
  5
149D1
330
147AC
100
AcDbEntity
  8
3
  6
DASHED
100
AcDbLine
 10
316.882076
 20
343.6999999999999
 30
0.0
 11
309.8820759999999
 21
340.3
 31
0.0
  0
LINE
  5
149D2
330
147AC
100
AcDbEntity
  8
3
  6
DASHED
100
AcDbLine
 10
323.8820759999999
 20
341.9
 30
0.0
 11
323.8820759999999
 21
342.3
 31
0.0
  0
LINE
  5
149D3
330
147AC
100
AcDbEntity
  8
3
  6
DASHED
100
AcDbLine
 10
316.882076
 20
345.3
 30
0.0
 11
323.8820759999999
 21
341.9
 31
0.0
  0
LINE
  5
149D4
330
147AC
100
AcDbEntity
  8
3
  6
DASHED
100
AcDbLine
 10
316.882076
 20
343.6999999999999
 30
0.0
 11
323.8820759999999
 21
340.3
 31
0.0
  0
LINE
  5
149D5
330
147AC
100
AcDbEntity
  8
3
  6
DASHED
100
AcDbLine
 10
323.0585469999998
 20
342.3
 30
0.0
 11
323.8820759999999
 21
342.3
 31
0.0
  0
LINE
  5
149D6
330
147AC
100
AcDbEntity
  8
3
  6
DASHED
100
AcDbLine
 10
313.999723
 20
342.3
 30
0.0
 11
319.7644289999999
 21
342.3
 31
0.0
  0
ARC
  5
149D7
330
147AC
100
AcDbEntity
  8
3
  6
DASHED
100
AcDbCircle
 10
306.8820759999999
 20
352.8999999999999
 30
0.0
 40
11.0
100
AcDbArc
 50
338.9472819999999
 51
33.055731
  0
LINE
  5
149D8
330
147AC
100
AcDbEntity
  8
4
  6
CENTER
100
AcDbLine
 10
306.8820759999999
 20
338.8999999999999
 30
0.0
 11
306.8820759999999
 21
366.9
 31
0.0
  0
LINE
  5
149D9
330
147AC
100
AcDbEntity
  8
4
  6
CENTER
100
AcDbLine
 10
327.8820759999999
 20
353.3999999999999
 30
0.0
 11
327.8820759999999
 21
341.3999999999999
 31
0.0
  0
LINE
  5
149DA
330
147AC
100
AcDbEntity
  8
1
  6
Continuous
100
AcDbLine
 10
298.8820759999999
 20
335.8999999999999
 30
0.0
 11
345.882076
 21
335.8999999999999
 31
0.0
  0
LINE
  5
149DB
330
147AC
100
AcDbEntity
  8
1
  6
Continuous
100
AcDbLine
 10
345.882076
 20
335.8999999999999
 30
0.0
 11
345.882076
 21
334.2999999999999
 31
0.0
  0
LINE
  5
149DC
330
147AC
100
AcDbEntity
  8
4
  6
CENTER
100
AcDbLine
 10
411.882076
 20
46.21251899999999
 30
0.0
 11
411.882076
 21
38.212519
 31
0.0
  0
LINE
  5
149DD
330
147AC
100
AcDbEntity
  8
4
  6
CENTER
100
AcDbLine
 10
379.8820759999999
 20
40.04579299999997
 30
0.0
 11
379.8820759999999
 21
58.0
 31
0.0
  0
ARC
  5
149DE
330
147AC
100
AcDbEntity
  8
3
  6
DASHED
100
AcDbCircle
 10
365.8820759999999
 20
48.5
 30
0.0
 40
3.0
100
AcDbArc
 50
270.0
 51
0.0
  0
LINE
  5
149DF
330
147AC
100
AcDbEntity
  8
1
  6
Continuous
100
AcDbLine
 10
390.3820759999999
 20
50.89999999999999
 30
0.0
 11
369.3820759999999
 21
50.89999999999999
 31
0.0
  0
LINE
  5
149E0
330
147AC
100
AcDbEntity
  8
1
  6
Continuous
100
AcDbLine
 10
368.882076
 20
49.5
 30
0.0
 11
368.882076
 21
51.9
 31
0.0
  0
ARC
  5
149E1
330
147AC
100
AcDbEntity
  8
1
  6
Continuous
100
AcDbCircle
 10
369.3820759999999
 20
50.4
 30
0.0
 40
0.5
100
AcDbArc
 50
90.0
 51
180.0
  0
LINE
  5
149E2
330
147AC
100
AcDbEntity
  8
3
  6
DASHED
100
AcDbLine
 10
368.882076
 20
48.5
 30
0.0
 11
368.882076
 21
49.5
 31
0.0
  0
LINE
  5
149E3
330
147AC
100
AcDbEntity
  8
4
  6
CENTER
100
AcDbLine
 10
370.882076
 20
56.696583
 30
0.0
 11
370.882076
 21
48.69658300000001
 31
0.0
  0
LINE
  5
149E4
330
147AC
100
AcDbEntity
  8
4
  6
CENTER
100
AcDbLine
 10
358.8820759999999
 20
56.696583
 30
0.0
 11
358.8820759999999
 21
48.69658300000001
 31
0.0
  0
LINE
  5
149E5
330
147AC
100
AcDbEntity
  8
1
  6
Continuous
100
AcDbLine
 10
390.8820759999999
 20
51.9
 30
0.0
 11
390.8820759999999
 21
53.5
 31
0.0
  0
LINE
  5
149E6
330
147AC
100
AcDbEntity
  8
1
  6
Continuous
100
AcDbLine
 10
383.5320759999998
 20
54.2
 30
0.0
 11
382.832076
 21
53.5
 31
0.0
  0
LINE
  5
149E7
330
147AC
100
AcDbEntity
  8
1
  6
Continuous
100
AcDbLine
 10
376.2320759999998
 20
54.2
 30
0.0
 11
376.9320759999998
 21
53.5
 31
0.0
  0
LINE
  5
149E8
330
147AC
100
AcDbEntity
  8
1
  6
Continuous
100
AcDbLine
 10
383.5320759999998
 20
54.2
 30
0.0
 11
376.2320759999998
 21
54.2
 31
0.0
  0
LINE
  5
149E9
330
147AC
100
AcDbEntity
  8
1
  6
Continuous
100
AcDbLine
 10
375.132076
 20
51.4
 30
0.0
 11
384.6320759999999
 21
51.4
 31
0.0
  0
LINE
  5
149EA
330
147AC
100
AcDbEntity
  8
1
  6
Continuous
100
AcDbLine
 10
375.132076
 20
51.4
 30
0.0
 11
375.6320759999999
 21
51.9
 31
0.0
  0
LINE
  5
149EB
330
147AC
100
AcDbEntity
  8
1
  6
Continuous
100
AcDbLine
 10
384.6320759999999
 20
51.4
 30
0.0
 11
384.1320759999999
 21
51.9
 31
0.0
  0
ARC
  5
149EC
330
147AC
100
AcDbEntity
  8
1
  6
Continuous
100
AcDbCircle
 10
390.3820759999999
 20
50.4
 30
0.0
 40
0.5
100
AcDbArc
 50
0.0
 51
90.0
  0
LINE
  5
149ED
330
147AC
100
AcDbEntity
  8
1
  6
Continuous
100
AcDbLine
 10
390.8820759999999
 20
49.5
 30
0.0
 11
390.8820759999999
 21
50.4
 31
0.0
  0
LINE
  5
149EE
330
147AC
100
AcDbEntity
  8
1
  6
Continuous
100
AcDbLine
 10
375.132076
 20
51.4
 30
0.0
 11
375.132076
 21
50.89999999999999
 31
0.0
  0
LINE
  5
149EF
330
147AC
100
AcDbEntity
  8
1
  6
Continuous
100
AcDbLine
 10
384.6320759999999
 20
51.4
 30
0.0
 11
384.6320759999999
 21
50.89999999999999
 31
0.0
  0
CIRCLE
  5
149F0
330
147AC
100
AcDbEntity
  8
3
  6
DASHED
100
AcDbCircle
 10
379.8820759999999
 20
347.8999999999999
 30
0.0
 40
11.0
  0
LINE
  5
149F1
330
147AC
100
AcDbEntity
  8
4
  6
CENTER
100
AcDbLine
 10
393.7849700000001
 20
347.8999999999999
 30
0.0
 11
365.7849699999999
 21
347.8999999999999
 31
0.0
  0
LINE
  5
149F2
330
147AC
100
AcDbEntity
  8
3
  6
DASHED
100
AcDbLine
 10
368.882076
 20
341.9
 30
0.0
 11
368.882076
 21
340.3
 31
0.0
  0
LINE
  5
149F3
330
147AC
100
AcDbEntity
  8
4
  6
CENTER
100
AcDbLine
 10
370.882076
 20
347.3999999999999
 30
0.0
 11
370.882076
 21
356.4
 31
0.0
  0
LINE
  5
149F4
330
147AC
100
AcDbEntity
  8
4
  6
CENTER
100
AcDbLine
 10
358.8820759999999
 20
345.8999999999999
 30
0.0
 11
358.8820759999999
 21
357.8999999999999
 31
0.0
  0
LINE
  5
149F5
330
147AC
100
AcDbEntity
  8
4
  6
CENTER
100
AcDbLine
 10
379.8820759999999
 20
361.8999999999999
 30
0.0
 11
379.8820759999999
 21
333.8999999999999
 31
0.0
  0
ARC
  5
149F6
330
147AC
100
AcDbEntity
  8
3
  6
DASHED
100
AcDbCircle
 10
387.8820759999999
 20
344.8999999999998
 30
0.0
 40
3.0
100
AcDbArc
 50
298.9758569999999
 51
0.0
  0
LINE
  5
149F7
330
147AC
100
AcDbEntity
  8
3
  6
DASHED
100
AcDbLine
 10
390.8820759999999
 20
358.8999999999999
 30
0.0
 11
390.8820759999999
 21
344.8999999999998
 31
0.0
  0
ARC
  5
149F8
330
147AC
100
AcDbEntity
  8
1
  6
Continuous
100
AcDbCircle
 10
387.8820759999999
 20
358.8999999999999
 30
0.0
 40
3.0
100
AcDbArc
 50
32.230953
 51
90.0
  0
ARC
  5
149F9
330
147AC
100
AcDbEntity
  8
3
  6
DASHED
100
AcDbCircle
 10
387.8820759999999
 20
358.8999999999999
 30
0.0
 40
3.0
100
AcDbArc
 50
0.0
 51
32.230953
  0
LINE
  5
149FA
330
147AC
100
AcDbEntity
  8
4
  6
CENTER
100
AcDbLine
 10
411.882076
 20
353.3999999999999
 30
0.0
 11
411.882076
 21
341.3999999999999
 31
0.0
  0
CIRCLE
  5
149FB
330
147AC
100
AcDbEntity
  8
1
  6
Continuous
100
AcDbCircle
 10
411.882076
 20
347.3999999999999
 30
0.0
 40
3.0
  0
LINE
  5
149FC
330
147AC
100
AcDbEntity
  8
4
  6
CENTER
100
AcDbLine
 10
85.882076
 20
143.9
 30
0.0
 11
600.959098
 21
143.9
 31
0.0
  0
LINE
  5
149FD
330
147AC
100
AcDbEntity
  8
1
  6
Continuous
100
AcDbLine
 10
90.882076
 20
155.4999999999998
 30
0.0
 11
309.8820759999999
 21
155.4999999999998
 31
0.0
  0
LINE
  5
149FE
330
147AC
100
AcDbEntity
  8
1
  6
Continuous
100
AcDbLine
 10
93.88207599999999
 20
133.9
 30
0.0
 11
387.8820759999999
 21
133.9
 31
0.0
  0
LINE
  5
149FF
330
147AC
100
AcDbEntity
  8
1
  6
Continuous
100
AcDbLine
 10
345.882076
 20
249.9
 30
0.0
 11
93.88207599999999
 21
249.9
 31
0.0
  0
LINE
  5
14A00
330
147AC
100
AcDbEntity
  8
1
  6
Continuous
100
AcDbLine
 10
390.8820759999999
 20
241.9
 30
0.0
 11
90.882076
 21
241.9
 31
0.0
  0
LINE
  5
14A01
330
147AC
100
AcDbEntity
  8
1
  6
Continuous
100
AcDbLine
 10
90.882076
 20
136.8999999999997
 30
0.0
 11
90.882076
 21
155.4999999999998
 31
0.0
  0
LINE
  5
14A02
330
147AC
100
AcDbEntity
  8
1
  6
Continuous
100
AcDbLine
 10
90.882076
 20
246.9
 30
0.0
 11
90.882076
 21
241.9
 31
0.0
  0
ARC
  5
14A03
330
147AC
100
AcDbEntity
  8
1
  6
Continuous
100
AcDbCircle
 10
93.88207599999999
 20
246.9
 30
0.0
 40
3.0
100
AcDbArc
 50
90.0
 51
180.0
  0
LINE
  5
14A04
330
147AC
100
AcDbEntity
  8
4
  6
CENTER
100
AcDbLine
 10
106.8820759999999
 20
238.703417
 30
0.0
 11
106.8820759999999
 21
246.703417
 31
0.0
  0
LINE
  5
14A05
330
147AC
100
AcDbEntity
  8
4
  6
CENTER
100
AcDbLine
 10
140.882076
 20
238.703417
 30
0.0
 11
140.882076
 21
246.703417
 31
0.0
  0
ARC
  5
14A06
330
147AC
100
AcDbEntity
  8
1
  6
Continuous
100
AcDbCircle
 10
93.88207599999999
 20
136.8999999999997
 30
0.0
 40
3.0
100
AcDbArc
 50
180.0
 51
270.0
  0
CIRCLE
  5
14A07
330
147AC
100
AcDbEntity
  8
1
  6
Continuous
100
AcDbCircle
 10
140.882076
 20
143.9
 30
0.0
 40
2.0
  0
LINE
  5
14A08
330
147AC
100
AcDbEntity
  8
4
  6
CENTER
100
AcDbLine
 10
106.8820759999999
 20
137.9
 30
0.0
 11
106.8820759999999
 21
149.9
 31
0.0
  0
CIRCLE
  5
14A09
330
147AC
100
AcDbEntity
  8
1
  6
Continuous
100
AcDbCircle
 10
106.8820759999999
 20
143.9
 30
0.0
 40
3.0
  0
LINE
  5
14A0A
330
147AC
100
AcDbEntity
  8
4
  6
CENTER
100
AcDbLine
 10
140.882076
 20
147.9
 30
0.0
 11
140.882076
 21
139.9
 31
0.0
  0
LINE
  5
14A0B
330
147AC
100
AcDbEntity
  8
4
  6
CENTER
100
AcDbLine
 10
190.882076
 20
238.703417
 30
0.0
 11
190.882076
 21
246.703417
 31
0.0
  0
CIRCLE
  5
14A0C
330
147AC
100
AcDbEntity
  8
1
  6
Continuous
100
AcDbCircle
 10
190.882076
 20
143.9
 30
0.0
 40
3.0
  0
LINE
  5
14A0D
330
147AC
100
AcDbEntity
  8
4
  6
CENTER
100
AcDbLine
 10
190.882076
 20
137.9
 30
0.0
 11
190.882076
 21
149.9
 31
0.0
  0
LINE
  5
14A0E
330
147AC
100
AcDbEntity
  8
3
  6
DASHED
100
AcDbLine
 10
295.882076
 20
136.8999999999997
 30
0.0
 11
390.8820759999999
 21
136.8999999999997
 31
0.0
  0
LINE
  5
14A0F
330
147AC
100
AcDbEntity
  8
1
  6
Continuous
100
AcDbLine
 10
323.8820759999999
 20
155.4999999999998
 30
0.0
 11
368.882076
 21
155.4999999999998
 31
0.0
  0
LINE
  5
14A10
330
147AC
100
AcDbEntity
  8
3
  6
DASHED
100
AcDbLine
 10
317.8820759999999
 20
135.3
 30
0.0
 11
390.4197919999999
 21
135.3
 31
0.0
  0
LINE
  5
14A11
330
147AC
100
AcDbEntity
  8
3
  6
DASHED
100
AcDbLine
 10
365.8820759999999
 20
249.9
 30
0.0
 11
345.882076
 21
249.9
 31
0.0
  0
LINE
  5
14A12
330
147AC
100
AcDbEntity
  8
4
  6
CENTER
100
AcDbLine
 10
316.882076
 20
158.319526
 30
0.0
 11
316.882076
 21
149.65481
 31
0.0
  0
LINE
  5
14A13
330
147AC
100
AcDbEntity
  8
1
  6
Continuous
100
AcDbLine
 10
319.7644289999999
 20
153.5
 30
0.0
 11
323.8820759999999
 21
155.4999999999998
 31
0.0
  0
LINE
  5
14A14
330
147AC
100
AcDbEntity
  8
1
  6
Continuous
100
AcDbLine
 10
323.8820759999999
 20
155.4999999999998
 30
0.0
 11
323.8820759999999
 21
153.5
 31
0.0
  0
LINE
  5
14A15
330
147AC
100
AcDbEntity
  8
1
  6
Continuous
100
AcDbLine
 10
313.999723
 20
153.5
 30
0.0
 11
309.8820759999999
 21
155.4999999999998
 31
0.0
  0
LINE
  5
14A16
330
147AC
100
AcDbEntity
  8
1
  6
Continuous
100
AcDbLine
 10
309.8820759999999
 20
155.4999999999998
 30
0.0
 11
309.8820759999999
 21
153.5
 31
0.0
  0
LINE
  5
14A17
330
147AC
100
AcDbEntity
  8
4
  6
CENTER
100
AcDbLine
 10
306.8820759999999
 20
156.9
 30
0.0
 11
306.8820759999999
 21
128.9
 31
0.0
  0
LINE
  5
14A18
330
147AC
100
AcDbEntity
  8
3
  6
DASHED
100
AcDbLine
 10
295.882076
 20
136.8999999999997
 30
0.0
 11
295.882076
 21
155.4999999999998
 31
0.0
  0
LINE
  5
14A19
330
147AC
100
AcDbEntity
  8
1
  6
Continuous
100
AcDbLine
 10
317.3820759999999
 20
251.3
 30
0.0
 11
296.3820759999999
 21
251.3
 31
0.0
  0
LINE
  5
14A1A
330
147AC
100
AcDbEntity
  8
1
  6
Continuous
100
AcDbLine
 10
345.882076
 20
252.3
 30
0.0
 11
295.882076
 21
252.3
 31
0.0
  0
LINE
  5
14A1B
330
147AC
100
AcDbEntity
  8
4
  6
CENTER
100
AcDbLine
 10
274.882076
 20
238.703417
 30
0.0
 11
274.882076
 21
246.703417
 31
0.0
  0
LINE
  5
14A1C
330
147AC
100
AcDbEntity
  8
1
  6
Continuous
100
AcDbLine
 10
295.882076
 20
250.8
 30
0.0
 11
295.882076
 21
249.9
 31
0.0
  0
ARC
  5
14A1D
330
147AC
100
AcDbEntity
  8
1
  6
Continuous
100
AcDbCircle
 10
296.3820759999999
 20
250.8
 30
0.0
 40
0.5
100
AcDbArc
 50
90.0
 51
180.0
  0
LINE
  5
14A1E
330
147AC
100
AcDbEntity
  8
1
  6
Continuous
100
AcDbLine
 10
295.882076
 20
253.9
 30
0.0
 11
295.882076
 21
252.3
 31
0.0
  0
LINE
  5
14A1F
330
147AC
100
AcDbEntity
  8
4
  6
CENTER
100
AcDbLine
 10
316.882076
 20
250.4528909999999
 30
0.0
 11
316.882076
 21
238.866696
 31
0.0
  0
LINE
  5
14A20
330
147AC
100
AcDbEntity
  8
1
  6
Continuous
100
AcDbLine
 10
323.8820759999999
 20
249.9
 30
0.0
 11
323.8820759999999
 21
241.9
 31
0.0
  0
LINE
  5
14A21
330
147AC
100
AcDbEntity
  8
1
  6
Continuous
100
AcDbLine
 10
309.8820759999999
 20
249.9
 30
0.0
 11
309.8820759999999
 21
241.9
 31
0.0
  0
LINE
  5
14A22
330
147AC
100
AcDbEntity
  8
1
  6
Continuous
100
AcDbLine
 10
316.882076
 20
243.9
 30
0.0
 11
316.882076
 21
249.9
 31
0.0
  0
LINE
  5
14A23
330
147AC
100
AcDbEntity
  8
1
  6
Continuous
100
AcDbLine
 10
302.132076
 20
251.8
 30
0.0
 11
311.6320759999999
 21
251.8
 31
0.0
  0
LINE
  5
14A24
330
147AC
100
AcDbEntity
  8
1
  6
Continuous
100
AcDbLine
 10
311.6320759999999
 20
251.8
 30
0.0
 11
311.6320759999999
 21
251.3
 31
0.0
  0
LINE
  5
14A25
330
147AC
100
AcDbEntity
  8
1
  6
Continuous
100
AcDbLine
 10
311.6320759999999
 20
251.8
 30
0.0
 11
311.1320759999999
 21
252.3
 31
0.0
  0
LINE
  5
14A26
330
147AC
100
AcDbEntity
  8
1
  6
Continuous
100
AcDbLine
 10
302.132076
 20
251.8
 30
0.0
 11
302.132076
 21
251.3
 31
0.0
  0
LINE
  5
14A27
330
147AC
100
AcDbEntity
  8
1
  6
Continuous
100
AcDbLine
 10
302.132076
 20
251.8
 30
0.0
 11
302.6320759999999
 21
252.3
 31
0.0
  0
ARC
  5
14A28
330
147AC
100
AcDbEntity
  8
1
  6
Continuous
100
AcDbCircle
 10
317.3820759999999
 20
250.8
 30
0.0
 40
0.5
100
AcDbArc
 50
0.0
 51
90.0
  0
LINE
  5
14A29
330
147AC
100
AcDbEntity
  8
1
  6
Continuous
100
AcDbLine
 10
317.8820759999999
 20
252.3
 30
0.0
 11
317.8820759999999
 21
249.9
 31
0.0
  0
LINE
  5
14A2A
330
147AC
100
AcDbEntity
  8
1
  6
Continuous
100
AcDbLine
 10
323.8820759999999
 20
243.5
 30
0.0
 11
309.8820759999999
 21
243.5
 31
0.0
  0
LINE
  5
14A2B
330
147AC
100
AcDbEntity
  8
1
  6
Continuous
100
AcDbLine
 10
323.8820759999999
 20
243.9
 30
0.0
 11
309.8820759999999
 21
243.9
 31
0.0
  0
LINE
  5
14A2C
330
147AC
100
AcDbEntity
  8
1
  6
Continuous
100
AcDbLine
 10
310.5320759999999
 20
254.5999999999999
 30
0.0
 11
303.2320759999998
 21
254.5999999999999
 31
0.0
  0
LINE
  5
14A2D
330
147AC
100
AcDbEntity
  8
4
  6
CENTER
100
AcDbLine
 10
306.8820759999999
 20
240.4802299999999
 30
0.0
 11
306.8820759999999
 21
258.3999999999999
 31
0.0
  0
LINE
  5
14A2E
330
147AC
100
AcDbEntity
  8
4
  6
CENTER
100
AcDbLine
 10
315.8820759999999
 20
249.187481
 30
0.0
 11
315.8820759999999
 21
257.187481
 31
0.0
  0
LINE
  5
14A2F
330
147AC
100
AcDbEntity
  8
1
  6
Continuous
100
AcDbLine
 10
310.5320759999999
 20
254.5999999999999
 30
0.0
 11
309.832076
 21
253.9
 31
0.0
  0
LINE
  5
14A30
330
147AC
100
AcDbEntity
  8
1
  6
Continuous
100
AcDbLine
 10
303.2320759999998
 20
254.5999999999999
 30
0.0
 11
303.9320759999998
 21
253.9
 31
0.0
  0
ARC
  5
14A31
330
147AC
100
AcDbEntity
  8
1
  6
Continuous
100
AcDbCircle
 10
348.8820759999999
 20
248.9
 30
0.0
 40
3.0
100
AcDbArc
 50
180.0
 51
270.0
  0
LINE
  5
14A32
330
147AC
100
AcDbEntity
  8
1
  6
Continuous
100
AcDbLine
 10
345.882076
 20
253.9
 30
0.0
 11
345.882076
 21
248.9
 31
0.0
  0
LINE
  5
14A33
330
147AC
100
AcDbEntity
  8
4
  6
CENTER
100
AcDbLine
 10
327.8820759999999
 20
249.187481
 30
0.0
 11
327.8820759999999
 21
257.187481
 31
0.0
  0
ARC
  5
14A34
330
147AC
100
AcDbEntity
  8
1
  6
Continuous
100
AcDbCircle
 10
298.8820759999999
 20
156.9
 30
0.0
 40
3.0
100
AcDbArc
 50
90.0
 51
180.0
  0
LINE
  5
14A35
330
147AC
100
AcDbEntity
  8
1
  6
Continuous
100
AcDbLine
 10
295.882076
 20
155.4999999999998
 30
0.0
 11
295.882076
 21
156.9
 31
0.0
  0
LINE
  5
14A36
330
147AC
100
AcDbEntity
  8
1
  6
Continuous
100
AcDbLine
 10
345.882076
 20
159.9
 30
0.0
 11
345.882076
 21
161.5
 31
0.0
  0
LINE
  5
14A37
330
147AC
100
AcDbEntity
  8
4
  6
CENTER
100
AcDbLine
 10
320.882076
 20
142.9
 30
0.0
 11
292.8820759999999
 21
142.9
 31
0.0
  0
ARC
  5
14A38
330
147AC
100
AcDbEntity
  8
3
  6
DASHED
100
AcDbCircle
 10
306.8820759999999
 20
142.9
 30
0.0
 40
11.0
100
AcDbArc
 50
305.096801
 51
234.9031990000001
  0
CIRCLE
  5
14A39
330
147AC
100
AcDbEntity
  8
1
  6
Continuous
100
AcDbCircle
 10
274.882076
 20
143.9
 30
0.0
 40
3.0
  0
LINE
  5
14A3A
330
147AC
100
AcDbEntity
  8
4
  6
CENTER
100
AcDbLine
 10
274.882076
 20
137.9
 30
0.0
 11
274.882076
 21
149.9
 31
0.0
  0
LINE
  5
14A3B
330
147AC
100
AcDbEntity
  8
3
  6
DASHED
100
AcDbLine
 10
317.8820759999999
 20
135.3
 30
0.0
 11
317.8820759999999
 21
136.8999999999997
 31
0.0
  0
ARC
  5
14A3C
330
147AC
100
AcDbEntity
  8
1
  6
Continuous
100
AcDbCircle
 10
306.8820759999999
 20
142.9
 30
0.0
 40
11.0
100
AcDbArc
 50
234.9031990000001
 51
305.096801
  0
LINE
  5
14A3D
330
147AC
100
AcDbEntity
  8
1
  6
Continuous
100
AcDbLine
 10
323.0585469999998
 20
153.5
 30
0.0
 11
323.8820759999999
 21
153.9
 31
0.0
  0
LINE
  5
14A3E
330
147AC
100
AcDbEntity
  8
1
  6
Continuous
100
AcDbLine
 10
310.705606
 20
153.5
 30
0.0
 11
309.8820759999999
 21
153.9
 31
0.0
  0
LINE
  5
14A3F
330
147AC
100
AcDbEntity
  8
1
  6
Continuous
100
AcDbLine
 10
309.8820759999999
 20
153.5
 30
0.0
 11
323.8820759999999
 21
153.5
 31
0.0
  0
LINE
  5
14A40
330
147AC
100
AcDbEntity
  8
4
  6
CENTER
100
AcDbLine
 10
315.8820759999999
 20
152.4
 30
0.0
 11
315.8820759999999
 21
144.4
 31
0.0
  0
LINE
  5
14A41
330
147AC
100
AcDbEntity
  8
4
  6
CENTER
100
AcDbLine
 10
327.8820759999999
 20
142.4
 30
0.0
 11
327.8820759999999
 21
154.4
 31
0.0
  0
LINE
  5
14A42
330
147AC
100
AcDbEntity
  8
1
  6
Continuous
100
AcDbLine
 10
368.882076
 20
153.9
 30
0.0
 11
368.882076
 21
155.4999999999998
 31
0.0
  0
ARC
  5
14A43
330
147AC
100
AcDbEntity
  8
1
  6
Continuous
100
AcDbCircle
 10
379.8820759999999
 20
147.9
 30
0.0
 40
11.0
100
AcDbArc
 50
30.75150199999999
 51
146.9442689999999
  0
ARC
  5
14A44
330
147AC
100
AcDbEntity
  8
3
  6
DASHED
100
AcDbCircle
 10
379.8820759999999
 20
147.9
 30
0.0
 40
11.0
100
AcDbArc
 50
146.9442689999999
 51
30.75150199999999
  0
LINE
  5
14A45
330
147AC
100
AcDbEntity
  8
4
  6
CENTER
100
AcDbLine
 10
379.8820759999999
 20
138.1995399999998
 30
0.0
 11
379.8820759999999
 21
157.60046
 31
0.0
  0
LINE
  5
14A46
330
147AC
100
AcDbEntity
  8
1
  6
Continuous
100
AcDbLine
 10
390.3820759999999
 20
244.4999999999998
 30
0.0
 11
369.3820759999999
 21
244.4999999999998
 31
0.0
  0
LINE
  5
14A47
330
147AC
100
AcDbEntity
  8
1
  6
Continuous
100
AcDbLine
 10
390.8820759999999
 20
243.5
 30
0.0
 11
368.882076
 21
243.5
 31
0.0
  0
LINE
  5
14A48
330
147AC
100
AcDbEntity
  8
1
  6
Continuous
100
AcDbLine
 10
368.882076
 20
245.9
 30
0.0
 11
368.882076
 21
241.9
 31
0.0
  0
LINE
  5
14A49
330
147AC
100
AcDbEntity
  8
4
  6
CENTER
100
AcDbLine
 10
358.8820759999999
 20
238.703417
 30
0.0
 11
358.8820759999999
 21
246.703417
 31
0.0
  0
LINE
  5
14A4A
330
147AC
100
AcDbEntity
  8
4
  6
CENTER
100
AcDbLine
 10
370.882076
 20
238.703417
 30
0.0
 11
370.882076
 21
246.703417
 31
0.0
  0
ARC
  5
14A4B
330
147AC
100
AcDbEntity
  8
3
  6
DASHED
100
AcDbCircle
 10
365.8820759999999
 20
246.9
 30
0.0
 40
3.0
100
AcDbArc
 50
0.0
 51
90.0
  0
ARC
  5
14A4C
330
147AC
100
AcDbEntity
  8
1
  6
Continuous
100
AcDbCircle
 10
369.3820759999999
 20
245.0
 30
0.0
 40
0.5
100
AcDbArc
 50
180.0
 51
270.0
  0
LINE
  5
14A4D
330
147AC
100
AcDbEntity
  8
3
  6
DASHED
100
AcDbLine
 10
368.882076
 20
246.9
 30
0.0
 11
368.882076
 21
245.9
 31
0.0
  0
LINE
  5
14A4E
330
147AC
100
AcDbEntity
  8
1
  6
Continuous
100
AcDbLine
 10
384.6320759999999
 20
244.0
 30
0.0
 11
384.6320759999999
 21
244.4999999999998
 31
0.0
  0
LINE
  5
14A4F
330
147AC
100
AcDbEntity
  8
1
  6
Continuous
100
AcDbLine
 10
375.132076
 20
244.0
 30
0.0
 11
375.132076
 21
244.4999999999998
 31
0.0
  0
LINE
  5
14A50
330
147AC
100
AcDbEntity
  8
1
  6
Continuous
100
AcDbLine
 10
390.8820759999999
 20
245.9
 30
0.0
 11
390.8820759999999
 21
245.0
 31
0.0
  0
ARC
  5
14A51
330
147AC
100
AcDbEntity
  8
1
  6
Continuous
100
AcDbCircle
 10
390.3820759999999
 20
245.0
 30
0.0
 40
0.5
100
AcDbArc
 50
270.0
 51
0.0
  0
LINE
  5
14A52
330
147AC
100
AcDbEntity
  8
1
  6
Continuous
100
AcDbLine
 10
384.6320759999999
 20
244.0
 30
0.0
 11
384.1320759999999
 21
243.5
 31
0.0
  0
LINE
  5
14A53
330
147AC
100
AcDbEntity
  8
1
  6
Continuous
100
AcDbLine
 10
375.132076
 20
244.0
 30
0.0
 11
375.6320759999999
 21
243.5
 31
0.0
  0
LINE
  5
14A54
330
147AC
100
AcDbEntity
  8
1
  6
Continuous
100
AcDbLine
 10
375.132076
 20
244.0
 30
0.0
 11
384.6320759999999
 21
244.0
 31
0.0
  0
LINE
  5
14A55
330
147AC
100
AcDbEntity
  8
1
  6
Continuous
100
AcDbLine
 10
383.5320759999998
 20
241.1999999999999
 30
0.0
 11
376.2320759999998
 21
241.1999999999999
 31
0.0
  0
LINE
  5
14A56
330
147AC
100
AcDbEntity
  8
1
  6
Continuous
100
AcDbLine
 10
376.2320759999998
 20
241.1999999999999
 30
0.0
 11
376.9320759999998
 21
241.9
 31
0.0
  0
LINE
  5
14A57
330
147AC
100
AcDbEntity
  8
1
  6
Continuous
100
AcDbLine
 10
383.5320759999998
 20
241.1999999999999
 30
0.0
 11
382.832076
 21
241.9
 31
0.0
  0
LINE
  5
14A58
330
147AC
100
AcDbEntity
  8
1
  6
Continuous
100
AcDbLine
 10
390.8820759999999
 20
243.5
 30
0.0
 11
390.8820759999999
 21
241.9
 31
0.0
  0
LINE
  5
14A59
330
147AC
100
AcDbEntity
  8
4
  6
CENTER
100
AcDbLine
 10
379.8820759999999
 20
255.3542069999998
 30
0.0
 11
379.8820759999999
 21
237.4
 31
0.0
  0
LINE
  5
14A5A
330
147AC
100
AcDbEntity
  8
4
  6
CENTER
100
AcDbLine
 10
411.882076
 20
249.187481
 30
0.0
 11
411.882076
 21
257.187481
 31
0.0
  0
LINE
  5
14A5B
330
147AC
100
AcDbEntity
  8
4
  6
CENTER
100
AcDbLine
 10
366.117928
 20
147.9
 30
0.0
 11
393.802443
 21
147.9
 31
0.0
  0
LINE
  5
14A5C
330
147AC
100
AcDbEntity
  8
1
  6
Continuous
100
AcDbLine
 10
368.882076
 20
153.9
 30
0.0
 11
387.8820759999999
 21
153.9
 31
0.0
  0
CIRCLE
  5
14A5D
330
147AC
100
AcDbEntity
  8
1
  6
Continuous
100
AcDbCircle
 10
358.8820759999999
 20
143.9
 30
0.0
 40
3.0
  0
LINE
  5
14A5E
330
147AC
100
AcDbEntity
  8
4
  6
CENTER
100
AcDbLine
 10
358.8820759999999
 20
137.9
 30
0.0
 11
358.8820759999999
 21
149.9
 31
0.0
  0
LINE
  5
14A5F
330
147AC
100
AcDbEntity
  8
4
  6
CENTER
100
AcDbLine
 10
370.882076
 20
139.4
 30
0.0
 11
370.882076
 21
148.3999999999998
 31
0.0
  0
CIRCLE
  5
14A60
330
147AC
100
AcDbEntity
  8
1
  6
Continuous
100
AcDbCircle
 10
370.882076
 20
143.9
 30
0.0
 40
2.0
  0
ARC
  5
14A61
330
147AC
100
AcDbEntity
  8
1
  6
Continuous
100
AcDbCircle
 10
387.8820759999999
 20
136.8999999999997
 30
0.0
 40
3.0
100
AcDbArc
 50
270.0
 51
0.0
  0
ARC
  5
14A62
330
147AC
100
AcDbEntity
  8
1
  6
Continuous
100
AcDbCircle
 10
387.8820759999999
 20
150.9
 30
0.0
 40
3.0
100
AcDbArc
 50
0.0
 51
90.0
  0
LINE
  5
14A63
330
147AC
100
AcDbEntity
  8
1
  6
Continuous
100
AcDbLine
 10
390.8820759999999
 20
136.8999999999997
 30
0.0
 11
390.8820759999999
 21
150.9
 31
0.0
  0
CIRCLE
  5
14A64
330
147AC
100
AcDbEntity
  8
1
  6
Continuous
100
AcDbCircle
 10
379.8820759999999
 20
147.9
 30
0.0
 40
3.649999999999999
  0
CIRCLE
  5
14A65
330
147AC
100
AcDbEntity
  8
1
  6
Continuous
100
AcDbCircle
 10
411.882076
 20
148.3999999999998
 30
0.0
 40
3.0
  0
CIRCLE
  5
14A66
330
147AC
100
AcDbEntity
  8
1
  6
Continuous
100
AcDbCircle
 10
411.882076
 20
148.3999999999998
 30
0.0
 40
4.299999999999998
  0
LINE
  5
14A67
330
147AC
100
AcDbEntity
  8
4
  6
CENTER
100
AcDbLine
 10
411.882076
 20
142.4
 30
0.0
 11
411.882076
 21
154.4
 31
0.0
  0
LINE
  5
14A68
330
147AC
100
AcDbEntity
  8
4
  6
CENTER
100
AcDbLine
 10
495.882076
 20
46.21251899999999
 30
0.0
 11
495.882076
 21
38.212519
 31
0.0
  0
CIRCLE
  5
14A69
330
147AC
100
AcDbEntity
  8
1
  6
Continuous
100
AcDbCircle
 10
495.882076
 20
347.3999999999999
 30
0.0
 40
3.0
  0
LINE
  5
14A6A
330
147AC
100
AcDbEntity
  8
4
  6
CENTER
100
AcDbLine
 10
495.882076
 20
353.3999999999999
 30
0.0
 11
495.882076
 21
341.3999999999999
 31
0.0
  0
LINE
  5
14A6B
330
147AC
100
AcDbEntity
  8
4
  6
CENTER
100
AcDbLine
 10
579.8820759999999
 20
46.21251899999999
 30
0.0
 11
579.8820759999999
 21
38.212519
 31
0.0
  0
LINE
  5
14A6C
330
147AC
100
AcDbEntity
  8
1
  6
Continuous
100
AcDbLine
 10
595.882076
 20
41.5
 30
0.0
 11
595.882076
 21
46.5
 31
0.0
  0
LINE
  5
14A6D
330
147AC
100
AcDbEntity
  8
4
  6
CENTER
100
AcDbLine
 10
545.882076
 20
46.21251899999999
 30
0.0
 11
545.882076
 21
38.212519
 31
0.0
  0
ARC
  5
14A6E
330
147AC
100
AcDbEntity
  8
1
  6
Continuous
100
AcDbCircle
 10
592.8820759999998
 20
46.5
 30
0.0
 40
3.0
100
AcDbArc
 50
0.0
 51
90.0
  0
CIRCLE
  5
14A6F
330
147AC
100
AcDbEntity
  8
1
  6
Continuous
100
AcDbCircle
 10
579.8820759999999
 20
347.3999999999999
 30
0.0
 40
3.0
  0
LINE
  5
14A70
330
147AC
100
AcDbEntity
  8
4
  6
CENTER
100
AcDbLine
 10
545.882076
 20
351.8999999999999
 30
0.0
 11
545.882076
 21
342.8999999999998
 31
0.0
  0
CIRCLE
  5
14A71
330
147AC
100
AcDbEntity
  8
1
  6
Continuous
100
AcDbCircle
 10
545.882076
 20
347.3999999999999
 30
0.0
 40
2.0
  0
LINE
  5
14A72
330
147AC
100
AcDbEntity
  8
1
  6
Continuous
100
AcDbLine
 10
595.882076
 20
360.4999999999998
 30
0.0
 11
595.882076
 21
334.2999999999999
 31
0.0
  0
LINE
  5
14A73
330
147AC
100
AcDbEntity
  8
4
  6
CENTER
100
AcDbLine
 10
579.8820759999999
 20
353.3999999999999
 30
0.0
 11
579.8820759999999
 21
341.3999999999999
 31
0.0
  0
ARC
  5
14A74
330
147AC
100
AcDbEntity
  8
1
  6
Continuous
100
AcDbCircle
 10
652.8641519999998
 20
158.4
 30
0.0
 40
0.5
100
AcDbArc
 50
90.0
 51
180.0
  0
LINE
  5
14A75
330
147AC
100
AcDbEntity
  8
1
  6
Continuous
100
AcDbLine
 10
661.7641519999997
 20
159.9
 30
0.0
 11
661.7641519999997
 21
136.8999999999997
 31
0.0
  0
LINE
  5
14A76
330
147AC
100
AcDbEntity
  8
1
  6
Continuous
100
AcDbLine
 10
660.1641519999998
 20
159.9
 30
0.0
 11
660.1641519999998
 21
136.8999999999997
 31
0.0
  0
ARC
  5
14A77
330
147AC
100
AcDbEntity
  8
1
  6
Continuous
100
AcDbCircle
 10
658.864152
 20
158.4
 30
0.0
 40
0.5
100
AcDbArc
 50
0.0
 51
90.0
  0
LINE
  5
14A78
330
147AC
100
AcDbEntity
  8
4
  6
CENTER
100
AcDbLine
 10
647.12563
 20
147.9
 30
0.0
 11
660.9335029999997
 21
147.9
 31
0.0
  0
LINE
  5
14A79
330
147AC
100
AcDbEntity
  8
4
  6
CENTER
100
AcDbLine
 10
664.3561499999997
 20
142.9
 30
0.0
 11
650.7081389999997
 21
142.9
 31
0.0
  0
LINE
  5
14A7A
330
147AC
100
AcDbEntity
  8
1
  6
Continuous
100
AcDbLine
 10
660.1641519999998
 20
136.8999999999997
 30
0.0
 11
652.8641519999998
 21
136.8999999999997
 31
0.0
  0
LINE
  5
14A7B
330
147AC
100
AcDbEntity
  8
1
  6
Continuous
100
AcDbLine
 10
660.1641519999998
 20
135.3
 30
0.0
 11
653.764152
 21
135.3
 31
0.0
  0
LINE
  5
14A7C
330
147AC
100
AcDbEntity
  8
1
  6
Continuous
100
AcDbLine
 10
658.864152
 20
158.9
 30
0.0
 11
652.8641519999998
 21
158.9
 31
0.0
  0
LINE
  5
14A7D
330
147AC
100
AcDbEntity
  8
1
  6
Continuous
100
AcDbLine
 10
652.6641519999998
 20
131.9
 30
0.0
 11
658.6641519999998
 21
131.9
 31
0.0
  0
LINE
  5
14A7E
330
147AC
100
AcDbEntity
  8
1
  6
Continuous
100
AcDbLine
 10
659.1641519999998
 20
137.0
 30
0.0
 11
659.1641519999998
 21
136.8999999999997
 31
0.0
  0
LINE
  5
14A7F
330
147AC
100
AcDbEntity
  8
1
  6
Continuous
100
AcDbLine
 10
659.364152
 20
158.4
 30
0.0
 11
659.364152
 21
137.4
 31
0.0
  0
ARC
  5
14A80
330
147AC
100
AcDbEntity
  8
1
  6
Continuous
100
AcDbCircle
 10
660.1641519999998
 20
136.8999999999997
 30
0.0
 40
1.6
100
AcDbArc
 50
270.0
 51
0.0
  0
LINE
  5
14A81
330
147AC
100
AcDbEntity
  8
1
  6
Continuous
100
AcDbLine
 10
659.6641519999998
 20
138.15
 30
0.0
 11
659.6641519999998
 21
147.65
 31
0.0
  0
LINE
  5
14A82
330
147AC
100
AcDbEntity
  8
1
  6
Continuous
100
AcDbLine
 10
659.6641519999998
 20
138.15
 30
0.0
 11
659.364152
 21
138.15
 31
0.0
  0
LINE
  5
14A83
330
147AC
100
AcDbEntity
  8
1
  6
Continuous
100
AcDbLine
 10
659.6641519999998
 20
138.15
 30
0.0
 11
660.1641519999998
 21
138.65
 31
0.0
  0
LINE
  5
14A84
330
147AC
100
AcDbEntity
  8
1
  6
Continuous
100
AcDbLine
 10
659.6641519999998
 20
147.65
 30
0.0
 11
659.364152
 21
147.65
 31
0.0
  0
LINE
  5
14A85
330
147AC
100
AcDbEntity
  8
1
  6
Continuous
100
AcDbLine
 10
659.6641519999998
 20
147.65
 30
0.0
 11
660.1641519999998
 21
147.1499999999998
 31
0.0
  0
LINE
  5
14A86
330
147AC
100
AcDbEntity
  8
1
  6
Continuous
100
AcDbLine
 10
662.4641519999999
 20
146.55
 30
0.0
 11
661.7641519999997
 21
145.8499999999999
 31
0.0
  0
LINE
  5
14A87
330
147AC
100
AcDbEntity
  8
1
  6
Continuous
100
AcDbLine
 10
662.4641519999999
 20
139.25
 30
0.0
 11
661.7641519999997
 21
139.9499999999999
 31
0.0
  0
LINE
  5
14A88
330
147AC
100
AcDbEntity
  8
1
  6
Continuous
100
AcDbLine
 10
662.4641519999999
 20
146.55
 30
0.0
 11
662.4641519999999
 21
139.25
 31
0.0
  0
LINE
  5
14A89
330
147AC
100
AcDbEntity
  8
4
  6
CENTER
100
AcDbLine
 10
657.2770189999999
 20
148.3999999999998
 30
0.0
 11
664.1984219999999
 21
148.3999999999998
 31
0.0
  0
ARC
  5
14A8A
330
147AC
100
AcDbEntity
  8
1
  6
Continuous
100
AcDbCircle
 10
658.864152
 20
137.4
 30
0.0
 40
0.5
100
AcDbArc
 50
270.0
 51
0.0
  0
ARC
  5
14A8B
330
147AC
100
AcDbEntity
  8
1
  6
Continuous
100
AcDbCircle
 10
658.6641519999998
 20
132.4
 30
0.0
 40
0.5
100
AcDbArc
 50
270.0
 51
0.0
  0
LINE
  5
14A8C
330
147AC
100
AcDbEntity
  8
1
  6
Continuous
100
AcDbLine
 10
659.1641519999998
 20
135.3
 30
0.0
 11
659.1641519999998
 21
132.4
 31
0.0
  0
LINE
  5
14A8D
330
147AC
100
AcDbEntity
  8
1
  6
Continuous
100
AcDbLine
 10
652.1641519999998
 20
153.3999999999998
 30
0.0
 11
652.1641519999998
 21
152.65
 31
0.0
  0
LINE
  5
14A8E
330
147AC
100
AcDbEntity
  8
1
  6
Continuous
100
AcDbLine
 10
651.364152
 20
153.9
 30
0.0
 11
651.364152
 21
133.9
 31
0.0
  0
LINE
  5
14A8F
330
147AC
100
AcDbEntity
  8
1
  6
Continuous
100
AcDbLine
 10
649.764152
 20
153.9
 30
0.0
 11
649.764152
 21
133.9
 31
0.0
  0
LINE
  5
14A90
330
147AC
100
AcDbEntity
  8
1
  6
Continuous
100
AcDbLine
 10
649.0641519999997
 20
151.55
 30
0.0
 11
649.0641519999997
 21
144.25
 31
0.0
  0
LINE
  5
14A91
330
147AC
100
AcDbEntity
  8
1
  6
Continuous
100
AcDbLine
 10
651.864152
 20
143.1499999999998
 30
0.0
 11
651.864152
 21
152.65
 31
0.0
  0
LINE
  5
14A92
330
147AC
100
AcDbEntity
  8
1
  6
Continuous
100
AcDbLine
 10
651.364152
 20
152.15
 30
0.0
 11
651.364152
 21
143.65
 31
0.0
  0
LINE
  5
14A93
330
147AC
100
AcDbEntity
  8
4
  6
CENTER
100
AcDbLine
 10
647.12563
 20
143.9
 30
0.0
 11
654.0470330000001
 21
143.9
 31
0.0
  0
LINE
  5
14A94
330
147AC
100
AcDbEntity
  8
1
  6
Continuous
100
AcDbLine
 10
649.764152
 20
133.9
 30
0.0
 11
651.364152
 21
133.9
 31
0.0
  0
LINE
  5
14A95
330
147AC
100
AcDbEntity
  8
1
  6
Continuous
100
AcDbLine
 10
649.0641519999997
 20
144.25
 30
0.0
 11
649.764152
 21
144.95
 31
0.0
  0
LINE
  5
14A96
330
147AC
100
AcDbEntity
  8
1
  6
Continuous
100
AcDbLine
 10
651.864152
 20
143.1499999999998
 30
0.0
 11
651.364152
 21
143.65
 31
0.0
  0
LINE
  5
14A97
330
147AC
100
AcDbEntity
  8
1
  6
Continuous
100
AcDbLine
 10
651.864152
 20
143.1499999999998
 30
0.0
 11
652.3641519999999
 21
143.1499999999998
 31
0.0
  0
LINE
  5
14A98
330
147AC
100
AcDbEntity
  8
1
  6
Continuous
100
AcDbLine
 10
649.764152
 20
153.9
 30
0.0
 11
652.3641519999999
 21
153.9
 31
0.0
  0
LINE
  5
14A99
330
147AC
100
AcDbEntity
  8
1
  6
Continuous
100
AcDbLine
 10
651.364152
 20
155.4999999999998
 30
0.0
 11
652.3641519999999
 21
155.4999999999998
 31
0.0
  0
ARC
  5
14A9A
330
147AC
100
AcDbEntity
  8
1
  6
Continuous
100
AcDbCircle
 10
652.6641519999998
 20
153.3999999999998
 30
0.0
 40
0.5
100
AcDbArc
 50
126.869898
 51
180.0
  0
ARC
  5
14A9B
330
147AC
100
AcDbEntity
  8
1
  6
Continuous
100
AcDbCircle
 10
651.364152
 20
153.9
 30
0.0
 40
1.6
100
AcDbArc
 50
90.0
 51
180.0
  0
LINE
  5
14A9C
330
147AC
100
AcDbEntity
  8
1
  6
Continuous
100
AcDbLine
 10
649.0641519999997
 20
151.55
 30
0.0
 11
649.764152
 21
150.8499999999999
 31
0.0
  0
LINE
  5
14A9D
330
147AC
100
AcDbEntity
  8
1
  6
Continuous
100
AcDbLine
 10
651.864152
 20
152.65
 30
0.0
 11
651.364152
 21
152.15
 31
0.0
  0
LINE
  5
14A9E
330
147AC
100
AcDbEntity
  8
1
  6
Continuous
100
AcDbLine
 10
652.3641519999999
 20
158.4
 30
0.0
 11
652.3641519999999
 21
137.4
 31
0.0
  0
LINE
  5
14A9F
330
147AC
100
AcDbEntity
  8
1
  6
Continuous
100
AcDbLine
 10
651.864152
 20
152.65
 30
0.0
 11
652.3641519999999
 21
152.65
 31
0.0
  0
LINE
  5
14AA0
330
147AC
100
AcDbEntity
  8
1
  6
Continuous
100
AcDbLine
 10
653.764152
 20
135.3
 30
0.0
 11
653.764152
 21
136.8999999999997
 31
0.0
  0
ARC
  5
14AA1
330
147AC
100
AcDbEntity
  8
1
  6
Continuous
100
AcDbCircle
 10
652.8641519999998
 20
137.4
 30
0.0
 40
0.5
100
AcDbArc
 50
180.0
 51
270.0
  0
ARC
  5
14AA2
330
147AC
100
AcDbEntity
  8
1
  6
Continuous
100
AcDbCircle
 10
652.6641519999998
 20
132.4
 30
0.0
 40
0.5
100
AcDbArc
 50
180.0
 51
270.0
  0
LINE
  5
14AA3
330
147AC
100
AcDbEntity
  8
1
  6
Continuous
100
AcDbLine
 10
652.1641519999998
 20
143.1499999999998
 30
0.0
 11
652.1641519999998
 21
132.4
 31
0.0
  0
LINE
  5
14AA4
330
147AC
100
AcDbEntity
  8
1
  6
Continuous
100
AcDbLine
 10
660.1641519999998
 20
161.5
 30
0.0
 11
653.764152
 21
161.5
 31
0.0
  0
LINE
  5
14AA5
330
147AC
100
AcDbEntity
  8
1
  6
Continuous
100
AcDbLine
 10
660.1641519999998
 20
159.9
 30
0.0
 11
653.764152
 21
159.9
 31
0.0
  0
ARC
  5
14AA6
330
147AC
100
AcDbEntity
  8
1
  6
Continuous
100
AcDbCircle
 10
660.1641519999998
 20
159.9
 30
0.0
 40
1.6
100
AcDbArc
 50
0.0
 51
90.0
  0
LINE
  5
14AA7
330
147AC
100
AcDbEntity
  8
1
  6
Continuous
100
AcDbLine
 10
653.764152
 20
161.5
 30
0.0
 11
653.764152
 21
159.9
 31
0.0
  0
LINE
  5
14AA8
330
147AC
100
AcDbEntity
  8
4
  6
CENTER
100
AcDbLine
 10
495.882076
 20
249.187481
 30
0.0
 11
495.882076
 21
257.187481
 31
0.0
  0
CIRCLE
  5
14AA9
330
147AC
100
AcDbEntity
  8
1
  6
Continuous
100
AcDbCircle
 10
495.882076
 20
148.3999999999998
 30
0.0
 40
3.0
  0
CIRCLE
  5
14AAA
330
147AC
100
AcDbEntity
  8
1
  6
Continuous
100
AcDbCircle
 10
495.882076
 20
148.3999999999998
 30
0.0
 40
4.299999999999998
  0
LINE
  5
14AAB
330
147AC
100
AcDbEntity
  8
4
  6
CENTER
100
AcDbLine
 10
495.882076
 20
142.4
 30
0.0
 11
495.882076
 21
154.4
 31
0.0
  0
LINE
  5
14AAC
330
147AC
100
AcDbEntity
  8
1
  6
Continuous
100
AcDbLine
 10
595.882076
 20
135.3
 30
0.0
 11
595.882076
 21
161.5
 31
0.0
  0
LINE
  5
14AAD
330
147AC
100
AcDbEntity
  8
4
  6
CENTER
100
AcDbLine
 10
545.882076
 20
249.187481
 30
0.0
 11
545.882076
 21
257.187481
 31
0.0
  0
ARC
  5
14AAE
330
147AC
100
AcDbEntity
  8
1
  6
Continuous
100
AcDbCircle
 10
592.8820759999998
 20
248.9
 30
0.0
 40
3.0
100
AcDbArc
 50
270.0
 51
0.0
  0
LINE
  5
14AAF
330
147AC
100
AcDbEntity
  8
1
  6
Continuous
100
AcDbLine
 10
595.882076
 20
253.9
 30
0.0
 11
595.882076
 21
248.9
 31
0.0
  0
LINE
  5
14AB0
330
147AC
100
AcDbEntity
  8
4
  6
CENTER
100
AcDbLine
 10
579.8820759999999
 20
249.187481
 30
0.0
 11
579.8820759999999
 21
257.187481
 31
0.0
  0
CIRCLE
  5
14AB1
330
147AC
100
AcDbEntity
  8
1
  6
Continuous
100
AcDbCircle
 10
579.8820759999999
 20
148.3999999999998
 30
0.0
 40
3.0
  0
CIRCLE
  5
14AB2
330
147AC
100
AcDbEntity
  8
1
  6
Continuous
100
AcDbCircle
 10
579.8820759999999
 20
148.3999999999998
 30
0.0
 40
4.299999999999998
  0
CIRCLE
  5
14AB3
330
147AC
100
AcDbEntity
  8
1
  6
Continuous
100
AcDbCircle
 10
545.882076
 20
148.3999999999998
 30
0.0
 40
2.0
  0
LINE
  5
14AB4
330
147AC
100
AcDbEntity
  8
4
  6
CENTER
100
AcDbLine
 10
545.882076
 20
143.9
 30
0.0
 11
545.882076
 21
152.9
 31
0.0
  0
LINE
  5
14AB5
330
147AC
100
AcDbEntity
  8
4
  6
CENTER
100
AcDbLine
 10
579.8820759999999
 20
142.4
 30
0.0
 11
579.8820759999999
 21
154.4
 31
0.0
  0
LINE
  5
14AB6
330
147AC
100
AcDbEntity
  8
4
  6
CENTER
100
AcDbLine
 10
316.882076
 20
565.203026
 30
0.0
 11
316.882076
 21
573.867742
 31
0.0
  0
LINE
  5
14AB7
330
147AC
100
AcDbEntity
  8
5
  6
PHANTOM
100
AcDbLine
 10
309.8820759999999
 20
573.4498160000002
 30
0.0
 11
323.8820759999999
 21
573.4498160000002
 31
0.0
  0
LINE
  5
14AB8
330
147AC
100
AcDbEntity
  8
5
  6
PHANTOM
100
AcDbLine
 10
300.5575209999999
 20
551.849816
 30
0.0
 11
313.206631
 21
551.849816
 31
0.0
  0
LINE
  5
14AB9
330
147AC
100
AcDbEntity
  8
5
  6
PHANTOM
100
AcDbLine
 10
313.176194
 20
571.849816
 30
0.0
 11
320.587958
 21
571.849816
 31
0.0
  0
LINE
  5
14ABA
330
147AC
100
AcDbEntity
  8
5
  6
PHANTOM
100
AcDbLine
 10
295.882076
 20
554.849816
 30
0.0
 11
295.882076
 21
557.849816
 31
0.0
  0
ARC
  5
14ABB
330
147AC
100
AcDbEntity
  8
5
  6
PHANTOM
100
AcDbCircle
 10
298.8820759999999
 20
554.849816
 30
0.0
 40
3.0
100
AcDbArc
 50
180.0
 51
270.0
  0
CIRCLE
  5
14ABC
330
147AC
100
AcDbEntity
  8
5
  6
PHANTOM
100
AcDbCircle
 10
311.8820759999999
 20
561.849816
 30
0.0
 40
3.0
  0
LINE
  5
14ABD
330
147AC
100
AcDbEntity
  8
4
  6
CENTER
100
AcDbLine
 10
311.8820759999999
 20
555.849816
 30
0.0
 11
311.8820759999999
 21
567.849816
 31
0.0
  0
CIRCLE
  5
14ABE
330
147AC
100
AcDbEntity
  8
5
  6
PHANTOM
100
AcDbCircle
 10
311.8820759999999
 20
561.849816
 30
0.0
 40
4.299999999999998
  0
CIRCLE
  5
14ABF
330
147AC
100
AcDbEntity
  8
5
  6
PHANTOM
100
AcDbCircle
 10
345.882076
 20
561.849816
 30
0.0
 40
2.0
  0
LINE
  5
14AC0
330
147AC
100
AcDbEntity
  8
4
  6
CENTER
100
AcDbLine
 10
345.882076
 20
565.849816
 30
0.0
 11
345.882076
 21
557.849816
 31
0.0
  0
CIRCLE
  5
14AC1
330
147AC
100
AcDbEntity
  8
5
  6
PHANTOM
100
AcDbCircle
 10
395.882076
 20
561.849816
 30
0.0
 40
3.0
  0
LINE
  5
14AC2
330
147AC
100
AcDbEntity
  8
4
  6
CENTER
100
AcDbLine
 10
395.882076
 20
555.849816
 30
0.0
 11
395.882076
 21
567.849816
 31
0.0
  0
CIRCLE
  5
14AC3
330
147AC
100
AcDbEntity
  8
5
  6
PHANTOM
100
AcDbCircle
 10
395.882076
 20
561.849816
 30
0.0
 40
4.299999999999998
  0
CIRCLE
  5
14AC4
330
147AC
100
AcDbEntity
  8
5
  6
PHANTOM
100
AcDbCircle
 10
479.8820759999999
 20
561.849816
 30
0.0
 40
3.0
  0
CIRCLE
  5
14AC5
330
147AC
100
AcDbEntity
  8
5
  6
PHANTOM
100
AcDbCircle
 10
479.8820759999999
 20
561.849816
 30
0.0
 40
4.299999999999998
  0
LINE
  5
14AC6
330
147AC
100
AcDbEntity
  8
4
  6
CENTER
100
AcDbLine
 10
479.8820759999999
 20
555.849816
 30
0.0
 11
479.8820759999999
 21
567.849816
 31
0.0
  0
LINE
  5
14AC7
330
147AC
100
AcDbEntity
  8
5
  6
PHANTOM
100
AcDbLine
 10
528.882076
 20
573.4498160000002
 30
0.0
 11
573.882076
 21
573.4498160000002
 31
0.0
  0
LINE
  5
14AC8
330
147AC
100
AcDbEntity
  8
5
  6
PHANTOM
100
AcDbLine
 10
528.882076
 20
571.849816
 30
0.0
 11
575.6625320000003
 21
571.849816
 31
0.0
  0
LINE
  5
14AC9
330
147AC
100
AcDbEntity
  8
5
  6
PHANTOM
100
AcDbLine
 10
521.8820759999998
 20
568.4498160000003
 30
0.0
 11
528.882076
 21
571.849816
 31
0.0
  0
LINE
  5
14ACA
330
147AC
100
AcDbEntity
  8
5
  6
PHANTOM
100
AcDbLine
 10
521.8820759999998
 20
570.0498159999997
 30
0.0
 11
528.882076
 21
573.4498160000002
 31
0.0
  0
LINE
  5
14ACB
330
147AC
100
AcDbEntity
  8
5
  6
PHANTOM
100
AcDbLine
 10
514.8820759999998
 20
571.4498160000001
 30
0.0
 11
515.705606
 21
571.4498160000001
 31
0.0
  0
LINE
  5
14ACC
330
147AC
100
AcDbEntity
  8
5
  6
PHANTOM
100
AcDbLine
 10
514.8820759999998
 20
571.849816
 30
0.0
 11
514.8820759999998
 21
571.4498160000001
 31
0.0
  0
LINE
  5
14ACD
330
147AC
100
AcDbEntity
  8
5
  6
PHANTOM
100
AcDbLine
 10
521.8820759999998
 20
568.4498160000003
 30
0.0
 11
514.8820759999998
 21
571.849816
 31
0.0
  0
LINE
  5
14ACE
330
147AC
100
AcDbEntity
  8
5
  6
PHANTOM
100
AcDbLine
 10
521.8820759999998
 20
570.0498159999997
 30
0.0
 11
514.8820759999998
 21
573.4498160000002
 31
0.0
  0
LINE
  5
14ACF
330
147AC
100
AcDbEntity
  8
5
  6
PHANTOM
100
AcDbLine
 10
518.999723
 20
571.4498160000001
 30
0.0
 11
524.7644289999998
 21
571.4498160000001
 31
0.0
  0
LINE
  5
14AD0
330
147AC
100
AcDbEntity
  8
5
  6
PHANTOM
100
AcDbLine
 10
528.882076
 20
571.849816
 30
0.0
 11
528.882076
 21
571.4498160000001
 31
0.0
  0
LINE
  5
14AD1
330
147AC
100
AcDbEntity
  8
5
  6
PHANTOM
100
AcDbLine
 10
528.058547
 20
571.4498160000001
 30
0.0
 11
528.882076
 21
571.4498160000001
 31
0.0
  0
LINE
  5
14AD2
330
147AC
100
AcDbEntity
  8
4
  6
CENTER
100
AcDbLine
 10
584.8820759999997
 20
551.849816
 30
0.0
 11
584.8820759999997
 21
579.849816
 31
0.0
  0
CIRCLE
  5
14AD3
330
147AC
100
AcDbEntity
  8
5
  6
PHANTOM
100
AcDbCircle
 10
584.8820759999997
 20
565.849816
 30
0.0
 40
11.0
  0
LINE
  5
14AD4
330
147AC
100
AcDbEntity
  8
4
  6
CENTER
100
AcDbLine
 10
598.78497
 20
565.849816
 30
0.0
 11
570.78497
 21
565.849816
 31
0.0
  0
LINE
  5
14AD5
330
147AC
100
AcDbEntity
  8
4
  6
CENTER
100
AcDbLine
 10
575.8820759999998
 20
566.349816
 30
0.0
 11
575.8820759999998
 21
557.349816
 31
0.0
  0
LINE
  5
14AD6
330
147AC
100
AcDbEntity
  8
5
  6
PHANTOM
100
AcDbLine
 10
573.882076
 20
571.849816
 30
0.0
 11
573.882076
 21
573.4498160000002
 31
0.0
  0
LINE
  5
14AD7
330
147AC
100
AcDbEntity
  8
4
  6
CENTER
100
AcDbLine
 10
563.8820759999997
 20
567.849816
 30
0.0
 11
563.8820759999997
 21
555.849816
 31
0.0
  0
ARC
  5
14AD8
330
147AC
100
AcDbEntity
  8
5
  6
PHANTOM
100
AcDbCircle
 10
592.8820759999998
 20
568.849816
 30
0.0
 40
3.0
100
AcDbArc
 50
0.0
 51
61.024143
  0
ARC
  5
14AD9
330
147AC
100
AcDbEntity
  8
5
  6
PHANTOM
100
AcDbCircle
 10
592.8820759999998
 20
554.849816
 30
0.0
 40
3.0
100
AcDbArc
 50
270.0
 51
0.0
  0
CIRCLE
  5
14ADA
330
147AC
100
AcDbEntity
  8
5
  6
PHANTOM
100
AcDbCircle
 10
563.8820759999997
 20
561.849816
 30
0.0
 40
3.0
  0
CIRCLE
  5
14ADB
330
147AC
100
AcDbEntity
  8
5
  6
PHANTOM
100
AcDbCircle
 10
563.8820759999997
 20
561.849816
 30
0.0
 40
4.299999999999998
  0
ARC
  5
14ADC
330
147AC
100
AcDbEntity
  8
5
  6
PHANTOM
100
AcDbCircle
 10
575.8820759999998
 20
561.849816
 30
0.0
 40
2.0
100
AcDbArc
 50
144.471448
 51
263.45353
  0
LINE
  5
14ADD
330
147AC
100
AcDbEntity
  8
5
  6
PHANTOM
100
AcDbLine
 10
387.8820759999999
 20
551.849816
 30
0.0
 11
592.8820759999998
 21
551.849816
 31
0.0
  0
LINE
  5
14ADE
330
147AC
100
AcDbEntity
  8
5
  6
PHANTOM
100
AcDbLine
 10
368.882076
 20
573.4498160000002
 30
0.0
 11
514.8820759999998
 21
573.4498160000002
 31
0.0
  0
LINE
  5
14ADF
330
147AC
100
AcDbEntity
  8
5
  6
PHANTOM
100
AcDbLine
 10
370.662532
 20
571.849816
 30
0.0
 11
514.8820759999998
 21
571.849816
 31
0.0
  0
LINE
  5
14AE0
330
147AC
100
AcDbEntity
  8
5
  6
PHANTOM
100
AcDbLine
 10
309.8820759999999
 20
155.4999999999998
 30
0.0
 11
323.8820759999999
 21
155.4999999999998
 31
0.0
  0
LINE
  5
14AE1
330
147AC
100
AcDbEntity
  8
5
  6
PHANTOM
100
AcDbLine
 10
387.8820759999999
 20
133.9
 30
0.0
 11
592.8820759999998
 21
133.9
 31
0.0
  0
ARC
  5
14AE2
330
147AC
100
AcDbEntity
  8
5
  6
PHANTOM
100
AcDbCircle
 10
298.8820759999999
 20
136.8999999999997
 30
0.0
 40
3.0
100
AcDbArc
 50
180.0
 51
270.0
  0
LINE
  5
14AE3
330
147AC
100
AcDbEntity
  8
4
  6
CENTER
100
AcDbLine
 10
311.8820759999999
 20
137.9
 30
0.0
 11
311.8820759999999
 21
149.9
 31
0.0
  0
CIRCLE
  5
14AE4
330
147AC
100
AcDbEntity
  8
5
  6
PHANTOM
100
AcDbCircle
 10
311.8820759999999
 20
143.9
 30
0.0
 40
3.0
  0
LINE
  5
14AE5
330
147AC
100
AcDbEntity
  8
4
  6
CENTER
100
AcDbLine
 10
345.882076
 20
147.9
 30
0.0
 11
345.882076
 21
139.9
 31
0.0
  0
CIRCLE
  5
14AE6
330
147AC
100
AcDbEntity
  8
5
  6
PHANTOM
100
AcDbCircle
 10
345.882076
 20
143.9
 30
0.0
 40
2.0
  0
CIRCLE
  5
14AE7
330
147AC
100
AcDbEntity
  8
5
  6
PHANTOM
100
AcDbCircle
 10
395.882076
 20
143.9
 30
0.0
 40
3.0
  0
LINE
  5
14AE8
330
147AC
100
AcDbEntity
  8
4
  6
CENTER
100
AcDbLine
 10
395.882076
 20
137.9
 30
0.0
 11
395.882076
 21
149.9
 31
0.0
  0
ARC
  5
14AE9
330
147AC
100
AcDbEntity
  8
5
  6
PHANTOM
100
AcDbCircle
 10
592.8820759999998
 20
136.8999999999997
 30
0.0
 40
3.0
100
AcDbArc
 50
270.0
 51
0.0
  0
CIRCLE
  5
14AEA
330
147AC
100
AcDbEntity
  8
5
  6
PHANTOM
100
AcDbCircle
 10
479.8820759999999
 20
143.9
 30
0.0
 40
3.0
  0
LINE
  5
14AEB
330
147AC
100
AcDbEntity
  8
4
  6
CENTER
100
AcDbLine
 10
479.8820759999999
 20
137.9
 30
0.0
 11
479.8820759999999
 21
149.9
 31
0.0
  0
LINE
  5
14AEC
330
147AC
100
AcDbEntity
  8
5
  6
PHANTOM
100
AcDbLine
 10
528.882076
 20
155.4999999999998
 30
0.0
 11
573.882076
 21
155.4999999999998
 31
0.0
  0
LINE
  5
14AED
330
147AC
100
AcDbEntity
  8
5
  6
PHANTOM
100
AcDbLine
 10
524.7644289999998
 20
153.5
 30
0.0
 11
528.882076
 21
155.4999999999998
 31
0.0
  0
LINE
  5
14AEE
330
147AC
100
AcDbEntity
  8
5
  6
PHANTOM
100
AcDbLine
 10
514.8820759999998
 20
153.5
 30
0.0
 11
528.882076
 21
153.5
 31
0.0
  0
LINE
  5
14AEF
330
147AC
100
AcDbEntity
  8
5
  6
PHANTOM
100
AcDbLine
 10
518.999723
 20
153.5
 30
0.0
 11
514.8820759999998
 21
155.4999999999998
 31
0.0
  0
LINE
  5
14AF0
330
147AC
100
AcDbEntity
  8
5
  6
PHANTOM
100
AcDbLine
 10
514.8820759999998
 20
155.4999999999998
 30
0.0
 11
514.8820759999998
 21
153.5
 31
0.0
  0
LINE
  5
14AF1
330
147AC
100
AcDbEntity
  8
5
  6
PHANTOM
100
AcDbLine
 10
515.705606
 20
153.5
 30
0.0
 11
514.8820759999998
 21
153.9
 31
0.0
  0
LINE
  5
14AF2
330
147AC
100
AcDbEntity
  8
5
  6
PHANTOM
100
AcDbLine
 10
528.882076
 20
155.4999999999998
 30
0.0
 11
528.882076
 21
153.5
 31
0.0
  0
LINE
  5
14AF3
330
147AC
100
AcDbEntity
  8
5
  6
PHANTOM
100
AcDbLine
 10
528.058547
 20
153.5
 30
0.0
 11
528.882076
 21
153.9
 31
0.0
  0
ARC
  5
14AF4
330
147AC
100
AcDbEntity
  8
5
  6
PHANTOM
100
AcDbCircle
 10
584.8820759999997
 20
147.9
 30
0.0
 40
11.0
100
AcDbArc
 50
30.75150199999999
 51
146.9442689999999
  0
ARC
  5
14AF5
330
147AC
100
AcDbEntity
  8
5
  6
PHANTOM
100
AcDbCircle
 10
584.8820759999997
 20
147.9
 30
0.0
 40
11.0
100
AcDbArc
 50
146.9442689999999
 51
30.75150199999999
  0
LINE
  5
14AF6
330
147AC
100
AcDbEntity
  8
4
  6
CENTER
100
AcDbLine
 10
571.117928
 20
147.9
 30
0.0
 11
598.8024429999998
 21
147.9
 31
0.0
  0
LINE
  5
14AF7
330
147AC
100
AcDbEntity
  8
5
  6
PHANTOM
100
AcDbLine
 10
573.882076
 20
153.9
 30
0.0
 11
592.8820759999998
 21
153.9
 31
0.0
  0
CIRCLE
  5
14AF8
330
147AC
100
AcDbEntity
  8
5
  6
PHANTOM
100
AcDbCircle
 10
575.8820759999998
 20
143.9
 30
0.0
 40
2.0
  0
LINE
  5
14AF9
330
147AC
100
AcDbEntity
  8
4
  6
CENTER
100
AcDbLine
 10
575.8820759999998
 20
139.4
 30
0.0
 11
575.8820759999998
 21
148.3999999999998
 31
0.0
  0
LINE
  5
14AFA
330
147AC
100
AcDbEntity
  8
5
  6
PHANTOM
100
AcDbLine
 10
573.882076
 20
153.9
 30
0.0
 11
573.882076
 21
155.4999999999998
 31
0.0
  0
CIRCLE
  5
14AFB
330
147AC
100
AcDbEntity
  8
5
  6
PHANTOM
100
AcDbCircle
 10
563.8820759999997
 20
143.9
 30
0.0
 40
3.0
  0
LINE
  5
14AFC
330
147AC
100
AcDbEntity
  8
4
  6
CENTER
100
AcDbLine
 10
563.8820759999997
 20
137.9
 30
0.0
 11
563.8820759999997
 21
149.9
 31
0.0
  0
LINE
  5
14AFD
330
147AC
100
AcDbEntity
  8
4
  6
CENTER
100
AcDbLine
 10
584.8820759999997
 20
138.1995399999998
 30
0.0
 11
584.8820759999997
 21
157.60046
 31
0.0
  0
ARC
  5
14AFE
330
147AC
100
AcDbEntity
  8
5
  6
PHANTOM
100
AcDbCircle
 10
592.8820759999998
 20
150.9
 30
0.0
 40
3.0
100
AcDbArc
 50
0.0
 51
90.0
  0
CIRCLE
  5
14AFF
330
147AC
100
AcDbEntity
  8
5
  6
PHANTOM
100
AcDbCircle
 10
584.8820759999997
 20
147.9
 30
0.0
 40
3.649999999999999
  0
LINE
  5
14B00
330
147AC
100
AcDbEntity
  8
5
  6
PHANTOM
100
AcDbLine
 10
368.882076
 20
155.4999999999998
 30
0.0
 11
514.8820759999998
 21
155.4999999999998
 31
0.0
  0
ENDSEC
  0
SECTION
  2
OBJECTS
  0
DICTIONARY
  5
1479A
330
0
100
AcDbDictionary
281
     1
  3
ACAD_CIP_PREVIOUS_PRODUCT_INFO
350
14B60
  3
ACAD_COLOR
350
14B42
  3
ACAD_DETAILVIEWSTYLE
350
14B5B
  3
ACAD_GROUP
350
1479B
  3
ACAD_LAYOUT
350
147A7
  3
ACAD_MATERIAL
350
14B10
  3
ACAD_MLEADERSTYLE
350
14B57
  3
ACAD_MLINESTYLE
350
147A4
  3
ACAD_PLOTSETTINGS
350
147A6
  3
ACAD_PLOTSTYLENAME
350
14B0E
  3
ACAD_SCALELIST
350
14B45
  3
ACAD_SECTIONVIEWSTYLE
350
14B59
  3
ACAD_TABLESTYLE
350
14B43
  3
ACAD_VISUALSTYLE
350
14B29
  3
ACDB_RECOMPOSE_DATA
350
14B7E
  3
AcDbVariableDictionary
350
14B71
  3
DWGPROPS
350
14B7F
  0
DICTIONARY
  5
14B61
330
1479E
100
AcDbDictionary
280
     1
281
     1
  3
ADSK_XREC_LAYER_RECONCILED
360
14B62
  0
DICTIONARY
  5
14B63
330
147B4
100
AcDbDictionary
280
     1
281
     1
  3
ADSK_XREC_LAYER_RECONCILED
360
14B64
  0
DICTIONARY
  5
14B65
330
147B5
100
AcDbDictionary
280
     1
281
     1
  3
ADSK_XREC_LAYER_RECONCILED
360
14B66
  0
DICTIONARY
  5
14B67
330
147B6
100
AcDbDictionary
280
     1
281
     1
  3
ADSK_XREC_LAYER_RECONCILED
360
14B68
  0
DICTIONARY
  5
14B69
330
147B7
100
AcDbDictionary
280
     1
281
     1
  3
ADSK_XREC_LAYER_RECONCILED
360
14B6A
  0
DICTIONARY
  5
14B6B
330
147B8
100
AcDbDictionary
280
     1
281
     1
  3
ADSK_XREC_LAYER_RECONCILED
360
14B6C
  0
DICTIONARY
  5
14B6D
330
147B9
100
AcDbDictionary
280
     1
281
     1
  3
ADSK_XREC_LAYER_RECONCILED
360
14B6E
  0
DICTIONARY
  5
14B6F
330
147BA
100
AcDbDictionary
280
     1
281
     1
  3
ADSK_XREC_LAYER_RECONCILED
360
14B70
  0
DICTIONARY
  5
14B09
330
147AC
100
AcDbDictionary
281
     1
  3
ACAD_LAYOUTSELFREF
350
14B0A
  0
DICTIONARY
  5
14B07
330
147A8
100
AcDbDictionary
281
     1
  3
ACAD_LAYOUTSELFREF
350
14B08
  0
XRECORD
  5
14B60
102
{ACAD_REACTORS
330
1479A
102
}
330
1479A
100
AcDbXrecord
280
     1
300
ACDLT
300
2014
300
ACDLT_F_S
  0
DICTIONARY
  5
14B42
102
{ACAD_REACTORS
330
1479A
102
}
330
1479A
100
AcDbDictionary
281
     1
  0
DICTIONARY
  5
14B5B
102
{ACAD_REACTORS
330
1479A
102
}
330
1479A
100
AcDbDictionary
281
     1
  3
Imperial24
350
14B5C
  0
DICTIONARY
  5
1479B
102
{ACAD_REACTORS
330
1479A
102
}
330
1479A
100
AcDbDictionary
281
     1
  0
DICTIONARY
  5
147A7
102
{ACAD_REACTORS
330
1479A
102
}
330
1479A
100
AcDbDictionary
281
     1
  3
Model
350
14B5D
  3
レイアウト1
350
14B5E
  0
DICTIONARY
  5
14B10
102
{ACAD_REACTORS
330
1479A
102
}
330
1479A
100
AcDbDictionary
281
     1
  3
ByBlock
350
14B19
  3
ByLayer
350
14B11
  3
Global
350
14B21
  0
DICTIONARY
  5
14B57
102
{ACAD_REACTORS
330
1479A
102
}
330
1479A
100
AcDbDictionary
281
     1
  3
Standard
350
14B58
  0
DICTIONARY
  5
147A4
102
{ACAD_REACTORS
330
1479A
102
}
330
1479A
100
AcDbDictionary
281
     1
  3
STANDARD
350
147A5
  0
DICTIONARY
  5
147A6
102
{ACAD_REACTORS
330
1479A
102
}
330
1479A
100
AcDbDictionary
281
     1
  0
ACDBDICTIONARYWDFLT
  5
14B0E
102
{ACAD_REACTORS
330
1479A
102
}
330
1479A
100
AcDbDictionary
281
     1
  3
Normal
350
14B0F
100
AcDbDictionaryWithDefault
340
14B0F
  0
DICTIONARY
  5
14B45
102
{ACAD_REACTORS
330
1479A
102
}
330
1479A
100
AcDbDictionary
281
     1
  3
A0
350
14B46
  3
A1
350
14B47
  3
A2
350
14B48
  3
A3
350
14B49
  3
A4
350
14B4A
  3
A5
350
14B4B
  3
A6
350
14B4C
  3
A7
350
14B4D
  3
A8
350
14B4E
  3
A9
350
14B4F
  3
B0
350
14B50
  3
B1
350
14B51
  3
B2
350
14B52
  3
B3
350
14B53
  3
B4
350
14B54
  3
B5
350
14B55
  3
B6
350
14B56
  0
DICTIONARY
  5
14B59
102
{ACAD_REACTORS
330
1479A
102
}
330
1479A
100
AcDbDictionary
281
     1
  3
Imperial24
350
14B5A
  0
DICTIONARY
  5
14B43
102
{ACAD_REACTORS
330
1479A
102
}
330
1479A
100
AcDbDictionary
281
     1
  3
Standard
350
14B44
  0
DICTIONARY
  5
14B29
102
{ACAD_REACTORS
330
1479A
102
}
330
1479A
100
AcDbDictionary
281
     1
  3
2dWireframe
350
14B2F
  3
Basic
350
14B2E
  3
Brighten
350
14B35
  3
ColorChange
350
14B39
  3
Conceptual
350
14B32
  3
Dim
350
14B34
  3
EdgeColorOff
350
14B41
  3
Facepattern
350
14B38
  3
Flat
350
14B2A
  3
FlatWithEdges
350
14B2B
  3
Gouraud
350
14B2C
  3
GouraudWithEdges
350
14B2D
  3
Hidden
350
14B31
  3
JitterOff
350
14B3F
  3
Linepattern
350
14B37
  3
OverhangOff
350
14B40
  3
Realistic
350
14B33
  3
Shaded
350
14B3E
  3
Shaded with edges
350
14B3D
  3
Shades of Gray
350
14B3A
  3
Sketchy
350
14B3B
  3
Thicken
350
14B36
  3
Wireframe
350
14B30
  3
X-Ray
350
14B3C
  0
XRECORD
  5
14B7E
102
{ACAD_REACTORS
330
1479A
102
}
330
1479A
100
AcDbXrecord
280
     1
 90
        1
330
14B44
  0
DICTIONARY
  5
14B71
102
{ACAD_REACTORS
330
1479A
102
}
330
1479A
100
AcDbDictionary
281
     1
  3
CANNOSCALE
350
14B76
  3
CMLEADERSTYLE
350
14B73
  3
CTABLESTYLE
350
14B72
  3
CVIEWDETAILSTYLE
350
14B74
  3
CVIEWSECTIONSTYLE
350
14B75
  3
DIMASSOC
350
14B79
  3
INDEXCTL
350
14B78
  3
SORTENTS
350
14B77
  3
XCLIPFRAME
350
14B7A
  0
XRECORD
  5
14B7F
102
{ACAD_REACTORS
330
1479A
102
}
330
1479A
100
AcDbXrecord
280
     1
  1
DWGPROPS COOKIE
  2

  3

  4

  6

  7

  8
Yoshitsune
  9

300
=
301
=
302
=
303
=
304
=
305
=
306
=
307
=
308
=
309
=
 40
0.0000117476851852
 41
2451233.43996713
 42
2457192.665743854
  1

 90
        0
  0
XRECORD
  5
14B62
102
{ACAD_REACTORS
330
14B61
102
}
330
14B61
100
AcDbXrecord
280
     1
290
     1
  0
XRECORD
  5
14B64
102
{ACAD_REACTORS
330
14B63
102
}
330
14B63
100
AcDbXrecord
280
     1
290
     1
  0
XRECORD
  5
14B66
102
{ACAD_REACTORS
330
14B65
102
}
330
14B65
100
AcDbXrecord
280
     1
290
     1
  0
XRECORD
  5
14B68
102
{ACAD_REACTORS
330
14B67
102
}
330
14B67
100
AcDbXrecord
280
     1
290
     1
  0
XRECORD
  5
14B6A
102
{ACAD_REACTORS
330
14B69
102
}
330
14B69
100
AcDbXrecord
280
     1
290
     1
  0
XRECORD
  5
14B6C
102
{ACAD_REACTORS
330
14B6B
102
}
330
14B6B
100
AcDbXrecord
280
     1
290
     1
  0
XRECORD
  5
14B6E
102
{ACAD_REACTORS
330
14B6D
102
}
330
14B6D
100
AcDbXrecord
280
     1
290
     1
  0
XRECORD
  5
14B70
102
{ACAD_REACTORS
330
14B6F
102
}
330
14B6F
100
AcDbXrecord
280
     1
290
     1
  0
XRECORD
  5
14B0A
102
{ACAD_REACTORS
330
14B09
102
}
330
14B09
100
AcDbXrecord
280
     1
340
147AC
  0
XRECORD
  5
14B08
102
{ACAD_REACTORS
330
14B07
102
}
330
14B07
100
AcDbXrecord
280
     1
340
147A8
  0
ACDBDETAILVIEWSTYLE
  5
14B5C
102
{ACAD_XDICTIONARY
360
14BB7
102
}
102
{ACAD_REACTORS
330
14B5B
102
}
330
14B5B
100
AcDbModelDocViewStyle
 70
     0
  3
Imperial24
290
     0
100
AcDbDetailViewStyle
 70
     0
 71
     0
 90
        3
 71
     1
340
1479F
 40
0.24
340
0
 40
0.24
300

 40
0.36
280
     3
 71
     2
340
147A3
 90
       25
 71
     3
340
1479F
 40
0.24
 90
        1
 40
0.75
 90
        1
300
%<\AcVar ViewType \f "%tc1">% %<\AcVar ViewDetailId>%\PSCALE %<\AcVar ViewScale \f "%sn">%
 71
     4
340
147A3
 90
       25
340
147A3
 90
       25
280
     0
  0
LAYOUT
  5
14B5D
102
{ACAD_XDICTIONARY
360
14BB9
102
}
102
{ACAD_REACTORS
330
147A7
102
}
330
147A7
100
AcDbPlotSettings
  1

  2
Canon LBP9100C
  4

  6

 40
0.0
 41
0.0
 42
0.0
 43
0.0
 44
0.0
 45
0.0
 46
0.0
 47
0.0
 48
0.0
 49
0.0
140
0.0
141
0.0
142
1.0
143
1.0
 70
  1712
 72
     0
 73
     0
 74
     0
  7

 75
     0
147
1.0
148
0.0
149
0.0
100
AcDbLayout
  1
Model
 70
     1
 71
     0
 10
0.0
 20
0.0
 11
12.0
 21
9.0
 12
0.0
 22
0.0
 32
0.0
 14
0.0
 24
0.0
 34
0.0
 15
0.0
 25
0.0
 35
0.0
146
0.0
 13
0.0
 23
0.0
 33
0.0
 16
1.0
 26
0.0
 36
0.0
 17
0.0
 27
1.0
 37
0.0
 76
     0
330
147AC
331
14B06
  0
LAYOUT
  5
14B5E
102
{ACAD_XDICTIONARY
360
14BBB
102
}
102
{ACAD_REACTORS
330
147A7
102
}
330
147A7
100
AcDbPlotSettings
  1

  2
Canon LBP9100C
  4

  6

 40
0.0
 41
0.0
 42
0.0
 43
0.0
 44
0.0
 45
0.0
 46
0.0
 47
0.0
 48
0.0
 49
0.0
140
0.0
141
0.0
142
1.0
143
1.0
 70
   688
 72
     0
 73
     0
 74
     5
  7

 75
    16
147
1.0
148
0.0
149
0.0
100
AcDbLayout
  1
レイアウト1
 70
     0
 71
     1
 10
0.0
 20
0.0
 11
420.0
 21
297.0
 12
0.0
 22
0.0
 32
0.0
 14
1.000000000000000E+20
 24
1.000000000000000E+20
 34
1.000000000000000E+20
 15
-1.000000000000000E+20
 25
-1.000000000000000E+20
 35
-1.000000000000000E+20
146
0.0
 13
0.0
 23
0.0
 33
0.0
 16
1.0
 26
0.0
 36
0.0
 17
0.0
 27
1.0
 37
0.0
 76
     0
330
147A8
  0
MATERIAL
  5
14B19
102
{ACAD_XDICTIONARY
360
14B1A
102
}
102
{ACAD_REACTORS
330
14B10
102
}
330
14B10
100
AcDbMaterial
  1
ByBlock
 72
     0
 43
0.0208333333333333
 43
0.0
 43
0.0
 43
0.0
 43
0.0
 43
0.0208333333333333
 43
0.0
 43
0.0
 43
0.0
 43
0.0
 43
1.0
 43
0.0
 43
0.0
 43
0.0
 43
0.0
 43
1.0
 77
     0
 47
0.0208333333333333
 47
0.0
 47
0.0
 47
0.0
 47
0.0
 47
0.0208333333333333
 47
0.0
 47
0.0
 47
0.0
 47
0.0
 47
1.0
 47
0.0
 47
0.0
 47
0.0
 47
0.0
 47
1.0
171
     0
 49
0.0208333333333333
 49
0.0
 49
0.0
 49
0.0
 49
0.0
 49
0.0208333333333333
 49
0.0
 49
0.0
 49
0.0
 49
0.0
 49
1.0
 49
0.0
 49
0.0
 49
0.0
 49
0.0
 49
1.0
175
     0
142
0.0208333333333333
142
0.0
142
0.0
142
0.0
142
0.0
142
0.0208333333333333
142
0.0
142
0.0
142
0.0
142
0.0
142
1.0
142
0.0
142
0.0
142
0.0
142
0.0
142
1.0
179
     0
144
0.0208333333333333
144
0.0
144
0.0
144
0.0
144
0.0
144
0.0208333333333333
144
0.0
144
0.0
144
0.0
144
0.0
144
1.0
144
0.0
144
0.0
144
0.0
144
0.0
144
1.0
147
0.0208333333333333
147
0.0
147
0.0
147
0.0
147
0.0
147
0.0208333333333333
147
0.0
147
0.0
147
0.0
147
0.0
147
1.0
147
0.0
147
0.0
147
0.0
147
0.0
147
1.0
  0
MATERIAL
  5
14B11
102
{ACAD_XDICTIONARY
360
14B12
102
}
102
{ACAD_REACTORS
330
14B10
102
}
330
14B10
100
AcDbMaterial
  1
ByLayer
 72
     0
 43
0.0208333333333333
 43
0.0
 43
0.0
 43
0.0
 43
0.0
 43
0.0208333333333333
 43
0.0
 43
0.0
 43
0.0
 43
0.0
 43
1.0
 43
0.0
 43
0.0
 43
0.0
 43
0.0
 43
1.0
 77
     0
 47
0.0208333333333333
 47
0.0
 47
0.0
 47
0.0
 47
0.0
 47
0.0208333333333333
 47
0.0
 47
0.0
 47
0.0
 47
0.0
 47
1.0
 47
0.0
 47
0.0
 47
0.0
 47
0.0
 47
1.0
171
     0
 49
0.0208333333333333
 49
0.0
 49
0.0
 49
0.0
 49
0.0
 49
0.0208333333333333
 49
0.0
 49
0.0
 49
0.0
 49
0.0
 49
1.0
 49
0.0
 49
0.0
 49
0.0
 49
0.0
 49
1.0
175
     0
142
0.0208333333333333
142
0.0
142
0.0
142
0.0
142
0.0
142
0.0208333333333333
142
0.0
142
0.0
142
0.0
142
0.0
142
1.0
142
0.0
142
0.0
142
0.0
142
0.0
142
1.0
179
     0
144
0.0208333333333333
144
0.0
144
0.0
144
0.0
144
0.0
144
0.0208333333333333
144
0.0
144
0.0
144
0.0
144
0.0
144
1.0
144
0.0
144
0.0
144
0.0
144
0.0
144
1.0
147
0.0208333333333333
147
0.0
147
0.0
147
0.0
147
0.0
147
0.0208333333333333
147
0.0
147
0.0
147
0.0
147
0.0
147
1.0
147
0.0
147
0.0
147
0.0
147
0.0
147
1.0
  0
MATERIAL
  5
14B21
102
{ACAD_XDICTIONARY
360
14B22
102
}
102
{ACAD_REACTORS
330
14B10
102
}
330
14B10
100
AcDbMaterial
  1
Global
 72
     0
 43
0.0208333333333333
 43
0.0
 43
0.0
 43
0.0
 43
0.0
 43
0.0208333333333333
 43
0.0
 43
0.0
 43
0.0
 43
0.0
 43
1.0
 43
0.0
 43
0.0
 43
0.0
 43
0.0
 43
1.0
 77
     0
 47
0.0208333333333333
 47
0.0
 47
0.0
 47
0.0
 47
0.0
 47
0.0208333333333333
 47
0.0
 47
0.0
 47
0.0
 47
0.0
 47
1.0
 47
0.0
 47
0.0
 47
0.0
 47
0.0
 47
1.0
171
     0
 49
0.0208333333333333
 49
0.0
 49
0.0
 49
0.0
 49
0.0
 49
0.0208333333333333
 49
0.0
 49
0.0
 49
0.0
 49
0.0
 49
1.0
 49
0.0
 49
0.0
 49
0.0
 49
0.0
 49
1.0
175
     0
142
0.0208333333333333
142
0.0
142
0.0
142
0.0
142
0.0
142
0.0208333333333333
142
0.0
142
0.0
142
0.0
142
0.0
142
1.0
142
0.0
142
0.0
142
0.0
142
0.0
142
1.0
179
     0
144
0.0208333333333333
144
0.0
144
0.0
144
0.0
144
0.0
144
0.0208333333333333
144
0.0
144
0.0
144
0.0
144
0.0
144
1.0
144
0.0
144
0.0
144
0.0
144
0.0
144
1.0
147
0.0208333333333333
147
0.0
147
0.0
147
0.0
147
0.0
147
0.0208333333333333
147
0.0
147
0.0
147
0.0
147
0.0
147
1.0
147
0.0
147
0.0
147
0.0
147
0.0
147
1.0
  0
MLEADERSTYLE
  5
14B58
102
{ACAD_REACTORS
330
14B57
102
}
330
14B57
100
AcDbMLeaderStyle
170
     2
171
     1
172
     0
 90
        2
 40
0.0
 41
0.0
173
     1
 91
-1056964608
340
147A1
 92
       -2
290
     1
 42
0.09
291
     1
 43
0.36
  3
Standard
 44
0.18
300

342
1479F
174
     1
178
     6
175
     1
176
     0
 93
-1056964608
 45
0.18
292
     0
297
     0
 46
0.18
 94
-1056964608
 47
1.0
 49
1.0
140
1.0
293
     1
141
0.0
294
     1
177
     0
142
1.0
295
     0
296
     0
143
0.125
1001
ACAD_MLEADERVER
1070
     2
  0
MLINESTYLE
  5
147A5
102
{ACAD_REACTORS
330
147A4
102
}
330
147A4
100
AcDbMlineStyle
  2
STANDARD
 70
     0
  3

 62
   256
 51
90.0
 52
90.0
 71
     2
 49
0.5
 62
   256
  6
BYLAYER
 49
-0.5
 62
   256
  6
BYLAYER
  0
ACDBPLACEHOLDER
  5
14B0F
102
{ACAD_REACTORS
330
14B0E
102
}
330
14B0E
  0
SCALE
  5
14B46
102
{ACAD_REACTORS
330
14B45
102
}
330
14B45
100
AcDbScale
 70
     0
300
1:1
140
1.0
141
1.0
290
     1
  0
SCALE
  5
14B47
102
{ACAD_REACTORS
330
14B45
102
}
330
14B45
100
AcDbScale
 70
     0
300
1/128" = 1'-0"
140
0.0078125
141
12.0
290
     0
  0
SCALE
  5
14B48
102
{ACAD_REACTORS
330
14B45
102
}
330
14B45
100
AcDbScale
 70
     0
300
1/64" = 1'-0"
140
0.015625
141
12.0
290
     0
  0
SCALE
  5
14B49
102
{ACAD_REACTORS
330
14B45
102
}
330
14B45
100
AcDbScale
 70
     0
300
1/32" = 1'-0"
140
0.03125
141
12.0
290
     0
  0
SCALE
  5
14B4A
102
{ACAD_REACTORS
330
14B45
102
}
330
14B45
100
AcDbScale
 70
     0
300
1/16" = 1'-0"
140
0.0625
141
12.0
290
     0
  0
SCALE
  5
14B4B
102
{ACAD_REACTORS
330
14B45
102
}
330
14B45
100
AcDbScale
 70
     0
300
3/32" = 1'-0"
140
0.09375
141
12.0
290
     0
  0
SCALE
  5
14B4C
102
{ACAD_REACTORS
330
14B45
102
}
330
14B45
100
AcDbScale
 70
     0
300
1/8" = 1'-0"
140
0.125
141
12.0
290
     0
  0
SCALE
  5
14B4D
102
{ACAD_REACTORS
330
14B45
102
}
330
14B45
100
AcDbScale
 70
     0
300
3/16" = 1'-0"
140
0.1875
141
12.0
290
     0
  0
SCALE
  5
14B4E
102
{ACAD_REACTORS
330
14B45
102
}
330
14B45
100
AcDbScale
 70
     0
300
1/4" = 1'-0"
140
0.25
141
12.0
290
     0
  0
SCALE
  5
14B4F
102
{ACAD_REACTORS
330
14B45
102
}
330
14B45
100
AcDbScale
 70
     0
300
3/8" = 1'-0"
140
0.375
141
12.0
290
     0
  0
SCALE
  5
14B50
102
{ACAD_REACTORS
330
14B45
102
}
330
14B45
100
AcDbScale
 70
     0
300
1/2" = 1'-0"
140
0.5
141
12.0
290
     0
  0
SCALE
  5
14B51
102
{ACAD_REACTORS
330
14B45
102
}
330
14B45
100
AcDbScale
 70
     0
300
3/4" = 1'-0"
140
0.75
141
12.0
290
     0
  0
SCALE
  5
14B52
102
{ACAD_REACTORS
330
14B45
102
}
330
14B45
100
AcDbScale
 70
     0
300
1" = 1'-0"
140
1.0
141
12.0
290
     0
  0
SCALE
  5
14B53
102
{ACAD_REACTORS
330
14B45
102
}
330
14B45
100
AcDbScale
 70
     0
300
1-1/2" = 1'-0"
140
1.5
141
12.0
290
     0
  0
SCALE
  5
14B54
102
{ACAD_REACTORS
330
14B45
102
}
330
14B45
100
AcDbScale
 70
     0
300
3" = 1'-0"
140
3.0
141
12.0
290
     0
  0
SCALE
  5
14B55
102
{ACAD_REACTORS
330
14B45
102
}
330
14B45
100
AcDbScale
 70
     0
300
6" = 1'-0"
140
6.0
141
12.0
290
     0
  0
SCALE
  5
14B56
102
{ACAD_REACTORS
330
14B45
102
}
330
14B45
100
AcDbScale
 70
     0
300
1'-0" = 1'-0"
140
12.0
141
12.0
290
     0
  0
ACDBSECTIONVIEWSTYLE
  5
14B5A
102
{ACAD_XDICTIONARY
360
14BB5
102
}
102
{ACAD_REACTORS
330
14B59
102
}
330
14B59
100
AcDbModelDocViewStyle
 70
     0
  3
Imperial24
290
     0
100
AcDbSectionViewStyle
 70
     0
 71
     0
 90
       78
 71
     1
340
1479F
 40
0.24
340
0
340
0
 40
0.24
300
I, O, Q, S, X, Z
 40
0.48
 90
        3
 40
0.18
 90
        1
 71
     2
340
147A3
 90
       25
340
147A3
 90
       50
 40
0.24
 40
0.0
 40
0.24
 71
     3
340
1479F
 40
0.24
 90
        1
 40
0.75
 90
        1
300
%<\AcVar ViewType \f "%tc1">% %<\AcVar ViewSectionStartId>%-%<\AcVar ViewSectionEndId>%\PSCALE %<\AcVar ViewScale \f "%sn">%
 71
     4
300
ANSI31
 40
1.0
 90
        0
290
     0
290
     0
 90
        6
 40
0.0
 40
1.570796326794896
 40
0.2617993877991494
 40
1.308996938995747
 40
-0.2617993877991494
 40
1.832595714594046
  0
TABLESTYLE
  5
14B44
102
{ACAD_XDICTIONARY
360
14B7C
102
}
102
{ACAD_REACTORS
330
14B43
102
}
330
14B43
100
AcDbTableStyle
  3
Standard
 70
     0
 71
     0
 40
0.06
 41
0.06
280
     0
281
     0
  7
STANDARD
140
0.18
170
     2
 62
     0
 63
     7
283
     0
274
    -2
284
     1
 64
     0
275
    -2
285
     1
 65
     0
276
    -2
286
     1
 66
     0
277
    -2
287
     1
 67
     0
278
    -2
288
     1
 68
     0
279
    -2
289
     1
 69
     0
  7
STANDARD
140
0.25
170
     5
 62
     0
 63
     7
283
     0
274
    -2
284
     1
 64
     0
275
    -2
285
     1
 65
     0
276
    -2
286
     1
 66
     0
277
    -2
287
     1
 67
     0
278
    -2
288
     1
 68
     0
279
    -2
289
     1
 69
     0
  7
STANDARD
140
0.18
170
     5
 62
     0
 63
     7
283
     0
274
    -2
284
     1
 64
     0
275
    -2
285
     1
 65
     0
276
    -2
286
     1
 66
     0
277
    -2
287
     1
 67
     0
278
    -2
288
     1
 68
     0
279
    -2
289
     1
 69
     0
  0
VISUALSTYLE
  5
14B2F
102
{ACAD_XDICTIONARY
360
14B8D
102
}
102
{ACAD_REACTORS
330
14B29
102
}
330
14B29
100
AcDbVisualStyle
  2
2dWireframe
 70
     4
 71
     0
 72
     2
 73
     0
 90
        0
 40
-0.6
 41
-30.0
 62
     5
 63
     7
 74
     1
 91
        4
 64
     7
 65
   257
 75
     1
175
     1
 42
1.0
 92
        0
 66
   257
 43
1.0
 76
     1
 77
     6
 78
     2
 67
     7
 79
     5
170
     0
171
     0
290
     0
174
     0
 93
        1
 44
0.0
173
     0
291
     0
 45
0.0
1001
ACAD
1000
AcDbSavedByObjectVersion
1070
     0
  0
VISUALSTYLE
  5
14B2E
102
{ACAD_XDICTIONARY
360
14B8B
102
}
102
{ACAD_REACTORS
330
14B29
102
}
330
14B29
100
AcDbVisualStyle
  2
Basic
 70
     7
 71
     1
 72
     0
 73
     1
 90
        0
 40
-0.6
 41
-30.0
 62
     5
 63
     7
 74
     0
 91
        4
 64
     7
 65
   257
 75
     1
175
     1
 42
1.0
 92
        8
 66
     7
 43
1.0
 76
     1
 77
     6
 78
     2
 67
     7
 79
     5
170
     0
171
     0
290
     0
174
     0
 93
        1
 44
0.0
173
     0
291
     1
 45
0.0
1001
ACAD
1000
AcDbSavedByObjectVersion
1070
     0
  0
VISUALSTYLE
  5
14B35
102
{ACAD_XDICTIONARY
360
14B99
102
}
102
{ACAD_REACTORS
330
14B29
102
}
330
14B29
100
AcDbVisualStyle
  2
Brighten
 70
    12
 71
     2
 72
     2
 73
     0
 90
        0
 40
-0.6
 41
-30.0
 62
     5
 63
     7
 74
     1
 91
        4
 64
     7
 65
   257
 75
     1
175
     1
 42
1.0
 92
        8
 66
     7
 43
1.0
 76
     1
 77
     6
 78
     2
 67
     7
 79
     5
170
     0
171
     0
290
     0
174
     0
 93
        1
 44
50.0
173
     0
291
     1
 45
0.0
1001
ACAD
1000
AcDbSavedByObjectVersion
1070
     0
  0
VISUALSTYLE
  5
14B39
102
{ACAD_XDICTIONARY
360
14BA1
102
}
102
{ACAD_REACTORS
330
14B29
102
}
330
14B29
100
AcDbVisualStyle
  2
ColorChange
 70
    16
 71
     2
 72
     2
 73
     3
 90
        0
 40
-0.6
 41
-30.0
 62
     5
 63
     8
 74
     1
 91
        4
 64
     7
 65
   257
 75
     1
175
     1
 42
1.0
 92
        8
 66
     8
 43
1.0
 76
     1
 77
     6
 78
     2
 67
     7
 79
     5
170
     0
171
     0
290
     0
174
     0
 93
        1
 44
0.0
173
     0
291
     1
 45
0.0
1001
ACAD
1000
AcDbSavedByObjectVersion
1070
     0
  0
VISUALSTYLE
  5
14B32
102
{ACAD_XDICTIONARY
360
14B93
102
}
102
{ACAD_REACTORS
330
14B29
102
}
330
14B29
100
AcDbVisualStyle
  2
Conceptual
 70
     9
 71
     3
 72
     2
 73
     0
 90
        0
 40
-0.6
 41
-30.0
 62
     5
 63
     7
 74
     2
 91
        2
 64
     7
 65
   257
 75
     1
175
     1
 42
179.0
 92
        8
 66
     7
 43
1.0
 76
     1
 77
     6
 78
     2
 67
     7
 79
     3
170
     0
171
     0
290
     0
174
     0
 93
        1
 44
0.0
173
     0
291
     0
 45
0.0
1001
ACAD
1000
AcDbSavedByObjectVersion
1070
     0
  0
VISUALSTYLE
  5
14B34
102
{ACAD_XDICTIONARY
360
14B97
102
}
102
{ACAD_REACTORS
330
14B29
102
}
330
14B29
100
AcDbVisualStyle
  2
Dim
 70
    11
 71
     2
 72
     2
 73
     0
 90
        0
 40
-0.6
 41
-30.0
 62
     5
 63
     7
 74
     1
 91
        4
 64
     7
 65
   257
 75
     1
175
     1
 42
1.0
 92
        8
 66
     7
 43
1.0
 76
     1
 77
     6
 78
     2
 67
     7
 79
     5
170
     0
171
     0
290
     0
174
     0
 93
        1
 44
-50.0
173
     0
291
     1
 45
0.0
1001
ACAD
1000
AcDbSavedByObjectVersion
1070
     0
  0
VISUALSTYLE
  5
14B41
102
{ACAD_XDICTIONARY
360
14BB1
102
}
102
{ACAD_REACTORS
330
14B29
102
}
330
14B29
100
AcDbVisualStyle
  2
EdgeColorOff
 70
    22
 71
     2
 72
     2
 73
     0
 90
        0
 40
-0.6
 41
-30.0
 62
     5
 63
     7
 74
     1
 91
        4
 64
     7
 65
   257
 75
     1
175
     1
 42
1.0
 92
        8
 66
     7
 43
1.0
 76
     1
 77
     6
 78
     2
 67
     7
 79
     5
170
     0
171
     0
290
     0
174
     0
 93
        1
 44
0.0
173
     0
291
     1
 45
0.0
1001
ACAD
1000
AcDbSavedByObjectVersion
1070
     0
  0
VISUALSTYLE
  5
14B38
102
{ACAD_XDICTIONARY
360
14B9F
102
}
102
{ACAD_REACTORS
330
14B29
102
}
330
14B29
100
AcDbVisualStyle
  2
Facepattern
 70
    15
 71
     2
 72
     2
 73
     0
 90
        0
 40
-0.6
 41
-30.0
 62
     5
 63
     7
 74
     1
 91
        4
 64
     7
 65
   257
 75
     1
175
     1
 42
1.0
 92
        8
 66
     7
 43
1.0
 76
     1
 77
     6
 78
     2
 67
     7
 79
     5
170
     0
171
     0
290
     0
174
     0
 93
        1
 44
0.0
173
     0
291
     1
 45
0.0
1001
ACAD
1000
AcDbSavedByObjectVersion
1070
     0
  0
VISUALSTYLE
  5
14B2A
102
{ACAD_XDICTIONARY
360
14B83
102
}
102
{ACAD_REACTORS
330
14B29
102
}
330
14B29
100
AcDbVisualStyle
  2
Flat
 70
     0
 71
     2
 72
     1
 73
     1
 90
        2
 40
-0.6
 41
30.0
 62
     5
 63
     7
 74
     0
 91
        0
 64
     7
 65
   257
 75
     1
175
     1
 42
1.0
 92
        8
 66
     7
 43
1.0
 76
     1
 77
     6
 78
     2
 67
     7
 79
     5
170
     0
171
     0
290
     0
174
     0
 93
       13
 44
0.0
173
     0
291
     1
 45
0.0
1001
ACAD
1000
AcDbSavedByObjectVersion
1070
     0
  0
VISUALSTYLE
  5
14B2B
102
{ACAD_XDICTIONARY
360
14B85
102
}
102
{ACAD_REACTORS
330
14B29
102
}
330
14B29
100
AcDbVisualStyle
  2
FlatWithEdges
 70
     1
 71
     2
 72
     1
 73
     1
 90
        2
 40
-0.6
 41
30.0
 62
     5
 63
     7
 74
     1
 91
        0
 64
     7
 65
   257
 75
     1
175
     1
 42
1.0
 92
        0
 66
   257
 43
1.0
 76
     1
 77
     6
 78
     2
 67
     7
 79
     5
170
     0
171
     0
290
     0
174
     0
 93
       13
 44
0.0
173
     0
291
     1
 45
0.0
1001
ACAD
1000
AcDbSavedByObjectVersion
1070
     0
  0
VISUALSTYLE
  5
14B2C
102
{ACAD_XDICTIONARY
360
14B87
102
}
102
{ACAD_REACTORS
330
14B29
102
}
330
14B29
100
AcDbVisualStyle
  2
Gouraud
 70
     2
 71
     2
 72
     2
 73
     1
 90
        2
 40
-0.6
 41
30.0
 62
     5
 63
     7
 74
     0
 91
        0
 64
     7
 65
   257
 75
     1
175
     1
 42
1.0
 92
        0
 66
     7
 43
1.0
 76
     1
 77
     6
 78
     2
 67
     7
 79
     5
170
     0
171
     0
290
     0
174
     0
 93
       13
 44
0.0
173
     0
291
     1
 45
0.0
1001
ACAD
1000
AcDbSavedByObjectVersion
1070
     0
  0
VISUALSTYLE
  5
14B2D
102
{ACAD_XDICTIONARY
360
14B89
102
}
102
{ACAD_REACTORS
330
14B29
102
}
330
14B29
100
AcDbVisualStyle
  2
GouraudWithEdges
 70
     3
 71
     2
 72
     2
 73
     1
 90
        2
 40
-0.6
 41
30.0
 62
     5
 63
     7
 74
     1
 91
        0
 64
     7
 65
   257
 75
     1
175
     1
 42
1.0
 92
        0
 66
   257
 43
1.0
 76
     1
 77
     6
 78
     2
 67
     7
 79
     5
170
     0
171
     0
290
     0
174
     0
 93
       13
 44
0.0
173
     0
291
     1
 45
0.0
1001
ACAD
1000
AcDbSavedByObjectVersion
1070
     0
  0
VISUALSTYLE
  5
14B31
102
{ACAD_XDICTIONARY
360
14B91
102
}
102
{ACAD_REACTORS
330
14B29
102
}
330
14B29
100
AcDbVisualStyle
  2
Hidden
 70
     6
 71
     1
 72
     2
 73
     2
 90
        0
 40
-0.6
 41
-30.0
 62
     5
 63
     7
 74
     2
 91
        2
 64
     7
 65
   257
 75
     2
175
     1
 42
40.0
 92
        0
 66
   257
 43
1.0
 76
     1
 77
     6
 78
     2
 67
     7
 79
     3
170
     0
171
     0
290
     0
174
     0
 93
        1
 44
0.0
173
     0
291
     0
 45
0.0
1001
ACAD
1000
AcDbSavedByObjectVersion
1070
     0
  0
VISUALSTYLE
  5
14B3F
102
{ACAD_XDICTIONARY
360
14BAD
102
}
102
{ACAD_REACTORS
330
14B29
102
}
330
14B29
100
AcDbVisualStyle
  2
JitterOff
 70
    20
 71
     2
 72
     2
 73
     0
 90
        0
 40
-0.6
 41
-30.0
 62
     5
 63
     7
 74
     1
 91
        4
 64
     7
 65
   257
 75
     1
175
     1
 42
1.0
 92
       10
 66
     7
 43
1.0
 76
     1
 77
     6
 78
     2
 67
     7
 79
     5
170
     0
171
     0
290
     0
174
     0
 93
        1
 44
0.0
173
     0
291
     1
 45
0.0
1001
ACAD
1000
AcDbSavedByObjectVersion
1070
     0
  0
VISUALSTYLE
  5
14B37
102
{ACAD_XDICTIONARY
360
14B9D
102
}
102
{ACAD_REACTORS
330
14B29
102
}
330
14B29
100
AcDbVisualStyle
  2
Linepattern
 70
    14
 71
     2
 72
     2
 73
     0
 90
        0
 40
-0.6
 41
-30.0
 62
     5
 63
     7
 74
     1
 91
        4
 64
     7
 65
   257
 75
     7
175
     7
 42
1.0
 92
        8
 66
     7
 43
1.0
 76
     1
 77
     6
 78
     2
 67
     7
 79
     5
170
     0
171
     0
290
     0
174
     0
 93
        1
 44
0.0
173
     0
291
     1
 45
0.0
1001
ACAD
1000
AcDbSavedByObjectVersion
1070
     0
  0
VISUALSTYLE
  5
14B40
102
{ACAD_XDICTIONARY
360
14BAF
102
}
102
{ACAD_REACTORS
330
14B29
102
}
330
14B29
100
AcDbVisualStyle
  2
OverhangOff
 70
    21
 71
     2
 72
     2
 73
     0
 90
        0
 40
-0.6
 41
-30.0
 62
     5
 63
     7
 74
     1
 91
        4
 64
     7
 65
   257
 75
     1
175
     1
 42
1.0
 92
        9
 66
     7
 43
1.0
 76
     1
 77
     6
 78
     2
 67
     7
 79
     5
170
     0
171
     0
290
     0
174
     0
 93
        1
 44
0.0
173
     0
291
     1
 45
0.0
1001
ACAD
1000
AcDbSavedByObjectVersion
1070
     0
  0
VISUALSTYLE
  5
14B33
102
{ACAD_XDICTIONARY
360
14B95
102
}
102
{ACAD_REACTORS
330
14B29
102
}
330
14B29
100
AcDbVisualStyle
  2
Realistic
 70
     8
 71
     2
 72
     3
 73
     0
 90
        2
 40
-0.6
 41
30.0
 62
     5
 63
     7
 74
     0
 91
        0
 64
     7
 65
   257
 75
     1
175
     1
 42
1.0
 92
        8
 66
   257
 43
1.0
 76
     1
 77
     6
 78
     2
 67
     7
 79
     3
170
     0
171
     0
290
     0
174
     0
 93
       13
 44
0.0
173
     0
291
     0
 45
0.0
1001
ACAD
1000
AcDbSavedByObjectVersion
1070
     0
  0
VISUALSTYLE
  5
14B3E
102
{ACAD_XDICTIONARY
360
14BAB
102
}
102
{ACAD_REACTORS
330
14B29
102
}
330
14B29
100
AcDbVisualStyle
  2
Shaded
 70
    27
 71
     2
 72
     2
 73
     1
 90
        2
 40
-0.6
 41
30.0
 62
     5
 63
     7
 74
     0
 91
        4
 64
     7
 65
   257
 75
     1
175
     1
 42
1.0
 92
        8
 66
   257
 43
1.0
 76
     1
 77
     6
 78
     2
 67
     8
 79
     3
170
     0
171
     0
290
     0
174
     0
 93
        5
 44
0.0
173
     0
291
     0
 45
0.0
1001
ACAD
1000
AcDbSavedByObjectVersion
1070
     0
  0
VISUALSTYLE
  5
14B3D
102
{ACAD_XDICTIONARY
360
14BA9
102
}
102
{ACAD_REACTORS
330
14B29
102
}
330
14B29
100
AcDbVisualStyle
  2
Shaded with edges
 70
    26
 71
     2
 72
     2
 73
     1
 90
        2
 40
-0.6
 41
30.0
 62
     5
 63
     7
 74
     1
 91
       10
 64
     7
 65
   257
 75
     2
175
     1
 42
1.0
 92
        8
 66
   257
 43
1.0
 76
     1
 77
     6
 78
     2
 67
     7
 79
     3
170
     0
171
     0
290
     0
174
     0
 93
        5
 44
0.0
173
     0
291
     0
 45
0.0
1001
ACAD
1000
AcDbSavedByObjectVersion
1070
     0
  0
VISUALSTYLE
  5
14B3A
102
{ACAD_XDICTIONARY
360
14BA3
102
}
102
{ACAD_REACTORS
330
14B29
102
}
330
14B29
100
AcDbVisualStyle
  2
Shades of Gray
 70
    23
 71
     2
 72
     2
 73
     3
 90
        0
 40
-0.6
 41
-30.0
 62
     5
 63
     7
 74
     2
 91
        2
 64
     7
 65
     7
 75
     1
175
     1
 42
40.0
 92
        8
 66
     7
 43
1.0
 76
     1
 77
     6
 78
     2
 67
     7
 79
     3
170
     0
171
     0
290
     0
174
     0
 93
        1
 44
0.0
173
     0
291
     0
 45
0.0
1001
ACAD
1000
AcDbSavedByObjectVersion
1070
     0
  0
VISUALSTYLE
  5
14B3B
102
{ACAD_XDICTIONARY
360
14BA5
102
}
102
{ACAD_REACTORS
330
14B29
102
}
330
14B29
100
AcDbVisualStyle
  2
Sketchy
 70
    24
 71
     1
 72
     2
 73
     2
 90
        0
 40
-0.6
 41
-30.0
 62
     5
 63
     7
 74
     2
 91
        2
 64
     7
 65
     7
 75
     1
175
     1
 42
40.0
 92
       11
 66
     7
 43
1.0
 76
     1
 77
     6
 78
     2
 67
     7
 79
     6
170
     0
171
     0
290
     0
174
     0
 93
        1
 44
0.0
173
     0
291
     0
 45
0.0
1001
ACAD
1000
AcDbSavedByObjectVersion
1070
     0
  0
VISUALSTYLE
  5
14B36
102
{ACAD_XDICTIONARY
360
14B9B
102
}
102
{ACAD_REACTORS
330
14B29
102
}
330
14B29
100
AcDbVisualStyle
  2
Thicken
 70
    13
 71
     2
 72
     2
 73
     0
 90
        0
 40
-0.6
 41
-30.0
 62
     5
 63
     7
 74
     1
 91
        4
 64
     7
 65
   257
 75
     1
175
     1
 42
1.0
 92
       12
 66
     7
 43
1.0
 76
     1
 77
     6
 78
     2
 67
     7
 79
     5
170
     0
171
     0
290
     0
174
     0
 93
        1
 44
0.0
173
     0
291
     1
 45
0.0
1001
ACAD
1000
AcDbSavedByObjectVersion
1070
     0
  0
VISUALSTYLE
  5
14B30
102
{ACAD_XDICTIONARY
360
14B8F
102
}
102
{ACAD_REACTORS
330
14B29
102
}
330
14B29
100
AcDbVisualStyle
  2
Wireframe
 70
     5
 71
     0
 72
     2
 73
     0
 90
        0
 40
-0.6
 41
-30.0
 62
     5
 63
     7
 74
     1
 91
        4
 64
     7
 65
   257
 75
     1
175
     1
 42
1.0
 92
        0
 66
   257
 43
1.0
 76
     1
 77
     6
 78
     2
 67
     7
 79
     3
170
     0
171
     0
290
     0
174
     0
 93
        1
 44
0.0
173
     0
291
     0
 45
0.0
1001
ACAD
1000
AcDbSavedByObjectVersion
1070
     0
  0
VISUALSTYLE
  5
14B3C
102
{ACAD_XDICTIONARY
360
14BA7
102
}
102
{ACAD_REACTORS
330
14B29
102
}
330
14B29
100
AcDbVisualStyle
  2
X-Ray
 70
    25
 71
     2
 72
     2
 73
     1
 90
        1
 40
0.5
 41
-30.0
 62
     5
 63
     7
 74
     1
 91
        0
 64
     7
 65
   257
 75
     1
175
     1
 42
1.0
 92
        8
 66
     7
 43
1.0
 76
     1
 77
     6
 78
     2
 67
     7
 79
     3
170
     0
171
     0
290
     0
174
     0
 93
       13
 44
0.0
173
     0
291
     0
 45
0.0
1001
ACAD
1000
AcDbSavedByObjectVersion
1070
     0
  0
DICTIONARYVAR
  5
14B76
102
{ACAD_REACTORS
330
14B71
102
}
330
14B71
100
DictionaryVariables
280
     0
  1
1:1
  0
DICTIONARYVAR
  5
14B73
102
{ACAD_REACTORS
330
14B71
102
}
330
14B71
100
DictionaryVariables
280
     0
  1
STANDARD
  0
DICTIONARYVAR
  5
14B72
102
{ACAD_REACTORS
330
14B71
102
}
330
14B71
100
DictionaryVariables
280
     0
  1
STANDARD
  0
DICTIONARYVAR
  5
14B74
102
{ACAD_REACTORS
330
14B71
102
}
330
14B71
100
DictionaryVariables
280
     0
  1
Imperial24
  0
DICTIONARYVAR
  5
14B75
102
{ACAD_REACTORS
330
14B71
102
}
330
14B71
100
DictionaryVariables
280
     0
  1
Imperial24
  0
DICTIONARYVAR
  5
14B79
102
{ACAD_REACTORS
330
14B71
102
}
330
14B71
100
DictionaryVariables
280
     0
  1
1
  0
DICTIONARYVAR
  5
14B78
102
{ACAD_REACTORS
330
14B71
102
}
330
14B71
100
DictionaryVariables
280
     0
  1
0
  0
DICTIONARYVAR
  5
14B77
102
{ACAD_REACTORS
330
14B71
102
}
330
14B71
100
DictionaryVariables
280
     0
  1
127
  0
DICTIONARYVAR
  5
14B7A
102
{ACAD_REACTORS
330
14B71
102
}
330
14B71
100
DictionaryVariables
280
     0
  1
2
  0
DICTIONARY
  5
14BB7
330
14B5C
100
AcDbDictionary
280
     1
281
     1
  3
ACAD_XREC_ROUNDTRIP
360
14BB8
  0
DICTIONARY
  5
14BB9
330
14B5D
100
AcDbDictionary
280
     1
281
     1
  3
ACAD_XREC_ROUNDTRIP
360
14BBA
  0
DICTIONARY
  5
14BBB
330
14B5E
100
AcDbDictionary
280
     1
281
     1
  3
ACAD_XREC_ROUNDTRIP
360
14BBC
  0
DICTIONARY
  5
14B1A
330
14B19
100
AcDbDictionary
280
     1
281
     1
  3
ACAD_XREC_ROUNDTRIP
360
14B81
  3
BUMPTILE
360
14B1C
  3
DIFFUSETILE
360
14B1B
  3
OPACITYTILE
360
14B1F
  3
REFLECTIONTILE
360
14B1E
  3
REFRACTIONTILE
360
14B20
  3
SPECULARTILE
360
14B1D
  0
DICTIONARY
  5
14B12
330
14B11
100
AcDbDictionary
280
     1
281
     1
  3
ACAD_XREC_ROUNDTRIP
360
14B80
  3
BUMPTILE
360
14B14
  3
DIFFUSETILE
360
14B13
  3
OPACITYTILE
360
14B17
  3
REFLECTIONTILE
360
14B16
  3
REFRACTIONTILE
360
14B18
  3
SPECULARTILE
360
14B15
  0
DICTIONARY
  5
14B22
330
14B21
100
AcDbDictionary
280
     1
281
     1
  3
ACAD_XREC_ROUNDTRIP
360
14B82
  3
BUMPTILE
360
14B24
  3
DIFFUSETILE
360
14B23
  3
OPACITYTILE
360
14B27
  3
REFLECTIONTILE
360
14B26
  3
REFRACTIONTILE
360
14B28
  3
SPECULARTILE
360
14B25
  0
DICTIONARY
  5
14BB5
330
14B5A
100
AcDbDictionary
280
     1
281
     1
  3
ACAD_XREC_ROUNDTRIP
360
14BB6
  0
DICTIONARY
  5
14B7C
330
14B44
100
AcDbDictionary
280
     1
281
     1
  3
ACAD_ROUNDTRIP_2008_TABLESTYLE_CELLSTYLEMAP
360
14B7D
  3
ACAD_XREC_ROUNDTRIP
360
14BB3
  0
DICTIONARY
  5
14B8D
330
14B2F
100
AcDbDictionary
280
     1
281
     1
  3
ACAD_XREC_ROUNDTRIP
360
14B8E
  0
DICTIONARY
  5
14B8B
330
14B2E
100
AcDbDictionary
280
     1
281
     1
  3
ACAD_XREC_ROUNDTRIP
360
14B8C
  0
DICTIONARY
  5
14B99
330
14B35
100
AcDbDictionary
280
     1
281
     1
  3
ACAD_XREC_ROUNDTRIP
360
14B9A
  0
DICTIONARY
  5
14BA1
330
14B39
100
AcDbDictionary
280
     1
281
     1
  3
ACAD_XREC_ROUNDTRIP
360
14BA2
  0
DICTIONARY
  5
14B93
330
14B32
100
AcDbDictionary
280
     1
281
     1
  3
ACAD_XREC_ROUNDTRIP
360
14B94
  0
DICTIONARY
  5
14B97
330
14B34
100
AcDbDictionary
280
     1
281
     1
  3
ACAD_XREC_ROUNDTRIP
360
14B98
  0
DICTIONARY
  5
14BB1
330
14B41
100
AcDbDictionary
280
     1
281
     1
  3
ACAD_XREC_ROUNDTRIP
360
14BB2
  0
DICTIONARY
  5
14B9F
330
14B38
100
AcDbDictionary
280
     1
281
     1
  3
ACAD_XREC_ROUNDTRIP
360
14BA0
  0
DICTIONARY
  5
14B83
330
14B2A
100
AcDbDictionary
280
     1
281
     1
  3
ACAD_XREC_ROUNDTRIP
360
14B84
  0
DICTIONARY
  5
14B85
330
14B2B
100
AcDbDictionary
280
     1
281
     1
  3
ACAD_XREC_ROUNDTRIP
360
14B86
  0
DICTIONARY
  5
14B87
330
14B2C
100
AcDbDictionary
280
     1
281
     1
  3
ACAD_XREC_ROUNDTRIP
360
14B88
  0
DICTIONARY
  5
14B89
330
14B2D
100
AcDbDictionary
280
     1
281
     1
  3
ACAD_XREC_ROUNDTRIP
360
14B8A
  0
DICTIONARY
  5
14B91
330
14B31
100
AcDbDictionary
280
     1
281
     1
  3
ACAD_XREC_ROUNDTRIP
360
14B92
  0
DICTIONARY
  5
14BAD
330
14B3F
100
AcDbDictionary
280
     1
281
     1
  3
ACAD_XREC_ROUNDTRIP
360
14BAE
  0
DICTIONARY
  5
14B9D
330
14B37
100
AcDbDictionary
280
     1
281
     1
  3
ACAD_XREC_ROUNDTRIP
360
14B9E
  0
DICTIONARY
  5
14BAF
330
14B40
100
AcDbDictionary
280
     1
281
     1
  3
ACAD_XREC_ROUNDTRIP
360
14BB0
  0
DICTIONARY
  5
14B95
330
14B33
100
AcDbDictionary
280
     1
281
     1
  3
ACAD_XREC_ROUNDTRIP
360
14B96
  0
DICTIONARY
  5
14BAB
330
14B3E
100
AcDbDictionary
280
     1
281
     1
  3
ACAD_XREC_ROUNDTRIP
360
14BAC
  0
DICTIONARY
  5
14BA9
330
14B3D
100
AcDbDictionary
280
     1
281
     1
  3
ACAD_XREC_ROUNDTRIP
360
14BAA
  0
DICTIONARY
  5
14BA3
330
14B3A
100
AcDbDictionary
280
     1
281
     1
  3
ACAD_XREC_ROUNDTRIP
360
14BA4
  0
DICTIONARY
  5
14BA5
330
14B3B
100
AcDbDictionary
280
     1
281
     1
  3
ACAD_XREC_ROUNDTRIP
360
14BA6
  0
DICTIONARY
  5
14B9B
330
14B36
100
AcDbDictionary
280
     1
281
     1
  3
ACAD_XREC_ROUNDTRIP
360
14B9C
  0
DICTIONARY
  5
14B8F
330
14B30
100
AcDbDictionary
280
     1
281
     1
  3
ACAD_XREC_ROUNDTRIP
360
14B90
  0
DICTIONARY
  5
14BA7
330
14B3C
100
AcDbDictionary
280
     1
281
     1
  3
ACAD_XREC_ROUNDTRIP
360
14BA8
  0
XRECORD
  5
14BB8
102
{ACAD_REACTORS
330
14BB7
102
}
330
14BB7
100
AcDbXrecord
280
     1
102
DISPLAYNAME
  1
Imperial24
102
FLAGS
 90
        0
  0
XRECORD
  5
14BBA
102
{ACAD_REACTORS
330
14BB9
102
}
330
14BB9
100
AcDbXrecord
280
     1
102
SHADEPLOT
 70
     0
102
SHADEPLOTRESLEVEL
 70
     2
102
SHADEPLOTCUSTOMDPI
 70
   300
  0
XRECORD
  5
14BBC
102
{ACAD_REACTORS
330
14BBB
102
}
330
14BBB
100
AcDbXrecord
280
     1
102
SHADEPLOT
 70
     0
102
SHADEPLOTRESLEVEL
 70
     2
102
SHADEPLOTCUSTOMDPI
 70
   300
  0
XRECORD
  5
14B81
102
{ACAD_REACTORS
330
14B1A
102
}
330
14B1A
100
AcDbXrecord
280
     1
102
MATERIAL
148
0.0
149
0.0
149
0.0
 93
        0
 94
      127
282
     0
 72
     0
 77
     0
171
     0
175
     0
179
     0
273
     0
  0
XRECORD
  5
14B1C
102
{ACAD_REACTORS
330
14B1A
102
}
330
14B1A
100
AcDbXrecord
280
     1
270
     1
271
     1
  0
XRECORD
  5
14B1B
102
{ACAD_REACTORS
330
14B1A
102
}
330
14B1A
100
AcDbXrecord
280
     1
270
     1
271
     1
  0
XRECORD
  5
14B1F
102
{ACAD_REACTORS
330
14B1A
102
}
330
14B1A
100
AcDbXrecord
280
     1
270
     1
271
     1
  0
XRECORD
  5
14B1E
102
{ACAD_REACTORS
330
14B1A
102
}
330
14B1A
100
AcDbXrecord
280
     1
270
     1
271
     1
  0
XRECORD
  5
14B20
102
{ACAD_REACTORS
330
14B1A
102
}
330
14B1A
100
AcDbXrecord
280
     1
270
     1
271
     1
  0
XRECORD
  5
14B1D
102
{ACAD_REACTORS
330
14B1A
102
}
330
14B1A
100
AcDbXrecord
280
     1
270
     1
271
     1
  0
XRECORD
  5
14B80
102
{ACAD_REACTORS
330
14B12
102
}
330
14B12
100
AcDbXrecord
280
     1
102
MATERIAL
148
0.0
149
0.0
149
0.0
 93
        0
 94
      127
282
     0
 72
     0
 77
     0
171
     0
175
     0
179
     0
273
     0
  0
XRECORD
  5
14B14
102
{ACAD_REACTORS
330
14B12
102
}
330
14B12
100
AcDbXrecord
280
     1
270
     1
271
     1
  0
XRECORD
  5
14B13
102
{ACAD_REACTORS
330
14B12
102
}
330
14B12
100
AcDbXrecord
280
     1
270
     1
271
     1
  0
XRECORD
  5
14B17
102
{ACAD_REACTORS
330
14B12
102
}
330
14B12
100
AcDbXrecord
280
     1
270
     1
271
     1
  0
XRECORD
  5
14B16
102
{ACAD_REACTORS
330
14B12
102
}
330
14B12
100
AcDbXrecord
280
     1
270
     1
271
     1
  0
XRECORD
  5
14B18
102
{ACAD_REACTORS
330
14B12
102
}
330
14B12
100
AcDbXrecord
280
     1
270
     1
271
     1
  0
XRECORD
  5
14B15
102
{ACAD_REACTORS
330
14B12
102
}
330
14B12
100
AcDbXrecord
280
     1
270
     1
271
     1
  0
XRECORD
  5
14B82
102
{ACAD_REACTORS
330
14B22
102
}
330
14B22
100
AcDbXrecord
280
     1
102
MATERIAL
148
0.0
149
0.0
149
0.0
 93
        0
 94
      127
282
     0
 72
     0
 77
     0
171
     0
175
     0
179
     0
273
     0
  0
XRECORD
  5
14B24
102
{ACAD_REACTORS
330
14B22
102
}
330
14B22
100
AcDbXrecord
280
     1
270
     1
271
     1
  0
XRECORD
  5
14B23
102
{ACAD_REACTORS
330
14B22
102
}
330
14B22
100
AcDbXrecord
280
     1
270
     1
271
     1
  0
XRECORD
  5
14B27
102
{ACAD_REACTORS
330
14B22
102
}
330
14B22
100
AcDbXrecord
280
     1
270
     1
271
     1
  0
XRECORD
  5
14B26
102
{ACAD_REACTORS
330
14B22
102
}
330
14B22
100
AcDbXrecord
280
     1
270
     1
271
     1
  0
XRECORD
  5
14B28
102
{ACAD_REACTORS
330
14B22
102
}
330
14B22
100
AcDbXrecord
280
     1
270
     1
271
     1
  0
XRECORD
  5
14B25
102
{ACAD_REACTORS
330
14B22
102
}
330
14B22
100
AcDbXrecord
280
     1
270
     1
271
     1
  0
XRECORD
  5
14BB6
102
{ACAD_REACTORS
330
14BB5
102
}
330
14BB5
100
AcDbXrecord
280
     1
102
DISPLAYNAME
  1
Imperial24
102
FLAGS
 90
        0
  0
CELLSTYLEMAP
  5
14B7D
102
{ACAD_REACTORS
330
14B7C
102
}
330
14B7C
100
AcDbCellStyleMap
 90
        3
300
CELLSTYLE
  1
TABLEFORMAT_BEGIN
 90
        5
170
     1
 91
        0
 92
    32768
 62
   257
 93
        1
300
CONTENTFORMAT
  1
CONTENTFORMAT_BEGIN
 90
        0
 91
        0
 92
      512
 93
        0
300

 40
0.0
140
1.0
 94
        5
 62
     0
340
1479F
144
0.25
309
CONTENTFORMAT_END
171
     0
 94
        0
309
TABLEFORMAT_END
  1
CELLSTYLE_BEGIN
 90
        1
 91
        1
300
_TITLE
309
CELLSTYLE_END
300
CELLSTYLE
  1
TABLEFORMAT_BEGIN
 90
        5
170
     1
 91
        0
 92
        0
 62
   257
 93
        1
300
CONTENTFORMAT
  1
CONTENTFORMAT_BEGIN
 90
        0
 91
        0
 92
      512
 93
        0
300

 40
0.0
140
1.0
 94
        5
 62
     0
340
1479F
144
0.18
309
CONTENTFORMAT_END
171
     0
 94
        0
309
TABLEFORMAT_END
  1
CELLSTYLE_BEGIN
 90
        2
 91
        1
300
_HEADER
309
CELLSTYLE_END
300
CELLSTYLE
  1
TABLEFORMAT_BEGIN
 90
        5
170
     1
 91
        0
 92
        0
 62
   257
 93
        1
300
CONTENTFORMAT
  1
CONTENTFORMAT_BEGIN
 90
        0
 91
        0
 92
      512
 93
        0
300

 40
0.0
140
1.0
 94
        2
 62
     0
340
1479F
144
0.18
309
CONTENTFORMAT_END
171
     0
 94
        0
309
TABLEFORMAT_END
  1
CELLSTYLE_BEGIN
 90
        3
 91
        2
300
_DATA
309
CELLSTYLE_END
  0
XRECORD
  5
14BB3
102
{ACAD_REACTORS
330
14B7C
102
}
330
14B7C
100
AcDbXrecord
280
     1
102
ACAD_ROUNDTRIP_PRE2007_TABLESTYLE
 90
      512
 91
        0
  1

 92
      512
 93
        0
  2

 94
      512
 95
        0
  3

  0
XRECORD
  5
14B8E
102
{ACAD_REACTORS
330
14B8D
102
}
330
14B8D
100
AcDbXrecord
280
     1
102
RTVSPost2010Prop28
280
     1
102
RTVSPost2010PropOp28
 70
     1
102
RTVSPost2010Prop29
280
     1
102
RTVSPost2010PropOp29
 70
     1
102
RTVSPost2010Prop30
280
     0
102
RTVSPost2010PropOp30
 70
     1
102
RTVSPost2010Prop31
280
     0
102
RTVSPost2010PropOp31
 70
     1
102
RTVSPost2010Prop32
280
     0
102
RTVSPost2010PropOp32
 70
     1
102
RTVSPost2010Prop33
280
     0
102
RTVSPost2010PropOp33
 70
     1
102
RTVSPost2010Prop34
280
     0
102
RTVSPost2010PropOp34
 70
     1
102
RTVSPost2010Prop35
280
     0
102
RTVSPost2010PropOp35
 70
     1
102
RTVSPost2010Prop36
280
     0
102
RTVSPost2010PropOp36
 70
     1
102
RTVSPost2010Prop37
 90
       50
102
RTVSPost2010PropOp37
 70
     1
102
RTVSPost2010Prop38
140
0.0
102
RTVSPost2010PropOp38
 70
     1
102
RTVSPost2010Prop39
140
1.0
102
RTVSPost2010PropOp39
 70
     1
102
RTVSPost2010Prop40
 90
        0
102
RTVSPost2010PropOp40
 70
     1
102
RTVSPost2010Prop41ColorIndex
 90
       18
102
RTVSPost2010Prop41ColorRGB
 90
        0
102
RTVSPost2010PropOp41
 70
     1
102
RTVSPost2010Prop42
 90
       50
102
RTVSPost2010PropOp42
 70
     1
102
RTVSPost2010Prop43
 90
        3
102
RTVSPost2010PropOp43
 70
     1
102
RTVSPost2010Prop44ColorIndex
 90
        5
102
RTVSPost2010Prop44ColorRGB
 90
      255
102
RTVSPost2010PropOp44
 70
     1
102
RTVSPost2010Prop45
280
     0
102
RTVSPost2010PropOp45
 70
     1
102
RTVSPost2010Prop46
 90
       50
102
RTVSPost2010PropOp46
 70
     1
102
RTVSPost2010Prop47
 90
       50
102
RTVSPost2010PropOp47
 70
     1
102
RTVSPost2010Prop48
 90
       50
102
RTVSPost2010PropOp48
 70
     1
102
RTVSPost2010Prop49
280
     0
102
RTVSPost2010PropOp49
 70
     1
102
RTVSPost2010Prop50
 90
       50
102
RTVSPost2010PropOp50
 70
     1
102
RTVSPost2010Prop51ColorIndex
 90
      256
102
RTVSPost2010Prop51ColorRGB
 90
-16777216
102
RTVSPost2010PropOp51
 70
     0
102
RTVSPost2010Prop52
140
1.0
102
RTVSPost2010PropOp52
 70
     0
102
RTVSPost2010Prop53
 90
        2
102
RTVSPost2010PropOp53
 70
     1
102
RTVSPost2010Prop54
  1
strokes_ogs.tif
102
RTVSPost2010PropOp54
 70
     1
102
RTVSPost2010Prop55
280
     0
102
RTVSPost2010PropOp55
 70
     1
102
RTVSPost2010Prop56
140
1.0
102
RTVSPost2010PropOp56
 70
     1
102
RTVSPost2010Prop57
140
1.0
102
RTVSPost2010PropOp57
 70
     1
102
RTVSPropertyOp0
 70
     1
102
RTVSPropertyOp1
 70
     1
102
RTVSPropertyOp2
 70
     1
102
RTVSPropertyOp3
 70
     1
102
RTVSPropertyOp4
 70
     1
102
RTVSPropertyOp5
 70
     1
102
RTVSPropertyOp6
 70
     1
102
RTVSPropertyOp7
 70
     1
102
RTVSPropertyOp8
 70
     1
102
RTVSPropertyOp9
 70
     1
102
RTVSPropertyOp10
 70
     1
102
RTVSPropertyOp11
 70
     1
102
RTVSPropertyOp12
 70
     1
102
RTVSPropertyOp13
 70
     1
102
RTVSPropertyOp14
 70
     1
102
RTVSPropertyOp15
 70
     1
102
RTVSPropertyOp16
 70
     1
102
RTVSPropertyOp17
 70
     1
102
RTVSPropertyOp18
 70
     1
102
RTVSPropertyOp19
 70
     1
102
RTVSPropertyOp20
 70
     1
102
RTVSPropertyOp21
 70
     1
102
RTVSPropertyOp22
 70
     1
102
RTVSPropertyOp23
 70
     1
102
RTVSPropertyOp24
 70
     1
102
RTVSPropertyOp25
 70
     1
102
RTVSPropertyOp26
 70
     1
102
RTVSPropertyOp27
 70
     1
102
RTVSPropertyOp28
 70
     1
102
RTVSPropertyOp29
 70
     1
102
RTVSPropertyOp30
 70
     1
102
RTVSPropertyOp31
 70
     1
102
RTVSPropertyOp32
 70
     1
102
RTVSPropertyOp33
 70
     1
102
RTVSPropertyOp34
 70
     1
102
RTVSPropertyOp35
 70
     1
102
RTVSPropertyOp36
 70
     1
102
RTVSPropertyOp37
 70
     1
102
RTVSPropertyOp38
 70
     1
102
RTVSPropertyOp39
 70
     1
102
RTVSPropertyOp40
 70
     1
102
RTVSPropertyOp41
 70
     1
102
RTVSPropertyOp42
 70
     1
102
RTVSPropertyOp43
 70
     1
102
RTVSPropertyOp44
 70
     1
102
RTVSPropertyOp45
 70
     1
102
RTVSPropertyOp46
 70
     1
102
RTVSPropertyOp47
 70
     1
102
RTVSPropertyOp48
 70
     1
102
RTVSPropertyOp49
 70
     1
102
RTVSPropertyOp50
 70
     1
102
RTVSPropertyOp51
 70
     0
102
RTVSPropertyOp52
 70
     0
102
RTVSPropertyOp53
 70
     1
102
RTVSPropertyOp54
 70
     1
102
RTVSPropertyOp55
 70
     1
102
RTVSPropertyOp56
 70
     1
102
RTVSPropertyOp57
 70
     1
102
RTVSPropertyOp58
 70
     1
102
RTVSPropertyOp59
 70
     1
102
RTVSPropertyOp60
 70
     1
102
RTVSPropertyOp61
 70
     1
102
RTVSPropertyOp62
 70
     1
  0
XRECORD
  5
14B8C
102
{ACAD_REACTORS
330
14B8B
102
}
330
14B8B
100
AcDbXrecord
280
     1
102
RTVSPost2010Prop28
280
     0
102
RTVSPost2010PropOp28
 70
     1
102
RTVSPost2010Prop29
280
     1
102
RTVSPost2010PropOp29
 70
     1
102
RTVSPost2010Prop30
280
     1
102
RTVSPost2010PropOp30
 70
     1
102
RTVSPost2010Prop31
280
     0
102
RTVSPost2010PropOp31
 70
     1
102
RTVSPost2010Prop32
280
     0
102
RTVSPost2010PropOp32
 70
     1
102
RTVSPost2010Prop33
280
     0
102
RTVSPost2010PropOp33
 70
     1
102
RTVSPost2010Prop34
280
     0
102
RTVSPost2010PropOp34
 70
     1
102
RTVSPost2010Prop35
280
     0
102
RTVSPost2010PropOp35
 70
     1
102
RTVSPost2010Prop36
280
     0
102
RTVSPost2010PropOp36
 70
     1
102
RTVSPost2010Prop37
 90
       50
102
RTVSPost2010PropOp37
 70
     1
102
RTVSPost2010Prop38
140
0.0
102
RTVSPost2010PropOp38
 70
     1
102
RTVSPost2010Prop39
140
1.0
102
RTVSPost2010PropOp39
 70
     1
102
RTVSPost2010Prop40
 90
        0
102
RTVSPost2010PropOp40
 70
     1
102
RTVSPost2010Prop41ColorIndex
 90
       18
102
RTVSPost2010Prop41ColorRGB
 90
        0
102
RTVSPost2010PropOp41
 70
     1
102
RTVSPost2010Prop42
 90
       50
102
RTVSPost2010PropOp42
 70
     1
102
RTVSPost2010Prop43
 90
        3
102
RTVSPost2010PropOp43
 70
     1
102
RTVSPost2010Prop44ColorIndex
 90
        5
102
RTVSPost2010Prop44ColorRGB
 90
      255
102
RTVSPost2010PropOp44
 70
     1
102
RTVSPost2010Prop45
280
     0
102
RTVSPost2010PropOp45
 70
     1
102
RTVSPost2010Prop46
 90
       50
102
RTVSPost2010PropOp46
 70
     1
102
RTVSPost2010Prop47
 90
       50
102
RTVSPost2010PropOp47
 70
     1
102
RTVSPost2010Prop48
 90
       50
102
RTVSPost2010PropOp48
 70
     1
102
RTVSPost2010Prop49
280
     0
102
RTVSPost2010PropOp49
 70
     1
102
RTVSPost2010Prop50
 90
       50
102
RTVSPost2010PropOp50
 70
     1
102
RTVSPost2010Prop51ColorIndex
 90
      256
102
RTVSPost2010Prop51ColorRGB
 90
-16777216
102
RTVSPost2010PropOp51
 70
     0
102
RTVSPost2010Prop52
140
1.0
102
RTVSPost2010PropOp52
 70
     0
102
RTVSPost2010Prop53
 90
        2
102
RTVSPost2010PropOp53
 70
     1
102
RTVSPost2010Prop54
  1
strokes_ogs.tif
102
RTVSPost2010PropOp54
 70
     1
102
RTVSPost2010Prop55
280
     0
102
RTVSPost2010PropOp55
 70
     1
102
RTVSPost2010Prop56
140
1.0
102
RTVSPost2010PropOp56
 70
     1
102
RTVSPost2010Prop57
140
1.0
102
RTVSPost2010PropOp57
 70
     1
102
RTVSPropertyOp0
 70
     1
102
RTVSPropertyOp1
 70
     1
102
RTVSPropertyOp2
 70
     1
102
RTVSPropertyOp3
 70
     1
102
RTVSPropertyOp4
 70
     1
102
RTVSPropertyOp5
 70
     1
102
RTVSPropertyOp6
 70
     1
102
RTVSPropertyOp7
 70
     1
102
RTVSPropertyOp8
 70
     1
102
RTVSPropertyOp9
 70
     1
102
RTVSPropertyOp10
 70
     1
102
RTVSPropertyOp11
 70
     1
102
RTVSPropertyOp12
 70
     1
102
RTVSPropertyOp13
 70
     1
102
RTVSPropertyOp14
 70
     1
102
RTVSPropertyOp15
 70
     1
102
RTVSPropertyOp16
 70
     1
102
RTVSPropertyOp17
 70
     1
102
RTVSPropertyOp18
 70
     1
102
RTVSPropertyOp19
 70
     1
102
RTVSPropertyOp20
 70
     1
102
RTVSPropertyOp21
 70
     1
102
RTVSPropertyOp22
 70
     1
102
RTVSPropertyOp23
 70
     1
102
RTVSPropertyOp24
 70
     1
102
RTVSPropertyOp25
 70
     1
102
RTVSPropertyOp26
 70
     1
102
RTVSPropertyOp27
 70
     1
102
RTVSPropertyOp28
 70
     1
102
RTVSPropertyOp29
 70
     1
102
RTVSPropertyOp30
 70
     1
102
RTVSPropertyOp31
 70
     1
102
RTVSPropertyOp32
 70
     1
102
RTVSPropertyOp33
 70
     1
102
RTVSPropertyOp34
 70
     1
102
RTVSPropertyOp35
 70
     1
102
RTVSPropertyOp36
 70
     1
102
RTVSPropertyOp37
 70
     1
102
RTVSPropertyOp38
 70
     1
102
RTVSPropertyOp39
 70
     1
102
RTVSPropertyOp40
 70
     1
102
RTVSPropertyOp41
 70
     1
102
RTVSPropertyOp42
 70
     1
102
RTVSPropertyOp43
 70
     1
102
RTVSPropertyOp44
 70
     1
102
RTVSPropertyOp45
 70
     1
102
RTVSPropertyOp46
 70
     1
102
RTVSPropertyOp47
 70
     1
102
RTVSPropertyOp48
 70
     1
102
RTVSPropertyOp49
 70
     1
102
RTVSPropertyOp50
 70
     1
102
RTVSPropertyOp51
 70
     0
102
RTVSPropertyOp52
 70
     0
102
RTVSPropertyOp53
 70
     1
102
RTVSPropertyOp54
 70
     1
102
RTVSPropertyOp55
 70
     1
102
RTVSPropertyOp56
 70
     1
102
RTVSPropertyOp57
 70
     1
102
RTVSPropertyOp58
 70
     1
102
RTVSPropertyOp59
 70
     1
102
RTVSPropertyOp60
 70
     1
102
RTVSPropertyOp61
 70
     1
102
RTVSPropertyOp62
 70
     1
  0
XRECORD
  5
14B9A
102
{ACAD_REACTORS
330
14B99
102
}
330
14B99
100
AcDbXrecord
280
     1
102
RTVSPost2010Prop28
280
     0
102
RTVSPost2010PropOp28
 70
     1
102
RTVSPost2010Prop29
280
     1
102
RTVSPost2010PropOp29
 70
     1
102
RTVSPost2010Prop30
280
     1
102
RTVSPost2010PropOp30
 70
     1
102
RTVSPost2010Prop31
280
     0
102
RTVSPost2010PropOp31
 70
     1
102
RTVSPost2010Prop32
280
     0
102
RTVSPost2010PropOp32
 70
     1
102
RTVSPost2010Prop33
280
     0
102
RTVSPost2010PropOp33
 70
     1
102
RTVSPost2010Prop34
280
     0
102
RTVSPost2010PropOp34
 70
     1
102
RTVSPost2010Prop35
280
     0
102
RTVSPost2010PropOp35
 70
     1
102
RTVSPost2010Prop36
280
     0
102
RTVSPost2010PropOp36
 70
     1
102
RTVSPost2010Prop37
 90
       50
102
RTVSPost2010PropOp37
 70
     1
102
RTVSPost2010Prop38
140
0.0
102
RTVSPost2010PropOp38
 70
     1
102
RTVSPost2010Prop39
140
1.0
102
RTVSPost2010PropOp39
 70
     1
102
RTVSPost2010Prop40
 90
        0
102
RTVSPost2010PropOp40
 70
     1
102
RTVSPost2010Prop41ColorIndex
 90
       18
102
RTVSPost2010Prop41ColorRGB
 90
        0
102
RTVSPost2010PropOp41
 70
     1
102
RTVSPost2010Prop42
 90
       50
102
RTVSPost2010PropOp42
 70
     1
102
RTVSPost2010Prop43
 90
        3
102
RTVSPost2010PropOp43
 70
     1
102
RTVSPost2010Prop44ColorIndex
 90
        5
102
RTVSPost2010Prop44ColorRGB
 90
      255
102
RTVSPost2010PropOp44
 70
     1
102
RTVSPost2010Prop45
280
     0
102
RTVSPost2010PropOp45
 70
     1
102
RTVSPost2010Prop46
 90
       50
102
RTVSPost2010PropOp46
 70
     1
102
RTVSPost2010Prop47
 90
       50
102
RTVSPost2010PropOp47
 70
     1
102
RTVSPost2010Prop48
 90
       50
102
RTVSPost2010PropOp48
 70
     1
102
RTVSPost2010Prop49
280
     0
102
RTVSPost2010PropOp49
 70
     1
102
RTVSPost2010Prop50
 90
       50
102
RTVSPost2010PropOp50
 70
     1
102
RTVSPost2010Prop51ColorIndex
 90
      256
102
RTVSPost2010Prop51ColorRGB
 90
-16777216
102
RTVSPost2010PropOp51
 70
     0
102
RTVSPost2010Prop52
140
1.0
102
RTVSPost2010PropOp52
 70
     0
102
RTVSPost2010Prop53
 90
        2
102
RTVSPost2010PropOp53
 70
     1
102
RTVSPost2010Prop54
  1
strokes_ogs.tif
102
RTVSPost2010PropOp54
 70
     1
102
RTVSPost2010Prop55
280
     0
102
RTVSPost2010PropOp55
 70
     1
102
RTVSPost2010Prop56
140
1.0
102
RTVSPost2010PropOp56
 70
     1
102
RTVSPost2010Prop57
140
1.0
102
RTVSPost2010PropOp57
 70
     1
102
RTVSPropertyOp0
 70
     1
102
RTVSPropertyOp1
 70
     1
102
RTVSPropertyOp2
 70
     1
102
RTVSPropertyOp3
 70
     1
102
RTVSPropertyOp4
 70
     1
102
RTVSPropertyOp5
 70
     1
102
RTVSPropertyOp6
 70
     1
102
RTVSPropertyOp7
 70
     1
102
RTVSPropertyOp8
 70
     1
102
RTVSPropertyOp9
 70
     1
102
RTVSPropertyOp10
 70
     1
102
RTVSPropertyOp11
 70
     1
102
RTVSPropertyOp12
 70
     1
102
RTVSPropertyOp13
 70
     1
102
RTVSPropertyOp14
 70
     1
102
RTVSPropertyOp15
 70
     1
102
RTVSPropertyOp16
 70
     1
102
RTVSPropertyOp17
 70
     1
102
RTVSPropertyOp18
 70
     1
102
RTVSPropertyOp19
 70
     1
102
RTVSPropertyOp20
 70
     1
102
RTVSPropertyOp21
 70
     1
102
RTVSPropertyOp22
 70
     1
102
RTVSPropertyOp23
 70
     1
102
RTVSPropertyOp24
 70
     1
102
RTVSPropertyOp25
 70
     1
102
RTVSPropertyOp26
 70
     1
102
RTVSPropertyOp27
 70
     1
102
RTVSPropertyOp28
 70
     1
102
RTVSPropertyOp29
 70
     1
102
RTVSPropertyOp30
 70
     1
102
RTVSPropertyOp31
 70
     1
102
RTVSPropertyOp32
 70
     1
102
RTVSPropertyOp33
 70
     1
102
RTVSPropertyOp34
 70
     1
102
RTVSPropertyOp35
 70
     1
102
RTVSPropertyOp36
 70
     1
102
RTVSPropertyOp37
 70
     1
102
RTVSPropertyOp38
 70
     1
102
RTVSPropertyOp39
 70
     1
102
RTVSPropertyOp40
 70
     1
102
RTVSPropertyOp41
 70
     1
102
RTVSPropertyOp42
 70
     1
102
RTVSPropertyOp43
 70
     1
102
RTVSPropertyOp44
 70
     1
102
RTVSPropertyOp45
 70
     1
102
RTVSPropertyOp46
 70
     1
102
RTVSPropertyOp47
 70
     1
102
RTVSPropertyOp48
 70
     1
102
RTVSPropertyOp49
 70
     1
102
RTVSPropertyOp50
 70
     1
102
RTVSPropertyOp51
 70
     0
102
RTVSPropertyOp52
 70
     0
102
RTVSPropertyOp53
 70
     1
102
RTVSPropertyOp54
 70
     1
102
RTVSPropertyOp55
 70
     1
102
RTVSPropertyOp56
 70
     1
102
RTVSPropertyOp57
 70
     1
102
RTVSPropertyOp58
 70
     1
102
RTVSPropertyOp59
 70
     1
102
RTVSPropertyOp60
 70
     1
102
RTVSPropertyOp61
 70
     1
102
RTVSPropertyOp62
 70
     1
  0
XRECORD
  5
14BA2
102
{ACAD_REACTORS
330
14BA1
102
}
330
14BA1
100
AcDbXrecord
280
     1
102
RTVSPost2010Prop28
280
     0
102
RTVSPost2010PropOp28
 70
     1
102
RTVSPost2010Prop29
280
     1
102
RTVSPost2010PropOp29
 70
     1
102
RTVSPost2010Prop30
280
     1
102
RTVSPost2010PropOp30
 70
     1
102
RTVSPost2010Prop31
280
     0
102
RTVSPost2010PropOp31
 70
     1
102
RTVSPost2010Prop32
280
     0
102
RTVSPost2010PropOp32
 70
     1
102
RTVSPost2010Prop33
280
     0
102
RTVSPost2010PropOp33
 70
     1
102
RTVSPost2010Prop34
280
     0
102
RTVSPost2010PropOp34
 70
     1
102
RTVSPost2010Prop35
280
     0
102
RTVSPost2010PropOp35
 70
     1
102
RTVSPost2010Prop36
280
     0
102
RTVSPost2010PropOp36
 70
     1
102
RTVSPost2010Prop37
 90
       50
102
RTVSPost2010PropOp37
 70
     1
102
RTVSPost2010Prop38
140
0.0
102
RTVSPost2010PropOp38
 70
     1
102
RTVSPost2010Prop39
140
1.0
102
RTVSPost2010PropOp39
 70
     1
102
RTVSPost2010Prop40
 90
        0
102
RTVSPost2010PropOp40
 70
     1
102
RTVSPost2010Prop41ColorIndex
 90
       18
102
RTVSPost2010Prop41ColorRGB
 90
        0
102
RTVSPost2010PropOp41
 70
     1
102
RTVSPost2010Prop42
 90
       50
102
RTVSPost2010PropOp42
 70
     1
102
RTVSPost2010Prop43
 90
        3
102
RTVSPost2010PropOp43
 70
     1
102
RTVSPost2010Prop44ColorIndex
 90
        5
102
RTVSPost2010Prop44ColorRGB
 90
      255
102
RTVSPost2010PropOp44
 70
     1
102
RTVSPost2010Prop45
280
     0
102
RTVSPost2010PropOp45
 70
     1
102
RTVSPost2010Prop46
 90
       50
102
RTVSPost2010PropOp46
 70
     1
102
RTVSPost2010Prop47
 90
       50
102
RTVSPost2010PropOp47
 70
     1
102
RTVSPost2010Prop48
 90
       50
102
RTVSPost2010PropOp48
 70
     1
102
RTVSPost2010Prop49
280
     0
102
RTVSPost2010PropOp49
 70
     1
102
RTVSPost2010Prop50
 90
       50
102
RTVSPost2010PropOp50
 70
     1
102
RTVSPost2010Prop51ColorIndex
 90
      256
102
RTVSPost2010Prop51ColorRGB
 90
-16777216
102
RTVSPost2010PropOp51
 70
     0
102
RTVSPost2010Prop52
140
1.0
102
RTVSPost2010PropOp52
 70
     0
102
RTVSPost2010Prop53
 90
        2
102
RTVSPost2010PropOp53
 70
     1
102
RTVSPost2010Prop54
  1
strokes_ogs.tif
102
RTVSPost2010PropOp54
 70
     1
102
RTVSPost2010Prop55
280
     0
102
RTVSPost2010PropOp55
 70
     1
102
RTVSPost2010Prop56
140
1.0
102
RTVSPost2010PropOp56
 70
     1
102
RTVSPost2010Prop57
140
1.0
102
RTVSPost2010PropOp57
 70
     1
102
RTVSPropertyOp0
 70
     1
102
RTVSPropertyOp1
 70
     1
102
RTVSPropertyOp2
 70
     1
102
RTVSPropertyOp3
 70
     1
102
RTVSPropertyOp4
 70
     1
102
RTVSPropertyOp5
 70
     1
102
RTVSPropertyOp6
 70
     1
102
RTVSPropertyOp7
 70
     1
102
RTVSPropertyOp8
 70
     1
102
RTVSPropertyOp9
 70
     1
102
RTVSPropertyOp10
 70
     1
102
RTVSPropertyOp11
 70
     1
102
RTVSPropertyOp12
 70
     1
102
RTVSPropertyOp13
 70
     1
102
RTVSPropertyOp14
 70
     1
102
RTVSPropertyOp15
 70
     1
102
RTVSPropertyOp16
 70
     1
102
RTVSPropertyOp17
 70
     1
102
RTVSPropertyOp18
 70
     1
102
RTVSPropertyOp19
 70
     1
102
RTVSPropertyOp20
 70
     1
102
RTVSPropertyOp21
 70
     1
102
RTVSPropertyOp22
 70
     1
102
RTVSPropertyOp23
 70
     1
102
RTVSPropertyOp24
 70
     1
102
RTVSPropertyOp25
 70
     1
102
RTVSPropertyOp26
 70
     1
102
RTVSPropertyOp27
 70
     1
102
RTVSPropertyOp28
 70
     1
102
RTVSPropertyOp29
 70
     1
102
RTVSPropertyOp30
 70
     1
102
RTVSPropertyOp31
 70
     1
102
RTVSPropertyOp32
 70
     1
102
RTVSPropertyOp33
 70
     1
102
RTVSPropertyOp34
 70
     1
102
RTVSPropertyOp35
 70
     1
102
RTVSPropertyOp36
 70
     1
102
RTVSPropertyOp37
 70
     1
102
RTVSPropertyOp38
 70
     1
102
RTVSPropertyOp39
 70
     1
102
RTVSPropertyOp40
 70
     1
102
RTVSPropertyOp41
 70
     1
102
RTVSPropertyOp42
 70
     1
102
RTVSPropertyOp43
 70
     1
102
RTVSPropertyOp44
 70
     1
102
RTVSPropertyOp45
 70
     1
102
RTVSPropertyOp46
 70
     1
102
RTVSPropertyOp47
 70
     1
102
RTVSPropertyOp48
 70
     1
102
RTVSPropertyOp49
 70
     1
102
RTVSPropertyOp50
 70
     1
102
RTVSPropertyOp51
 70
     0
102
RTVSPropertyOp52
 70
     0
102
RTVSPropertyOp53
 70
     1
102
RTVSPropertyOp54
 70
     1
102
RTVSPropertyOp55
 70
     1
102
RTVSPropertyOp56
 70
     1
102
RTVSPropertyOp57
 70
     1
102
RTVSPropertyOp58
 70
     1
102
RTVSPropertyOp59
 70
     1
102
RTVSPropertyOp60
 70
     1
102
RTVSPropertyOp61
 70
     1
102
RTVSPropertyOp62
 70
     1
  0
XRECORD
  5
14B94
102
{ACAD_REACTORS
330
14B93
102
}
330
14B93
100
AcDbXrecord
280
     1
102
RTVSPost2010Prop28
280
     0
102
RTVSPost2010PropOp28
 70
     1
102
RTVSPost2010Prop29
280
     1
102
RTVSPost2010PropOp29
 70
     1
102
RTVSPost2010Prop30
280
     1
102
RTVSPost2010PropOp30
 70
     1
102
RTVSPost2010Prop31
280
     0
102
RTVSPost2010PropOp31
 70
     1
102
RTVSPost2010Prop32
280
     0
102
RTVSPost2010PropOp32
 70
     1
102
RTVSPost2010Prop33
280
     0
102
RTVSPost2010PropOp33
 70
     1
102
RTVSPost2010Prop34
280
     0
102
RTVSPost2010PropOp34
 70
     1
102
RTVSPost2010Prop35
280
     0
102
RTVSPost2010PropOp35
 70
     1
102
RTVSPost2010Prop36
280
     0
102
RTVSPost2010PropOp36
 70
     1
102
RTVSPost2010Prop37
 90
       50
102
RTVSPost2010PropOp37
 70
     1
102
RTVSPost2010Prop38
140
0.0
102
RTVSPost2010PropOp38
 70
     1
102
RTVSPost2010Prop39
140
1.0
102
RTVSPost2010PropOp39
 70
     1
102
RTVSPost2010Prop40
 90
        0
102
RTVSPost2010PropOp40
 70
     1
102
RTVSPost2010Prop41ColorIndex
 90
       18
102
RTVSPost2010Prop41ColorRGB
 90
        0
102
RTVSPost2010PropOp41
 70
     1
102
RTVSPost2010Prop42
 90
       50
102
RTVSPost2010PropOp42
 70
     1
102
RTVSPost2010Prop43
 90
        3
102
RTVSPost2010PropOp43
 70
     1
102
RTVSPost2010Prop44ColorIndex
 90
        5
102
RTVSPost2010Prop44ColorRGB
 90
      255
102
RTVSPost2010PropOp44
 70
     1
102
RTVSPost2010Prop45
280
     0
102
RTVSPost2010PropOp45
 70
     1
102
RTVSPost2010Prop46
 90
       50
102
RTVSPost2010PropOp46
 70
     1
102
RTVSPost2010Prop47
 90
       50
102
RTVSPost2010PropOp47
 70
     1
102
RTVSPost2010Prop48
 90
       50
102
RTVSPost2010PropOp48
 70
     1
102
RTVSPost2010Prop49
280
     0
102
RTVSPost2010PropOp49
 70
     1
102
RTVSPost2010Prop50
 90
       50
102
RTVSPost2010PropOp50
 70
     1
102
RTVSPost2010Prop51ColorIndex
 90
      256
102
RTVSPost2010Prop51ColorRGB
 90
-16777216
102
RTVSPost2010PropOp51
 70
     0
102
RTVSPost2010Prop52
140
1.0
102
RTVSPost2010PropOp52
 70
     0
102
RTVSPost2010Prop53
 90
        2
102
RTVSPost2010PropOp53
 70
     1
102
RTVSPost2010Prop54
  1
strokes_ogs.tif
102
RTVSPost2010PropOp54
 70
     1
102
RTVSPost2010Prop55
280
     0
102
RTVSPost2010PropOp55
 70
     1
102
RTVSPost2010Prop56
140
1.0
102
RTVSPost2010PropOp56
 70
     1
102
RTVSPost2010Prop57
140
1.0
102
RTVSPost2010PropOp57
 70
     1
102
RTVSPropertyOp0
 70
     1
102
RTVSPropertyOp1
 70
     1
102
RTVSPropertyOp2
 70
     1
102
RTVSPropertyOp3
 70
     1
102
RTVSPropertyOp4
 70
     1
102
RTVSPropertyOp5
 70
     1
102
RTVSPropertyOp6
 70
     1
102
RTVSPropertyOp7
 70
     1
102
RTVSPropertyOp8
 70
     1
102
RTVSPropertyOp9
 70
     1
102
RTVSPropertyOp10
 70
     1
102
RTVSPropertyOp11
 70
     1
102
RTVSPropertyOp12
 70
     1
102
RTVSPropertyOp13
 70
     1
102
RTVSPropertyOp14
 70
     1
102
RTVSPropertyOp15
 70
     1
102
RTVSPropertyOp16
 70
     1
102
RTVSPropertyOp17
 70
     1
102
RTVSPropertyOp18
 70
     1
102
RTVSPropertyOp19
 70
     1
102
RTVSPropertyOp20
 70
     1
102
RTVSPropertyOp21
 70
     1
102
RTVSPropertyOp22
 70
     1
102
RTVSPropertyOp23
 70
     1
102
RTVSPropertyOp24
 70
     1
102
RTVSPropertyOp25
 70
     1
102
RTVSPropertyOp26
 70
     1
102
RTVSPropertyOp27
 70
     1
102
RTVSPropertyOp28
 70
     1
102
RTVSPropertyOp29
 70
     1
102
RTVSPropertyOp30
 70
     1
102
RTVSPropertyOp31
 70
     1
102
RTVSPropertyOp32
 70
     1
102
RTVSPropertyOp33
 70
     1
102
RTVSPropertyOp34
 70
     1
102
RTVSPropertyOp35
 70
     1
102
RTVSPropertyOp36
 70
     1
102
RTVSPropertyOp37
 70
     1
102
RTVSPropertyOp38
 70
     1
102
RTVSPropertyOp39
 70
     1
102
RTVSPropertyOp40
 70
     1
102
RTVSPropertyOp41
 70
     1
102
RTVSPropertyOp42
 70
     1
102
RTVSPropertyOp43
 70
     1
102
RTVSPropertyOp44
 70
     1
102
RTVSPropertyOp45
 70
     1
102
RTVSPropertyOp46
 70
     1
102
RTVSPropertyOp47
 70
     1
102
RTVSPropertyOp48
 70
     1
102
RTVSPropertyOp49
 70
     1
102
RTVSPropertyOp50
 70
     1
102
RTVSPropertyOp51
 70
     0
102
RTVSPropertyOp52
 70
     0
102
RTVSPropertyOp53
 70
     1
102
RTVSPropertyOp54
 70
     1
102
RTVSPropertyOp55
 70
     1
102
RTVSPropertyOp56
 70
     1
102
RTVSPropertyOp57
 70
     1
102
RTVSPropertyOp58
 70
     1
102
RTVSPropertyOp59
 70
     1
102
RTVSPropertyOp60
 70
     1
102
RTVSPropertyOp61
 70
     1
102
RTVSPropertyOp62
 70
     1
  0
XRECORD
  5
14B98
102
{ACAD_REACTORS
330
14B97
102
}
330
14B97
100
AcDbXrecord
280
     1
102
RTVSPost2010Prop28
280
     0
102
RTVSPost2010PropOp28
 70
     1
102
RTVSPost2010Prop29
280
     1
102
RTVSPost2010PropOp29
 70
     1
102
RTVSPost2010Prop30
280
     1
102
RTVSPost2010PropOp30
 70
     1
102
RTVSPost2010Prop31
280
     0
102
RTVSPost2010PropOp31
 70
     1
102
RTVSPost2010Prop32
280
     0
102
RTVSPost2010PropOp32
 70
     1
102
RTVSPost2010Prop33
280
     0
102
RTVSPost2010PropOp33
 70
     1
102
RTVSPost2010Prop34
280
     0
102
RTVSPost2010PropOp34
 70
     1
102
RTVSPost2010Prop35
280
     0
102
RTVSPost2010PropOp35
 70
     1
102
RTVSPost2010Prop36
280
     0
102
RTVSPost2010PropOp36
 70
     1
102
RTVSPost2010Prop37
 90
       50
102
RTVSPost2010PropOp37
 70
     1
102
RTVSPost2010Prop38
140
0.0
102
RTVSPost2010PropOp38
 70
     1
102
RTVSPost2010Prop39
140
1.0
102
RTVSPost2010PropOp39
 70
     1
102
RTVSPost2010Prop40
 90
        0
102
RTVSPost2010PropOp40
 70
     1
102
RTVSPost2010Prop41ColorIndex
 90
       18
102
RTVSPost2010Prop41ColorRGB
 90
        0
102
RTVSPost2010PropOp41
 70
     1
102
RTVSPost2010Prop42
 90
       50
102
RTVSPost2010PropOp42
 70
     1
102
RTVSPost2010Prop43
 90
        3
102
RTVSPost2010PropOp43
 70
     1
102
RTVSPost2010Prop44ColorIndex
 90
        5
102
RTVSPost2010Prop44ColorRGB
 90
      255
102
RTVSPost2010PropOp44
 70
     1
102
RTVSPost2010Prop45
280
     0
102
RTVSPost2010PropOp45
 70
     1
102
RTVSPost2010Prop46
 90
       50
102
RTVSPost2010PropOp46
 70
     1
102
RTVSPost2010Prop47
 90
       50
102
RTVSPost2010PropOp47
 70
     1
102
RTVSPost2010Prop48
 90
       50
102
RTVSPost2010PropOp48
 70
     1
102
RTVSPost2010Prop49
280
     0
102
RTVSPost2010PropOp49
 70
     1
102
RTVSPost2010Prop50
 90
       50
102
RTVSPost2010PropOp50
 70
     1
102
RTVSPost2010Prop51ColorIndex
 90
      256
102
RTVSPost2010Prop51ColorRGB
 90
-16777216
102
RTVSPost2010PropOp51
 70
     0
102
RTVSPost2010Prop52
140
1.0
102
RTVSPost2010PropOp52
 70
     0
102
RTVSPost2010Prop53
 90
        2
102
RTVSPost2010PropOp53
 70
     1
102
RTVSPost2010Prop54
  1
strokes_ogs.tif
102
RTVSPost2010PropOp54
 70
     1
102
RTVSPost2010Prop55
280
     0
102
RTVSPost2010PropOp55
 70
     1
102
RTVSPost2010Prop56
140
1.0
102
RTVSPost2010PropOp56
 70
     1
102
RTVSPost2010Prop57
140
1.0
102
RTVSPost2010PropOp57
 70
     1
102
RTVSPropertyOp0
 70
     1
102
RTVSPropertyOp1
 70
     1
102
RTVSPropertyOp2
 70
     1
102
RTVSPropertyOp3
 70
     1
102
RTVSPropertyOp4
 70
     1
102
RTVSPropertyOp5
 70
     1
102
RTVSPropertyOp6
 70
     1
102
RTVSPropertyOp7
 70
     1
102
RTVSPropertyOp8
 70
     1
102
RTVSPropertyOp9
 70
     1
102
RTVSPropertyOp10
 70
     1
102
RTVSPropertyOp11
 70
     1
102
RTVSPropertyOp12
 70
     1
102
RTVSPropertyOp13
 70
     1
102
RTVSPropertyOp14
 70
     1
102
RTVSPropertyOp15
 70
     1
102
RTVSPropertyOp16
 70
     1
102
RTVSPropertyOp17
 70
     1
102
RTVSPropertyOp18
 70
     1
102
RTVSPropertyOp19
 70
     1
102
RTVSPropertyOp20
 70
     1
102
RTVSPropertyOp21
 70
     1
102
RTVSPropertyOp22
 70
     1
102
RTVSPropertyOp23
 70
     1
102
RTVSPropertyOp24
 70
     1
102
RTVSPropertyOp25
 70
     1
102
RTVSPropertyOp26
 70
     1
102
RTVSPropertyOp27
 70
     1
102
RTVSPropertyOp28
 70
     1
102
RTVSPropertyOp29
 70
     1
102
RTVSPropertyOp30
 70
     1
102
RTVSPropertyOp31
 70
     1
102
RTVSPropertyOp32
 70
     1
102
RTVSPropertyOp33
 70
     1
102
RTVSPropertyOp34
 70
     1
102
RTVSPropertyOp35
 70
     1
102
RTVSPropertyOp36
 70
     1
102
RTVSPropertyOp37
 70
     1
102
RTVSPropertyOp38
 70
     1
102
RTVSPropertyOp39
 70
     1
102
RTVSPropertyOp40
 70
     1
102
RTVSPropertyOp41
 70
     1
102
RTVSPropertyOp42
 70
     1
102
RTVSPropertyOp43
 70
     1
102
RTVSPropertyOp44
 70
     1
102
RTVSPropertyOp45
 70
     1
102
RTVSPropertyOp46
 70
     1
102
RTVSPropertyOp47
 70
     1
102
RTVSPropertyOp48
 70
     1
102
RTVSPropertyOp49
 70
     1
102
RTVSPropertyOp50
 70
     1
102
RTVSPropertyOp51
 70
     0
102
RTVSPropertyOp52
 70
     0
102
RTVSPropertyOp53
 70
     1
102
RTVSPropertyOp54
 70
     1
102
RTVSPropertyOp55
 70
     1
102
RTVSPropertyOp56
 70
     1
102
RTVSPropertyOp57
 70
     1
102
RTVSPropertyOp58
 70
     1
102
RTVSPropertyOp59
 70
     1
102
RTVSPropertyOp60
 70
     1
102
RTVSPropertyOp61
 70
     1
102
RTVSPropertyOp62
 70
     1
  0
XRECORD
  5
14BB2
102
{ACAD_REACTORS
330
14BB1
102
}
330
14BB1
100
AcDbXrecord
280
     1
102
RTVSPost2010Prop28
280
     0
102
RTVSPost2010PropOp28
 70
     1
102
RTVSPost2010Prop29
280
     1
102
RTVSPost2010PropOp29
 70
     1
102
RTVSPost2010Prop30
280
     1
102
RTVSPost2010PropOp30
 70
     1
102
RTVSPost2010Prop31
280
     0
102
RTVSPost2010PropOp31
 70
     1
102
RTVSPost2010Prop32
280
     0
102
RTVSPost2010PropOp32
 70
     1
102
RTVSPost2010Prop33
280
     0
102
RTVSPost2010PropOp33
 70
     1
102
RTVSPost2010Prop34
280
     0
102
RTVSPost2010PropOp34
 70
     1
102
RTVSPost2010Prop35
280
     0
102
RTVSPost2010PropOp35
 70
     1
102
RTVSPost2010Prop36
280
     0
102
RTVSPost2010PropOp36
 70
     1
102
RTVSPost2010Prop37
 90
       50
102
RTVSPost2010PropOp37
 70
     0
102
RTVSPost2010Prop38
140
0.0
102
RTVSPost2010PropOp38
 70
     0
102
RTVSPost2010Prop39
140
1.0
102
RTVSPost2010PropOp39
 70
     0
102
RTVSPost2010Prop40
 90
        0
102
RTVSPost2010PropOp40
 70
     0
102
RTVSPost2010Prop41ColorIndex
 90
       18
102
RTVSPost2010Prop41ColorRGB
 90
        0
102
RTVSPost2010PropOp41
 70
     0
102
RTVSPost2010Prop42
 90
       50
102
RTVSPost2010PropOp42
 70
     0
102
RTVSPost2010Prop43
 90
        3
102
RTVSPost2010PropOp43
 70
     0
102
RTVSPost2010Prop44ColorIndex
 90
        5
102
RTVSPost2010Prop44ColorRGB
 90
      255
102
RTVSPost2010PropOp44
 70
     0
102
RTVSPost2010Prop45
280
     0
102
RTVSPost2010PropOp45
 70
     1
102
RTVSPost2010Prop46
 90
       50
102
RTVSPost2010PropOp46
 70
     0
102
RTVSPost2010Prop47
 90
       50
102
RTVSPost2010PropOp47
 70
     0
102
RTVSPost2010Prop48
 90
       50
102
RTVSPost2010PropOp48
 70
     0
102
RTVSPost2010Prop49
280
     0
102
RTVSPost2010PropOp49
 70
     1
102
RTVSPost2010Prop50
 90
       50
102
RTVSPost2010PropOp50
 70
     0
102
RTVSPost2010Prop51ColorIndex
 90
      256
102
RTVSPost2010Prop51ColorRGB
 90
-16777216
102
RTVSPost2010PropOp51
 70
     0
102
RTVSPost2010Prop52
140
1.0
102
RTVSPost2010PropOp52
 70
     0
102
RTVSPost2010Prop53
 90
        2
102
RTVSPost2010PropOp53
 70
     0
102
RTVSPost2010Prop54
  1
strokes_ogs.tif
102
RTVSPost2010PropOp54
 70
     0
102
RTVSPost2010Prop55
280
     0
102
RTVSPost2010PropOp55
 70
     1
102
RTVSPost2010Prop56
140
1.0
102
RTVSPost2010PropOp56
 70
     0
102
RTVSPost2010Prop57
140
1.0
102
RTVSPost2010PropOp57
 70
     0
102
RTVSPropertyOp0
 70
     0
102
RTVSPropertyOp1
 70
     0
102
RTVSPropertyOp2
 70
     0
102
RTVSPropertyOp3
 70
     0
102
RTVSPropertyOp4
 70
     0
102
RTVSPropertyOp5
 70
     0
102
RTVSPropertyOp6
 70
     0
102
RTVSPropertyOp7
 70
     0
102
RTVSPropertyOp8
 70
     0
102
RTVSPropertyOp9
 70
     0
102
RTVSPropertyOp10
 70
     0
102
RTVSPropertyOp11
 70
     0
102
RTVSPropertyOp12
 70
     0
102
RTVSPropertyOp13
 70
     0
102
RTVSPropertyOp14
 70
     2
102
RTVSPropertyOp15
 70
     0
102
RTVSPropertyOp16
 70
     0
102
RTVSPropertyOp17
 70
     0
102
RTVSPropertyOp18
 70
     0
102
RTVSPropertyOp19
 70
     0
102
RTVSPropertyOp20
 70
     0
102
RTVSPropertyOp21
 70
     0
102
RTVSPropertyOp22
 70
     0
102
RTVSPropertyOp23
 70
     0
102
RTVSPropertyOp24
 70
     0
102
RTVSPropertyOp25
 70
     0
102
RTVSPropertyOp26
 70
     0
102
RTVSPropertyOp27
 70
     0
102
RTVSPropertyOp28
 70
     1
102
RTVSPropertyOp29
 70
     1
102
RTVSPropertyOp30
 70
     1
102
RTVSPropertyOp31
 70
     1
102
RTVSPropertyOp32
 70
     1
102
RTVSPropertyOp33
 70
     1
102
RTVSPropertyOp34
 70
     1
102
RTVSPropertyOp35
 70
     1
102
RTVSPropertyOp36
 70
     1
102
RTVSPropertyOp37
 70
     0
102
RTVSPropertyOp38
 70
     0
102
RTVSPropertyOp39
 70
     0
102
RTVSPropertyOp40
 70
     0
102
RTVSPropertyOp41
 70
     0
102
RTVSPropertyOp42
 70
     0
102
RTVSPropertyOp43
 70
     0
102
RTVSPropertyOp44
 70
     0
102
RTVSPropertyOp45
 70
     1
102
RTVSPropertyOp46
 70
     0
102
RTVSPropertyOp47
 70
     0
102
RTVSPropertyOp48
 70
     0
102
RTVSPropertyOp49
 70
     1
102
RTVSPropertyOp50
 70
     0
102
RTVSPropertyOp51
 70
     0
102
RTVSPropertyOp52
 70
     0
102
RTVSPropertyOp53
 70
     0
102
RTVSPropertyOp54
 70
     0
102
RTVSPropertyOp55
 70
     1
102
RTVSPropertyOp56
 70
     0
102
RTVSPropertyOp57
 70
     0
102
RTVSPropertyOp58
 70
     0
102
RTVSPropertyOp59
 70
     0
102
RTVSPropertyOp60
 70
     0
102
RTVSPropertyOp61
 70
     0
102
RTVSPropertyOp62
 70
     0
  0
XRECORD
  5
14BA0
102
{ACAD_REACTORS
330
14B9F
102
}
330
14B9F
100
AcDbXrecord
280
     1
102
RTVSPost2010Prop28
280
     0
102
RTVSPost2010PropOp28
 70
     1
102
RTVSPost2010Prop29
280
     1
102
RTVSPost2010PropOp29
 70
     1
102
RTVSPost2010Prop30
280
     1
102
RTVSPost2010PropOp30
 70
     1
102
RTVSPost2010Prop31
280
     0
102
RTVSPost2010PropOp31
 70
     1
102
RTVSPost2010Prop32
280
     0
102
RTVSPost2010PropOp32
 70
     1
102
RTVSPost2010Prop33
280
     0
102
RTVSPost2010PropOp33
 70
     1
102
RTVSPost2010Prop34
280
     0
102
RTVSPost2010PropOp34
 70
     1
102
RTVSPost2010Prop35
280
     0
102
RTVSPost2010PropOp35
 70
     1
102
RTVSPost2010Prop36
280
     0
102
RTVSPost2010PropOp36
 70
     1
102
RTVSPost2010Prop37
 90
       50
102
RTVSPost2010PropOp37
 70
     1
102
RTVSPost2010Prop38
140
0.0
102
RTVSPost2010PropOp38
 70
     1
102
RTVSPost2010Prop39
140
1.0
102
RTVSPost2010PropOp39
 70
     1
102
RTVSPost2010Prop40
 90
        0
102
RTVSPost2010PropOp40
 70
     1
102
RTVSPost2010Prop41ColorIndex
 90
       18
102
RTVSPost2010Prop41ColorRGB
 90
        0
102
RTVSPost2010PropOp41
 70
     1
102
RTVSPost2010Prop42
 90
       50
102
RTVSPost2010PropOp42
 70
     1
102
RTVSPost2010Prop43
 90
        3
102
RTVSPost2010PropOp43
 70
     1
102
RTVSPost2010Prop44ColorIndex
 90
        5
102
RTVSPost2010Prop44ColorRGB
 90
      255
102
RTVSPost2010PropOp44
 70
     1
102
RTVSPost2010Prop45
280
     0
102
RTVSPost2010PropOp45
 70
     1
102
RTVSPost2010Prop46
 90
       50
102
RTVSPost2010PropOp46
 70
     1
102
RTVSPost2010Prop47
 90
       50
102
RTVSPost2010PropOp47
 70
     1
102
RTVSPost2010Prop48
 90
       50
102
RTVSPost2010PropOp48
 70
     1
102
RTVSPost2010Prop49
280
     0
102
RTVSPost2010PropOp49
 70
     1
102
RTVSPost2010Prop50
 90
       50
102
RTVSPost2010PropOp50
 70
     1
102
RTVSPost2010Prop51ColorIndex
 90
      256
102
RTVSPost2010Prop51ColorRGB
 90
-16777216
102
RTVSPost2010PropOp51
 70
     0
102
RTVSPost2010Prop52
140
1.0
102
RTVSPost2010PropOp52
 70
     0
102
RTVSPost2010Prop53
 90
        2
102
RTVSPost2010PropOp53
 70
     1
102
RTVSPost2010Prop54
  1
strokes_ogs.tif
102
RTVSPost2010PropOp54
 70
     1
102
RTVSPost2010Prop55
280
     0
102
RTVSPost2010PropOp55
 70
     1
102
RTVSPost2010Prop56
140
1.0
102
RTVSPost2010PropOp56
 70
     1
102
RTVSPost2010Prop57
140
1.0
102
RTVSPost2010PropOp57
 70
     1
102
RTVSPropertyOp0
 70
     1
102
RTVSPropertyOp1
 70
     1
102
RTVSPropertyOp2
 70
     1
102
RTVSPropertyOp3
 70
     1
102
RTVSPropertyOp4
 70
     1
102
RTVSPropertyOp5
 70
     1
102
RTVSPropertyOp6
 70
     1
102
RTVSPropertyOp7
 70
     1
102
RTVSPropertyOp8
 70
     1
102
RTVSPropertyOp9
 70
     1
102
RTVSPropertyOp10
 70
     1
102
RTVSPropertyOp11
 70
     1
102
RTVSPropertyOp12
 70
     1
102
RTVSPropertyOp13
 70
     1
102
RTVSPropertyOp14
 70
     1
102
RTVSPropertyOp15
 70
     1
102
RTVSPropertyOp16
 70
     1
102
RTVSPropertyOp17
 70
     1
102
RTVSPropertyOp18
 70
     1
102
RTVSPropertyOp19
 70
     1
102
RTVSPropertyOp20
 70
     1
102
RTVSPropertyOp21
 70
     1
102
RTVSPropertyOp22
 70
     1
102
RTVSPropertyOp23
 70
     1
102
RTVSPropertyOp24
 70
     1
102
RTVSPropertyOp25
 70
     1
102
RTVSPropertyOp26
 70
     1
102
RTVSPropertyOp27
 70
     1
102
RTVSPropertyOp28
 70
     1
102
RTVSPropertyOp29
 70
     1
102
RTVSPropertyOp30
 70
     1
102
RTVSPropertyOp31
 70
     1
102
RTVSPropertyOp32
 70
     1
102
RTVSPropertyOp33
 70
     1
102
RTVSPropertyOp34
 70
     1
102
RTVSPropertyOp35
 70
     1
102
RTVSPropertyOp36
 70
     1
102
RTVSPropertyOp37
 70
     1
102
RTVSPropertyOp38
 70
     1
102
RTVSPropertyOp39
 70
     1
102
RTVSPropertyOp40
 70
     1
102
RTVSPropertyOp41
 70
     1
102
RTVSPropertyOp42
 70
     1
102
RTVSPropertyOp43
 70
     1
102
RTVSPropertyOp44
 70
     1
102
RTVSPropertyOp45
 70
     1
102
RTVSPropertyOp46
 70
     1
102
RTVSPropertyOp47
 70
     1
102
RTVSPropertyOp48
 70
     1
102
RTVSPropertyOp49
 70
     1
102
RTVSPropertyOp50
 70
     1
102
RTVSPropertyOp51
 70
     0
102
RTVSPropertyOp52
 70
     0
102
RTVSPropertyOp53
 70
     1
102
RTVSPropertyOp54
 70
     1
102
RTVSPropertyOp55
 70
     1
102
RTVSPropertyOp56
 70
     1
102
RTVSPropertyOp57
 70
     1
102
RTVSPropertyOp58
 70
     1
102
RTVSPropertyOp59
 70
     1
102
RTVSPropertyOp60
 70
     1
102
RTVSPropertyOp61
 70
     1
102
RTVSPropertyOp62
 70
     1
  0
XRECORD
  5
14B84
102
{ACAD_REACTORS
330
14B83
102
}
330
14B83
100
AcDbXrecord
280
     1
102
RTVSPost2010Prop28
280
     0
102
RTVSPost2010PropOp28
 70
     1
102
RTVSPost2010Prop29
280
     1
102
RTVSPost2010PropOp29
 70
     1
102
RTVSPost2010Prop30
280
     1
102
RTVSPost2010PropOp30
 70
     1
102
RTVSPost2010Prop31
280
     0
102
RTVSPost2010PropOp31
 70
     1
102
RTVSPost2010Prop32
280
     0
102
RTVSPost2010PropOp32
 70
     1
102
RTVSPost2010Prop33
280
     0
102
RTVSPost2010PropOp33
 70
     1
102
RTVSPost2010Prop34
280
     0
102
RTVSPost2010PropOp34
 70
     1
102
RTVSPost2010Prop35
280
     0
102
RTVSPost2010PropOp35
 70
     1
102
RTVSPost2010Prop36
280
     0
102
RTVSPost2010PropOp36
 70
     1
102
RTVSPost2010Prop37
 90
       50
102
RTVSPost2010PropOp37
 70
     1
102
RTVSPost2010Prop38
140
0.0
102
RTVSPost2010PropOp38
 70
     1
102
RTVSPost2010Prop39
140
1.0
102
RTVSPost2010PropOp39
 70
     1
102
RTVSPost2010Prop40
 90
        0
102
RTVSPost2010PropOp40
 70
     1
102
RTVSPost2010Prop41ColorIndex
 90
       18
102
RTVSPost2010Prop41ColorRGB
 90
        0
102
RTVSPost2010PropOp41
 70
     1
102
RTVSPost2010Prop42
 90
       50
102
RTVSPost2010PropOp42
 70
     1
102
RTVSPost2010Prop43
 90
        3
102
RTVSPost2010PropOp43
 70
     1
102
RTVSPost2010Prop44ColorIndex
 90
        5
102
RTVSPost2010Prop44ColorRGB
 90
      255
102
RTVSPost2010PropOp44
 70
     1
102
RTVSPost2010Prop45
280
     0
102
RTVSPost2010PropOp45
 70
     1
102
RTVSPost2010Prop46
 90
       50
102
RTVSPost2010PropOp46
 70
     1
102
RTVSPost2010Prop47
 90
       50
102
RTVSPost2010PropOp47
 70
     1
102
RTVSPost2010Prop48
 90
       50
102
RTVSPost2010PropOp48
 70
     1
102
RTVSPost2010Prop49
280
     0
102
RTVSPost2010PropOp49
 70
     1
102
RTVSPost2010Prop50
 90
       50
102
RTVSPost2010PropOp50
 70
     1
102
RTVSPost2010Prop51ColorIndex
 90
      256
102
RTVSPost2010Prop51ColorRGB
 90
-16777216
102
RTVSPost2010PropOp51
 70
     0
102
RTVSPost2010Prop52
140
1.0
102
RTVSPost2010PropOp52
 70
     0
102
RTVSPost2010Prop53
 90
        2
102
RTVSPost2010PropOp53
 70
     1
102
RTVSPost2010Prop54
  1
strokes_ogs.tif
102
RTVSPost2010PropOp54
 70
     1
102
RTVSPost2010Prop55
280
     0
102
RTVSPost2010PropOp55
 70
     1
102
RTVSPost2010Prop56
140
1.0
102
RTVSPost2010PropOp56
 70
     1
102
RTVSPost2010Prop57
140
1.0
102
RTVSPost2010PropOp57
 70
     1
102
RTVSPropertyOp0
 70
     1
102
RTVSPropertyOp1
 70
     1
102
RTVSPropertyOp2
 70
     1
102
RTVSPropertyOp3
 70
     1
102
RTVSPropertyOp4
 70
     1
102
RTVSPropertyOp5
 70
     1
102
RTVSPropertyOp6
 70
     1
102
RTVSPropertyOp7
 70
     1
102
RTVSPropertyOp8
 70
     1
102
RTVSPropertyOp9
 70
     1
102
RTVSPropertyOp10
 70
     1
102
RTVSPropertyOp11
 70
     1
102
RTVSPropertyOp12
 70
     1
102
RTVSPropertyOp13
 70
     1
102
RTVSPropertyOp14
 70
     1
102
RTVSPropertyOp15
 70
     1
102
RTVSPropertyOp16
 70
     1
102
RTVSPropertyOp17
 70
     1
102
RTVSPropertyOp18
 70
     1
102
RTVSPropertyOp19
 70
     1
102
RTVSPropertyOp20
 70
     1
102
RTVSPropertyOp21
 70
     1
102
RTVSPropertyOp22
 70
     1
102
RTVSPropertyOp23
 70
     1
102
RTVSPropertyOp24
 70
     1
102
RTVSPropertyOp25
 70
     1
102
RTVSPropertyOp26
 70
     1
102
RTVSPropertyOp27
 70
     1
102
RTVSPropertyOp28
 70
     1
102
RTVSPropertyOp29
 70
     1
102
RTVSPropertyOp30
 70
     1
102
RTVSPropertyOp31
 70
     1
102
RTVSPropertyOp32
 70
     1
102
RTVSPropertyOp33
 70
     1
102
RTVSPropertyOp34
 70
     1
102
RTVSPropertyOp35
 70
     1
102
RTVSPropertyOp36
 70
     1
102
RTVSPropertyOp37
 70
     1
102
RTVSPropertyOp38
 70
     1
102
RTVSPropertyOp39
 70
     1
102
RTVSPropertyOp40
 70
     1
102
RTVSPropertyOp41
 70
     1
102
RTVSPropertyOp42
 70
     1
102
RTVSPropertyOp43
 70
     1
102
RTVSPropertyOp44
 70
     1
102
RTVSPropertyOp45
 70
     1
102
RTVSPropertyOp46
 70
     1
102
RTVSPropertyOp47
 70
     1
102
RTVSPropertyOp48
 70
     1
102
RTVSPropertyOp49
 70
     1
102
RTVSPropertyOp50
 70
     1
102
RTVSPropertyOp51
 70
     0
102
RTVSPropertyOp52
 70
     0
102
RTVSPropertyOp53
 70
     1
102
RTVSPropertyOp54
 70
     1
102
RTVSPropertyOp55
 70
     1
102
RTVSPropertyOp56
 70
     1
102
RTVSPropertyOp57
 70
     1
102
RTVSPropertyOp58
 70
     1
102
RTVSPropertyOp59
 70
     1
102
RTVSPropertyOp60
 70
     1
102
RTVSPropertyOp61
 70
     1
102
RTVSPropertyOp62
 70
     1
  0
XRECORD
  5
14B86
102
{ACAD_REACTORS
330
14B85
102
}
330
14B85
100
AcDbXrecord
280
     1
102
RTVSPost2010Prop28
280
     0
102
RTVSPost2010PropOp28
 70
     1
102
RTVSPost2010Prop29
280
     1
102
RTVSPost2010PropOp29
 70
     1
102
RTVSPost2010Prop30
280
     1
102
RTVSPost2010PropOp30
 70
     1
102
RTVSPost2010Prop31
280
     0
102
RTVSPost2010PropOp31
 70
     1
102
RTVSPost2010Prop32
280
     0
102
RTVSPost2010PropOp32
 70
     1
102
RTVSPost2010Prop33
280
     0
102
RTVSPost2010PropOp33
 70
     1
102
RTVSPost2010Prop34
280
     0
102
RTVSPost2010PropOp34
 70
     1
102
RTVSPost2010Prop35
280
     0
102
RTVSPost2010PropOp35
 70
     1
102
RTVSPost2010Prop36
280
     0
102
RTVSPost2010PropOp36
 70
     1
102
RTVSPost2010Prop37
 90
       50
102
RTVSPost2010PropOp37
 70
     1
102
RTVSPost2010Prop38
140
0.0
102
RTVSPost2010PropOp38
 70
     1
102
RTVSPost2010Prop39
140
1.0
102
RTVSPost2010PropOp39
 70
     1
102
RTVSPost2010Prop40
 90
        0
102
RTVSPost2010PropOp40
 70
     1
102
RTVSPost2010Prop41ColorIndex
 90
       18
102
RTVSPost2010Prop41ColorRGB
 90
        0
102
RTVSPost2010PropOp41
 70
     1
102
RTVSPost2010Prop42
 90
       50
102
RTVSPost2010PropOp42
 70
     1
102
RTVSPost2010Prop43
 90
        3
102
RTVSPost2010PropOp43
 70
     1
102
RTVSPost2010Prop44ColorIndex
 90
        5
102
RTVSPost2010Prop44ColorRGB
 90
      255
102
RTVSPost2010PropOp44
 70
     1
102
RTVSPost2010Prop45
280
     0
102
RTVSPost2010PropOp45
 70
     1
102
RTVSPost2010Prop46
 90
       50
102
RTVSPost2010PropOp46
 70
     1
102
RTVSPost2010Prop47
 90
       50
102
RTVSPost2010PropOp47
 70
     1
102
RTVSPost2010Prop48
 90
       50
102
RTVSPost2010PropOp48
 70
     1
102
RTVSPost2010Prop49
280
     0
102
RTVSPost2010PropOp49
 70
     1
102
RTVSPost2010Prop50
 90
       50
102
RTVSPost2010PropOp50
 70
     1
102
RTVSPost2010Prop51ColorIndex
 90
      256
102
RTVSPost2010Prop51ColorRGB
 90
-16777216
102
RTVSPost2010PropOp51
 70
     0
102
RTVSPost2010Prop52
140
1.0
102
RTVSPost2010PropOp52
 70
     0
102
RTVSPost2010Prop53
 90
        2
102
RTVSPost2010PropOp53
 70
     1
102
RTVSPost2010Prop54
  1
strokes_ogs.tif
102
RTVSPost2010PropOp54
 70
     1
102
RTVSPost2010Prop55
280
     0
102
RTVSPost2010PropOp55
 70
     1
102
RTVSPost2010Prop56
140
1.0
102
RTVSPost2010PropOp56
 70
     1
102
RTVSPost2010Prop57
140
1.0
102
RTVSPost2010PropOp57
 70
     1
102
RTVSPropertyOp0
 70
     1
102
RTVSPropertyOp1
 70
     1
102
RTVSPropertyOp2
 70
     1
102
RTVSPropertyOp3
 70
     1
102
RTVSPropertyOp4
 70
     1
102
RTVSPropertyOp5
 70
     1
102
RTVSPropertyOp6
 70
     1
102
RTVSPropertyOp7
 70
     1
102
RTVSPropertyOp8
 70
     1
102
RTVSPropertyOp9
 70
     1
102
RTVSPropertyOp10
 70
     1
102
RTVSPropertyOp11
 70
     1
102
RTVSPropertyOp12
 70
     1
102
RTVSPropertyOp13
 70
     1
102
RTVSPropertyOp14
 70
     1
102
RTVSPropertyOp15
 70
     1
102
RTVSPropertyOp16
 70
     1
102
RTVSPropertyOp17
 70
     1
102
RTVSPropertyOp18
 70
     1
102
RTVSPropertyOp19
 70
     1
102
RTVSPropertyOp20
 70
     1
102
RTVSPropertyOp21
 70
     1
102
RTVSPropertyOp22
 70
     1
102
RTVSPropertyOp23
 70
     1
102
RTVSPropertyOp24
 70
     1
102
RTVSPropertyOp25
 70
     1
102
RTVSPropertyOp26
 70
     1
102
RTVSPropertyOp27
 70
     1
102
RTVSPropertyOp28
 70
     1
102
RTVSPropertyOp29
 70
     1
102
RTVSPropertyOp30
 70
     1
102
RTVSPropertyOp31
 70
     1
102
RTVSPropertyOp32
 70
     1
102
RTVSPropertyOp33
 70
     1
102
RTVSPropertyOp34
 70
     1
102
RTVSPropertyOp35
 70
     1
102
RTVSPropertyOp36
 70
     1
102
RTVSPropertyOp37
 70
     1
102
RTVSPropertyOp38
 70
     1
102
RTVSPropertyOp39
 70
     1
102
RTVSPropertyOp40
 70
     1
102
RTVSPropertyOp41
 70
     1
102
RTVSPropertyOp42
 70
     1
102
RTVSPropertyOp43
 70
     1
102
RTVSPropertyOp44
 70
     1
102
RTVSPropertyOp45
 70
     1
102
RTVSPropertyOp46
 70
     1
102
RTVSPropertyOp47
 70
     1
102
RTVSPropertyOp48
 70
     1
102
RTVSPropertyOp49
 70
     1
102
RTVSPropertyOp50
 70
     1
102
RTVSPropertyOp51
 70
     0
102
RTVSPropertyOp52
 70
     0
102
RTVSPropertyOp53
 70
     1
102
RTVSPropertyOp54
 70
     1
102
RTVSPropertyOp55
 70
     1
102
RTVSPropertyOp56
 70
     1
102
RTVSPropertyOp57
 70
     1
102
RTVSPropertyOp58
 70
     1
102
RTVSPropertyOp59
 70
     1
102
RTVSPropertyOp60
 70
     1
102
RTVSPropertyOp61
 70
     1
102
RTVSPropertyOp62
 70
     1
  0
XRECORD
  5
14B88
102
{ACAD_REACTORS
330
14B87
102
}
330
14B87
100
AcDbXrecord
280
     1
102
RTVSPost2010Prop28
280
     0
102
RTVSPost2010PropOp28
 70
     1
102
RTVSPost2010Prop29
280
     1
102
RTVSPost2010PropOp29
 70
     1
102
RTVSPost2010Prop30
280
     1
102
RTVSPost2010PropOp30
 70
     1
102
RTVSPost2010Prop31
280
     0
102
RTVSPost2010PropOp31
 70
     1
102
RTVSPost2010Prop32
280
     0
102
RTVSPost2010PropOp32
 70
     1
102
RTVSPost2010Prop33
280
     0
102
RTVSPost2010PropOp33
 70
     1
102
RTVSPost2010Prop34
280
     0
102
RTVSPost2010PropOp34
 70
     1
102
RTVSPost2010Prop35
280
     0
102
RTVSPost2010PropOp35
 70
     1
102
RTVSPost2010Prop36
280
     0
102
RTVSPost2010PropOp36
 70
     1
102
RTVSPost2010Prop37
 90
       50
102
RTVSPost2010PropOp37
 70
     1
102
RTVSPost2010Prop38
140
0.0
102
RTVSPost2010PropOp38
 70
     1
102
RTVSPost2010Prop39
140
1.0
102
RTVSPost2010PropOp39
 70
     1
102
RTVSPost2010Prop40
 90
        0
102
RTVSPost2010PropOp40
 70
     1
102
RTVSPost2010Prop41ColorIndex
 90
       18
102
RTVSPost2010Prop41ColorRGB
 90
        0
102
RTVSPost2010PropOp41
 70
     1
102
RTVSPost2010Prop42
 90
       50
102
RTVSPost2010PropOp42
 70
     1
102
RTVSPost2010Prop43
 90
        3
102
RTVSPost2010PropOp43
 70
     1
102
RTVSPost2010Prop44ColorIndex
 90
        5
102
RTVSPost2010Prop44ColorRGB
 90
      255
102
RTVSPost2010PropOp44
 70
     1
102
RTVSPost2010Prop45
280
     0
102
RTVSPost2010PropOp45
 70
     1
102
RTVSPost2010Prop46
 90
       50
102
RTVSPost2010PropOp46
 70
     1
102
RTVSPost2010Prop47
 90
       50
102
RTVSPost2010PropOp47
 70
     1
102
RTVSPost2010Prop48
 90
       50
102
RTVSPost2010PropOp48
 70
     1
102
RTVSPost2010Prop49
280
     0
102
RTVSPost2010PropOp49
 70
     1
102
RTVSPost2010Prop50
 90
       50
102
RTVSPost2010PropOp50
 70
     1
102
RTVSPost2010Prop51ColorIndex
 90
      256
102
RTVSPost2010Prop51ColorRGB
 90
-16777216
102
RTVSPost2010PropOp51
 70
     0
102
RTVSPost2010Prop52
140
1.0
102
RTVSPost2010PropOp52
 70
     0
102
RTVSPost2010Prop53
 90
        2
102
RTVSPost2010PropOp53
 70
     1
102
RTVSPost2010Prop54
  1
strokes_ogs.tif
102
RTVSPost2010PropOp54
 70
     1
102
RTVSPost2010Prop55
280
     0
102
RTVSPost2010PropOp55
 70
     1
102
RTVSPost2010Prop56
140
1.0
102
RTVSPost2010PropOp56
 70
     1
102
RTVSPost2010Prop57
140
1.0
102
RTVSPost2010PropOp57
 70
     1
102
RTVSPropertyOp0
 70
     1
102
RTVSPropertyOp1
 70
     1
102
RTVSPropertyOp2
 70
     1
102
RTVSPropertyOp3
 70
     1
102
RTVSPropertyOp4
 70
     1
102
RTVSPropertyOp5
 70
     1
102
RTVSPropertyOp6
 70
     1
102
RTVSPropertyOp7
 70
     1
102
RTVSPropertyOp8
 70
     1
102
RTVSPropertyOp9
 70
     1
102
RTVSPropertyOp10
 70
     1
102
RTVSPropertyOp11
 70
     1
102
RTVSPropertyOp12
 70
     1
102
RTVSPropertyOp13
 70
     1
102
RTVSPropertyOp14
 70
     1
102
RTVSPropertyOp15
 70
     1
102
RTVSPropertyOp16
 70
     1
102
RTVSPropertyOp17
 70
     1
102
RTVSPropertyOp18
 70
     1
102
RTVSPropertyOp19
 70
     1
102
RTVSPropertyOp20
 70
     1
102
RTVSPropertyOp21
 70
     1
102
RTVSPropertyOp22
 70
     1
102
RTVSPropertyOp23
 70
     1
102
RTVSPropertyOp24
 70
     1
102
RTVSPropertyOp25
 70
     1
102
RTVSPropertyOp26
 70
     1
102
RTVSPropertyOp27
 70
     1
102
RTVSPropertyOp28
 70
     1
102
RTVSPropertyOp29
 70
     1
102
RTVSPropertyOp30
 70
     1
102
RTVSPropertyOp31
 70
     1
102
RTVSPropertyOp32
 70
     1
102
RTVSPropertyOp33
 70
     1
102
RTVSPropertyOp34
 70
     1
102
RTVSPropertyOp35
 70
     1
102
RTVSPropertyOp36
 70
     1
102
RTVSPropertyOp37
 70
     1
102
RTVSPropertyOp38
 70
     1
102
RTVSPropertyOp39
 70
     1
102
RTVSPropertyOp40
 70
     1
102
RTVSPropertyOp41
 70
     1
102
RTVSPropertyOp42
 70
     1
102
RTVSPropertyOp43
 70
     1
102
RTVSPropertyOp44
 70
     1
102
RTVSPropertyOp45
 70
     1
102
RTVSPropertyOp46
 70
     1
102
RTVSPropertyOp47
 70
     1
102
RTVSPropertyOp48
 70
     1
102
RTVSPropertyOp49
 70
     1
102
RTVSPropertyOp50
 70
     1
102
RTVSPropertyOp51
 70
     0
102
RTVSPropertyOp52
 70
     0
102
RTVSPropertyOp53
 70
     1
102
RTVSPropertyOp54
 70
     1
102
RTVSPropertyOp55
 70
     1
102
RTVSPropertyOp56
 70
     1
102
RTVSPropertyOp57
 70
     1
102
RTVSPropertyOp58
 70
     1
102
RTVSPropertyOp59
 70
     1
102
RTVSPropertyOp60
 70
     1
102
RTVSPropertyOp61
 70
     1
102
RTVSPropertyOp62
 70
     1
  0
XRECORD
  5
14B8A
102
{ACAD_REACTORS
330
14B89
102
}
330
14B89
100
AcDbXrecord
280
     1
102
RTVSPost2010Prop28
280
     0
102
RTVSPost2010PropOp28
 70
     1
102
RTVSPost2010Prop29
280
     1
102
RTVSPost2010PropOp29
 70
     1
102
RTVSPost2010Prop30
280
     1
102
RTVSPost2010PropOp30
 70
     1
102
RTVSPost2010Prop31
280
     0
102
RTVSPost2010PropOp31
 70
     1
102
RTVSPost2010Prop32
280
     0
102
RTVSPost2010PropOp32
 70
     1
102
RTVSPost2010Prop33
280
     0
102
RTVSPost2010PropOp33
 70
     1
102
RTVSPost2010Prop34
280
     0
102
RTVSPost2010PropOp34
 70
     1
102
RTVSPost2010Prop35
280
     0
102
RTVSPost2010PropOp35
 70
     1
102
RTVSPost2010Prop36
280
     0
102
RTVSPost2010PropOp36
 70
     1
102
RTVSPost2010Prop37
 90
       50
102
RTVSPost2010PropOp37
 70
     1
102
RTVSPost2010Prop38
140
0.0
102
RTVSPost2010PropOp38
 70
     1
102
RTVSPost2010Prop39
140
1.0
102
RTVSPost2010PropOp39
 70
     1
102
RTVSPost2010Prop40
 90
        0
102
RTVSPost2010PropOp40
 70
     1
102
RTVSPost2010Prop41ColorIndex
 90
       18
102
RTVSPost2010Prop41ColorRGB
 90
        0
102
RTVSPost2010PropOp41
 70
     1
102
RTVSPost2010Prop42
 90
       50
102
RTVSPost2010PropOp42
 70
     1
102
RTVSPost2010Prop43
 90
        3
102
RTVSPost2010PropOp43
 70
     1
102
RTVSPost2010Prop44ColorIndex
 90
        5
102
RTVSPost2010Prop44ColorRGB
 90
      255
102
RTVSPost2010PropOp44
 70
     1
102
RTVSPost2010Prop45
280
     0
102
RTVSPost2010PropOp45
 70
     1
102
RTVSPost2010Prop46
 90
       50
102
RTVSPost2010PropOp46
 70
     1
102
RTVSPost2010Prop47
 90
       50
102
RTVSPost2010PropOp47
 70
     1
102
RTVSPost2010Prop48
 90
       50
102
RTVSPost2010PropOp48
 70
     1
102
RTVSPost2010Prop49
280
     0
102
RTVSPost2010PropOp49
 70
     1
102
RTVSPost2010Prop50
 90
       50
102
RTVSPost2010PropOp50
 70
     1
102
RTVSPost2010Prop51ColorIndex
 90
      256
102
RTVSPost2010Prop51ColorRGB
 90
-16777216
102
RTVSPost2010PropOp51
 70
     0
102
RTVSPost2010Prop52
140
1.0
102
RTVSPost2010PropOp52
 70
     0
102
RTVSPost2010Prop53
 90
        2
102
RTVSPost2010PropOp53
 70
     1
102
RTVSPost2010Prop54
  1
strokes_ogs.tif
102
RTVSPost2010PropOp54
 70
     1
102
RTVSPost2010Prop55
280
     0
102
RTVSPost2010PropOp55
 70
     1
102
RTVSPost2010Prop56
140
1.0
102
RTVSPost2010PropOp56
 70
     1
102
RTVSPost2010Prop57
140
1.0
102
RTVSPost2010PropOp57
 70
     1
102
RTVSPropertyOp0
 70
     1
102
RTVSPropertyOp1
 70
     1
102
RTVSPropertyOp2
 70
     1
102
RTVSPropertyOp3
 70
     1
102
RTVSPropertyOp4
 70
     1
102
RTVSPropertyOp5
 70
     1
102
RTVSPropertyOp6
 70
     1
102
RTVSPropertyOp7
 70
     1
102
RTVSPropertyOp8
 70
     1
102
RTVSPropertyOp9
 70
     1
102
RTVSPropertyOp10
 70
     1
102
RTVSPropertyOp11
 70
     1
102
RTVSPropertyOp12
 70
     1
102
RTVSPropertyOp13
 70
     1
102
RTVSPropertyOp14
 70
     1
102
RTVSPropertyOp15
 70
     1
102
RTVSPropertyOp16
 70
     1
102
RTVSPropertyOp17
 70
     1
102
RTVSPropertyOp18
 70
     1
102
RTVSPropertyOp19
 70
     1
102
RTVSPropertyOp20
 70
     1
102
RTVSPropertyOp21
 70
     1
102
RTVSPropertyOp22
 70
     1
102
RTVSPropertyOp23
 70
     1
102
RTVSPropertyOp24
 70
     1
102
RTVSPropertyOp25
 70
     1
102
RTVSPropertyOp26
 70
     1
102
RTVSPropertyOp27
 70
     1
102
RTVSPropertyOp28
 70
     1
102
RTVSPropertyOp29
 70
     1
102
RTVSPropertyOp30
 70
     1
102
RTVSPropertyOp31
 70
     1
102
RTVSPropertyOp32
 70
     1
102
RTVSPropertyOp33
 70
     1
102
RTVSPropertyOp34
 70
     1
102
RTVSPropertyOp35
 70
     1
102
RTVSPropertyOp36
 70
     1
102
RTVSPropertyOp37
 70
     1
102
RTVSPropertyOp38
 70
     1
102
RTVSPropertyOp39
 70
     1
102
RTVSPropertyOp40
 70
     1
102
RTVSPropertyOp41
 70
     1
102
RTVSPropertyOp42
 70
     1
102
RTVSPropertyOp43
 70
     1
102
RTVSPropertyOp44
 70
     1
102
RTVSPropertyOp45
 70
     1
102
RTVSPropertyOp46
 70
     1
102
RTVSPropertyOp47
 70
     1
102
RTVSPropertyOp48
 70
     1
102
RTVSPropertyOp49
 70
     1
102
RTVSPropertyOp50
 70
     1
102
RTVSPropertyOp51
 70
     0
102
RTVSPropertyOp52
 70
     0
102
RTVSPropertyOp53
 70
     1
102
RTVSPropertyOp54
 70
     1
102
RTVSPropertyOp55
 70
     1
102
RTVSPropertyOp56
 70
     1
102
RTVSPropertyOp57
 70
     1
102
RTVSPropertyOp58
 70
     1
102
RTVSPropertyOp59
 70
     1
102
RTVSPropertyOp60
 70
     1
102
RTVSPropertyOp61
 70
     1
102
RTVSPropertyOp62
 70
     1
  0
XRECORD
  5
14B92
102
{ACAD_REACTORS
330
14B91
102
}
330
14B91
100
AcDbXrecord
280
     1
102
RTVSPost2010Prop28
280
     0
102
RTVSPost2010PropOp28
 70
     1
102
RTVSPost2010Prop29
280
     1
102
RTVSPost2010PropOp29
 70
     1
102
RTVSPost2010Prop30
280
     1
102
RTVSPost2010PropOp30
 70
     1
102
RTVSPost2010Prop31
280
     0
102
RTVSPost2010PropOp31
 70
     1
102
RTVSPost2010Prop32
280
     0
102
RTVSPost2010PropOp32
 70
     1
102
RTVSPost2010Prop33
280
     0
102
RTVSPost2010PropOp33
 70
     1
102
RTVSPost2010Prop34
280
     0
102
RTVSPost2010PropOp34
 70
     1
102
RTVSPost2010Prop35
280
     0
102
RTVSPost2010PropOp35
 70
     1
102
RTVSPost2010Prop36
280
     0
102
RTVSPost2010PropOp36
 70
     1
102
RTVSPost2010Prop37
 90
       50
102
RTVSPost2010PropOp37
 70
     1
102
RTVSPost2010Prop38
140
0.0
102
RTVSPost2010PropOp38
 70
     1
102
RTVSPost2010Prop39
140
1.0
102
RTVSPost2010PropOp39
 70
     1
102
RTVSPost2010Prop40
 90
        0
102
RTVSPost2010PropOp40
 70
     1
102
RTVSPost2010Prop41ColorIndex
 90
       18
102
RTVSPost2010Prop41ColorRGB
 90
        0
102
RTVSPost2010PropOp41
 70
     1
102
RTVSPost2010Prop42
 90
       50
102
RTVSPost2010PropOp42
 70
     1
102
RTVSPost2010Prop43
 90
        3
102
RTVSPost2010PropOp43
 70
     1
102
RTVSPost2010Prop44ColorIndex
 90
        5
102
RTVSPost2010Prop44ColorRGB
 90
      255
102
RTVSPost2010PropOp44
 70
     1
102
RTVSPost2010Prop45
280
     0
102
RTVSPost2010PropOp45
 70
     1
102
RTVSPost2010Prop46
 90
       50
102
RTVSPost2010PropOp46
 70
     1
102
RTVSPost2010Prop47
 90
       50
102
RTVSPost2010PropOp47
 70
     1
102
RTVSPost2010Prop48
 90
       50
102
RTVSPost2010PropOp48
 70
     1
102
RTVSPost2010Prop49
280
     0
102
RTVSPost2010PropOp49
 70
     1
102
RTVSPost2010Prop50
 90
       50
102
RTVSPost2010PropOp50
 70
     1
102
RTVSPost2010Prop51ColorIndex
 90
      256
102
RTVSPost2010Prop51ColorRGB
 90
-16777216
102
RTVSPost2010PropOp51
 70
     0
102
RTVSPost2010Prop52
140
1.0
102
RTVSPost2010PropOp52
 70
     0
102
RTVSPost2010Prop53
 90
        2
102
RTVSPost2010PropOp53
 70
     1
102
RTVSPost2010Prop54
  1
strokes_ogs.tif
102
RTVSPost2010PropOp54
 70
     1
102
RTVSPost2010Prop55
280
     0
102
RTVSPost2010PropOp55
 70
     1
102
RTVSPost2010Prop56
140
1.0
102
RTVSPost2010PropOp56
 70
     1
102
RTVSPost2010Prop57
140
1.0
102
RTVSPost2010PropOp57
 70
     1
102
RTVSPropertyOp0
 70
     1
102
RTVSPropertyOp1
 70
     1
102
RTVSPropertyOp2
 70
     1
102
RTVSPropertyOp3
 70
     1
102
RTVSPropertyOp4
 70
     1
102
RTVSPropertyOp5
 70
     1
102
RTVSPropertyOp6
 70
     1
102
RTVSPropertyOp7
 70
     1
102
RTVSPropertyOp8
 70
     1
102
RTVSPropertyOp9
 70
     1
102
RTVSPropertyOp10
 70
     1
102
RTVSPropertyOp11
 70
     1
102
RTVSPropertyOp12
 70
     1
102
RTVSPropertyOp13
 70
     1
102
RTVSPropertyOp14
 70
     1
102
RTVSPropertyOp15
 70
     1
102
RTVSPropertyOp16
 70
     1
102
RTVSPropertyOp17
 70
     1
102
RTVSPropertyOp18
 70
     1
102
RTVSPropertyOp19
 70
     1
102
RTVSPropertyOp20
 70
     1
102
RTVSPropertyOp21
 70
     1
102
RTVSPropertyOp22
 70
     1
102
RTVSPropertyOp23
 70
     1
102
RTVSPropertyOp24
 70
     1
102
RTVSPropertyOp25
 70
     1
102
RTVSPropertyOp26
 70
     1
102
RTVSPropertyOp27
 70
     1
102
RTVSPropertyOp28
 70
     1
102
RTVSPropertyOp29
 70
     1
102
RTVSPropertyOp30
 70
     1
102
RTVSPropertyOp31
 70
     1
102
RTVSPropertyOp32
 70
     1
102
RTVSPropertyOp33
 70
     1
102
RTVSPropertyOp34
 70
     1
102
RTVSPropertyOp35
 70
     1
102
RTVSPropertyOp36
 70
     1
102
RTVSPropertyOp37
 70
     1
102
RTVSPropertyOp38
 70
     1
102
RTVSPropertyOp39
 70
     1
102
RTVSPropertyOp40
 70
     1
102
RTVSPropertyOp41
 70
     1
102
RTVSPropertyOp42
 70
     1
102
RTVSPropertyOp43
 70
     1
102
RTVSPropertyOp44
 70
     1
102
RTVSPropertyOp45
 70
     1
102
RTVSPropertyOp46
 70
     1
102
RTVSPropertyOp47
 70
     1
102
RTVSPropertyOp48
 70
     1
102
RTVSPropertyOp49
 70
     1
102
RTVSPropertyOp50
 70
     1
102
RTVSPropertyOp51
 70
     0
102
RTVSPropertyOp52
 70
     0
102
RTVSPropertyOp53
 70
     1
102
RTVSPropertyOp54
 70
     1
102
RTVSPropertyOp55
 70
     1
102
RTVSPropertyOp56
 70
     1
102
RTVSPropertyOp57
 70
     1
102
RTVSPropertyOp58
 70
     1
102
RTVSPropertyOp59
 70
     1
102
RTVSPropertyOp60
 70
     1
102
RTVSPropertyOp61
 70
     1
102
RTVSPropertyOp62
 70
     1
  0
XRECORD
  5
14BAE
102
{ACAD_REACTORS
330
14BAD
102
}
330
14BAD
100
AcDbXrecord
280
     1
102
RTVSPost2010Prop28
280
     0
102
RTVSPost2010PropOp28
 70
     1
102
RTVSPost2010Prop29
280
     1
102
RTVSPost2010PropOp29
 70
     1
102
RTVSPost2010Prop30
280
     1
102
RTVSPost2010PropOp30
 70
     1
102
RTVSPost2010Prop31
280
     0
102
RTVSPost2010PropOp31
 70
     1
102
RTVSPost2010Prop32
280
     0
102
RTVSPost2010PropOp32
 70
     1
102
RTVSPost2010Prop33
280
     0
102
RTVSPost2010PropOp33
 70
     1
102
RTVSPost2010Prop34
280
     0
102
RTVSPost2010PropOp34
 70
     1
102
RTVSPost2010Prop35
280
     0
102
RTVSPost2010PropOp35
 70
     1
102
RTVSPost2010Prop36
280
     0
102
RTVSPost2010PropOp36
 70
     1
102
RTVSPost2010Prop37
 90
       50
102
RTVSPost2010PropOp37
 70
     0
102
RTVSPost2010Prop38
140
0.0
102
RTVSPost2010PropOp38
 70
     0
102
RTVSPost2010Prop39
140
1.0
102
RTVSPost2010PropOp39
 70
     0
102
RTVSPost2010Prop40
 90
        0
102
RTVSPost2010PropOp40
 70
     0
102
RTVSPost2010Prop41ColorIndex
 90
       18
102
RTVSPost2010Prop41ColorRGB
 90
        0
102
RTVSPost2010PropOp41
 70
     0
102
RTVSPost2010Prop42
 90
       50
102
RTVSPost2010PropOp42
 70
     0
102
RTVSPost2010Prop43
 90
        3
102
RTVSPost2010PropOp43
 70
     0
102
RTVSPost2010Prop44ColorIndex
 90
        5
102
RTVSPost2010Prop44ColorRGB
 90
      255
102
RTVSPost2010PropOp44
 70
     0
102
RTVSPost2010Prop45
280
     0
102
RTVSPost2010PropOp45
 70
     1
102
RTVSPost2010Prop46
 90
       50
102
RTVSPost2010PropOp46
 70
     0
102
RTVSPost2010Prop47
 90
       50
102
RTVSPost2010PropOp47
 70
     0
102
RTVSPost2010Prop48
 90
       50
102
RTVSPost2010PropOp48
 70
     0
102
RTVSPost2010Prop49
280
     0
102
RTVSPost2010PropOp49
 70
     1
102
RTVSPost2010Prop50
 90
       50
102
RTVSPost2010PropOp50
 70
     0
102
RTVSPost2010Prop51ColorIndex
 90
      256
102
RTVSPost2010Prop51ColorRGB
 90
-16777216
102
RTVSPost2010PropOp51
 70
     0
102
RTVSPost2010Prop52
140
1.0
102
RTVSPost2010PropOp52
 70
     0
102
RTVSPost2010Prop53
 90
        2
102
RTVSPost2010PropOp53
 70
     0
102
RTVSPost2010Prop54
  1
strokes_ogs.tif
102
RTVSPost2010PropOp54
 70
     0
102
RTVSPost2010Prop55
280
     0
102
RTVSPost2010PropOp55
 70
     1
102
RTVSPost2010Prop56
140
1.0
102
RTVSPost2010PropOp56
 70
     0
102
RTVSPost2010Prop57
140
1.0
102
RTVSPost2010PropOp57
 70
     0
102
RTVSPropertyOp0
 70
     0
102
RTVSPropertyOp1
 70
     0
102
RTVSPropertyOp2
 70
     0
102
RTVSPropertyOp3
 70
     0
102
RTVSPropertyOp4
 70
     0
102
RTVSPropertyOp5
 70
     0
102
RTVSPropertyOp6
 70
     0
102
RTVSPropertyOp7
 70
     0
102
RTVSPropertyOp8
 70
     0
102
RTVSPropertyOp9
 70
     0
102
RTVSPropertyOp10
 70
     0
102
RTVSPropertyOp11
 70
     0
102
RTVSPropertyOp12
 70
     0
102
RTVSPropertyOp13
 70
     0
102
RTVSPropertyOp14
 70
     2
102
RTVSPropertyOp15
 70
     0
102
RTVSPropertyOp16
 70
     0
102
RTVSPropertyOp17
 70
     0
102
RTVSPropertyOp18
 70
     0
102
RTVSPropertyOp19
 70
     0
102
RTVSPropertyOp20
 70
     0
102
RTVSPropertyOp21
 70
     0
102
RTVSPropertyOp22
 70
     0
102
RTVSPropertyOp23
 70
     0
102
RTVSPropertyOp24
 70
     0
102
RTVSPropertyOp25
 70
     0
102
RTVSPropertyOp26
 70
     0
102
RTVSPropertyOp27
 70
     0
102
RTVSPropertyOp28
 70
     1
102
RTVSPropertyOp29
 70
     1
102
RTVSPropertyOp30
 70
     1
102
RTVSPropertyOp31
 70
     1
102
RTVSPropertyOp32
 70
     1
102
RTVSPropertyOp33
 70
     1
102
RTVSPropertyOp34
 70
     1
102
RTVSPropertyOp35
 70
     1
102
RTVSPropertyOp36
 70
     1
102
RTVSPropertyOp37
 70
     0
102
RTVSPropertyOp38
 70
     0
102
RTVSPropertyOp39
 70
     0
102
RTVSPropertyOp40
 70
     0
102
RTVSPropertyOp41
 70
     0
102
RTVSPropertyOp42
 70
     0
102
RTVSPropertyOp43
 70
     0
102
RTVSPropertyOp44
 70
     0
102
RTVSPropertyOp45
 70
     1
102
RTVSPropertyOp46
 70
     0
102
RTVSPropertyOp47
 70
     0
102
RTVSPropertyOp48
 70
     0
102
RTVSPropertyOp49
 70
     1
102
RTVSPropertyOp50
 70
     0
102
RTVSPropertyOp51
 70
     0
102
RTVSPropertyOp52
 70
     0
102
RTVSPropertyOp53
 70
     0
102
RTVSPropertyOp54
 70
     0
102
RTVSPropertyOp55
 70
     1
102
RTVSPropertyOp56
 70
     0
102
RTVSPropertyOp57
 70
     0
102
RTVSPropertyOp58
 70
     0
102
RTVSPropertyOp59
 70
     0
102
RTVSPropertyOp60
 70
     0
102
RTVSPropertyOp61
 70
     0
102
RTVSPropertyOp62
 70
     0
  0
XRECORD
  5
14B9E
102
{ACAD_REACTORS
330
14B9D
102
}
330
14B9D
100
AcDbXrecord
280
     1
102
RTVSPost2010Prop28
280
     0
102
RTVSPost2010PropOp28
 70
     1
102
RTVSPost2010Prop29
280
     1
102
RTVSPost2010PropOp29
 70
     1
102
RTVSPost2010Prop30
280
     1
102
RTVSPost2010PropOp30
 70
     1
102
RTVSPost2010Prop31
280
     0
102
RTVSPost2010PropOp31
 70
     1
102
RTVSPost2010Prop32
280
     0
102
RTVSPost2010PropOp32
 70
     1
102
RTVSPost2010Prop33
280
     0
102
RTVSPost2010PropOp33
 70
     1
102
RTVSPost2010Prop34
280
     0
102
RTVSPost2010PropOp34
 70
     1
102
RTVSPost2010Prop35
280
     0
102
RTVSPost2010PropOp35
 70
     1
102
RTVSPost2010Prop36
280
     0
102
RTVSPost2010PropOp36
 70
     1
102
RTVSPost2010Prop37
 90
       50
102
RTVSPost2010PropOp37
 70
     1
102
RTVSPost2010Prop38
140
0.0
102
RTVSPost2010PropOp38
 70
     1
102
RTVSPost2010Prop39
140
1.0
102
RTVSPost2010PropOp39
 70
     1
102
RTVSPost2010Prop40
 90
        0
102
RTVSPost2010PropOp40
 70
     1
102
RTVSPost2010Prop41ColorIndex
 90
       18
102
RTVSPost2010Prop41ColorRGB
 90
        0
102
RTVSPost2010PropOp41
 70
     1
102
RTVSPost2010Prop42
 90
       50
102
RTVSPost2010PropOp42
 70
     1
102
RTVSPost2010Prop43
 90
        3
102
RTVSPost2010PropOp43
 70
     1
102
RTVSPost2010Prop44ColorIndex
 90
        5
102
RTVSPost2010Prop44ColorRGB
 90
      255
102
RTVSPost2010PropOp44
 70
     1
102
RTVSPost2010Prop45
280
     0
102
RTVSPost2010PropOp45
 70
     1
102
RTVSPost2010Prop46
 90
       50
102
RTVSPost2010PropOp46
 70
     1
102
RTVSPost2010Prop47
 90
       50
102
RTVSPost2010PropOp47
 70
     1
102
RTVSPost2010Prop48
 90
       50
102
RTVSPost2010PropOp48
 70
     1
102
RTVSPost2010Prop49
280
     0
102
RTVSPost2010PropOp49
 70
     1
102
RTVSPost2010Prop50
 90
       50
102
RTVSPost2010PropOp50
 70
     1
102
RTVSPost2010Prop51ColorIndex
 90
      256
102
RTVSPost2010Prop51ColorRGB
 90
-16777216
102
RTVSPost2010PropOp51
 70
     0
102
RTVSPost2010Prop52
140
1.0
102
RTVSPost2010PropOp52
 70
     0
102
RTVSPost2010Prop53
 90
        2
102
RTVSPost2010PropOp53
 70
     1
102
RTVSPost2010Prop54
  1
strokes_ogs.tif
102
RTVSPost2010PropOp54
 70
     1
102
RTVSPost2010Prop55
280
     0
102
RTVSPost2010PropOp55
 70
     1
102
RTVSPost2010Prop56
140
1.0
102
RTVSPost2010PropOp56
 70
     1
102
RTVSPost2010Prop57
140
1.0
102
RTVSPost2010PropOp57
 70
     1
102
RTVSPropertyOp0
 70
     1
102
RTVSPropertyOp1
 70
     1
102
RTVSPropertyOp2
 70
     1
102
RTVSPropertyOp3
 70
     1
102
RTVSPropertyOp4
 70
     1
102
RTVSPropertyOp5
 70
     1
102
RTVSPropertyOp6
 70
     1
102
RTVSPropertyOp7
 70
     1
102
RTVSPropertyOp8
 70
     1
102
RTVSPropertyOp9
 70
     1
102
RTVSPropertyOp10
 70
     1
102
RTVSPropertyOp11
 70
     1
102
RTVSPropertyOp12
 70
     1
102
RTVSPropertyOp13
 70
     1
102
RTVSPropertyOp14
 70
     1
102
RTVSPropertyOp15
 70
     1
102
RTVSPropertyOp16
 70
     1
102
RTVSPropertyOp17
 70
     1
102
RTVSPropertyOp18
 70
     1
102
RTVSPropertyOp19
 70
     1
102
RTVSPropertyOp20
 70
     1
102
RTVSPropertyOp21
 70
     1
102
RTVSPropertyOp22
 70
     1
102
RTVSPropertyOp23
 70
     1
102
RTVSPropertyOp24
 70
     1
102
RTVSPropertyOp25
 70
     1
102
RTVSPropertyOp26
 70
     1
102
RTVSPropertyOp27
 70
     1
102
RTVSPropertyOp28
 70
     1
102
RTVSPropertyOp29
 70
     1
102
RTVSPropertyOp30
 70
     1
102
RTVSPropertyOp31
 70
     1
102
RTVSPropertyOp32
 70
     1
102
RTVSPropertyOp33
 70
     1
102
RTVSPropertyOp34
 70
     1
102
RTVSPropertyOp35
 70
     1
102
RTVSPropertyOp36
 70
     1
102
RTVSPropertyOp37
 70
     1
102
RTVSPropertyOp38
 70
     1
102
RTVSPropertyOp39
 70
     1
102
RTVSPropertyOp40
 70
     1
102
RTVSPropertyOp41
 70
     1
102
RTVSPropertyOp42
 70
     1
102
RTVSPropertyOp43
 70
     1
102
RTVSPropertyOp44
 70
     1
102
RTVSPropertyOp45
 70
     1
102
RTVSPropertyOp46
 70
     1
102
RTVSPropertyOp47
 70
     1
102
RTVSPropertyOp48
 70
     1
102
RTVSPropertyOp49
 70
     1
102
RTVSPropertyOp50
 70
     1
102
RTVSPropertyOp51
 70
     0
102
RTVSPropertyOp52
 70
     0
102
RTVSPropertyOp53
 70
     1
102
RTVSPropertyOp54
 70
     1
102
RTVSPropertyOp55
 70
     1
102
RTVSPropertyOp56
 70
     1
102
RTVSPropertyOp57
 70
     1
102
RTVSPropertyOp58
 70
     1
102
RTVSPropertyOp59
 70
     1
102
RTVSPropertyOp60
 70
     1
102
RTVSPropertyOp61
 70
     1
102
RTVSPropertyOp62
 70
     1
  0
XRECORD
  5
14BB0
102
{ACAD_REACTORS
330
14BAF
102
}
330
14BAF
100
AcDbXrecord
280
     1
102
RTVSPost2010Prop28
280
     0
102
RTVSPost2010PropOp28
 70
     1
102
RTVSPost2010Prop29
280
     1
102
RTVSPost2010PropOp29
 70
     1
102
RTVSPost2010Prop30
280
     1
102
RTVSPost2010PropOp30
 70
     1
102
RTVSPost2010Prop31
280
     0
102
RTVSPost2010PropOp31
 70
     1
102
RTVSPost2010Prop32
280
     0
102
RTVSPost2010PropOp32
 70
     1
102
RTVSPost2010Prop33
280
     0
102
RTVSPost2010PropOp33
 70
     1
102
RTVSPost2010Prop34
280
     0
102
RTVSPost2010PropOp34
 70
     1
102
RTVSPost2010Prop35
280
     0
102
RTVSPost2010PropOp35
 70
     1
102
RTVSPost2010Prop36
280
     0
102
RTVSPost2010PropOp36
 70
     1
102
RTVSPost2010Prop37
 90
       50
102
RTVSPost2010PropOp37
 70
     0
102
RTVSPost2010Prop38
140
0.0
102
RTVSPost2010PropOp38
 70
     0
102
RTVSPost2010Prop39
140
1.0
102
RTVSPost2010PropOp39
 70
     0
102
RTVSPost2010Prop40
 90
        0
102
RTVSPost2010PropOp40
 70
     0
102
RTVSPost2010Prop41ColorIndex
 90
       18
102
RTVSPost2010Prop41ColorRGB
 90
        0
102
RTVSPost2010PropOp41
 70
     0
102
RTVSPost2010Prop42
 90
       50
102
RTVSPost2010PropOp42
 70
     0
102
RTVSPost2010Prop43
 90
        3
102
RTVSPost2010PropOp43
 70
     0
102
RTVSPost2010Prop44ColorIndex
 90
        5
102
RTVSPost2010Prop44ColorRGB
 90
      255
102
RTVSPost2010PropOp44
 70
     0
102
RTVSPost2010Prop45
280
     0
102
RTVSPost2010PropOp45
 70
     1
102
RTVSPost2010Prop46
 90
       50
102
RTVSPost2010PropOp46
 70
     0
102
RTVSPost2010Prop47
 90
       50
102
RTVSPost2010PropOp47
 70
     0
102
RTVSPost2010Prop48
 90
       50
102
RTVSPost2010PropOp48
 70
     0
102
RTVSPost2010Prop49
280
     0
102
RTVSPost2010PropOp49
 70
     1
102
RTVSPost2010Prop50
 90
       50
102
RTVSPost2010PropOp50
 70
     0
102
RTVSPost2010Prop51ColorIndex
 90
      256
102
RTVSPost2010Prop51ColorRGB
 90
-16777216
102
RTVSPost2010PropOp51
 70
     0
102
RTVSPost2010Prop52
140
1.0
102
RTVSPost2010PropOp52
 70
     0
102
RTVSPost2010Prop53
 90
        2
102
RTVSPost2010PropOp53
 70
     0
102
RTVSPost2010Prop54
  1
strokes_ogs.tif
102
RTVSPost2010PropOp54
 70
     0
102
RTVSPost2010Prop55
280
     0
102
RTVSPost2010PropOp55
 70
     1
102
RTVSPost2010Prop56
140
1.0
102
RTVSPost2010PropOp56
 70
     0
102
RTVSPost2010Prop57
140
1.0
102
RTVSPost2010PropOp57
 70
     0
102
RTVSPropertyOp0
 70
     0
102
RTVSPropertyOp1
 70
     0
102
RTVSPropertyOp2
 70
     0
102
RTVSPropertyOp3
 70
     0
102
RTVSPropertyOp4
 70
     0
102
RTVSPropertyOp5
 70
     0
102
RTVSPropertyOp6
 70
     0
102
RTVSPropertyOp7
 70
     0
102
RTVSPropertyOp8
 70
     0
102
RTVSPropertyOp9
 70
     0
102
RTVSPropertyOp10
 70
     0
102
RTVSPropertyOp11
 70
     0
102
RTVSPropertyOp12
 70
     0
102
RTVSPropertyOp13
 70
     0
102
RTVSPropertyOp14
 70
     2
102
RTVSPropertyOp15
 70
     0
102
RTVSPropertyOp16
 70
     0
102
RTVSPropertyOp17
 70
     0
102
RTVSPropertyOp18
 70
     0
102
RTVSPropertyOp19
 70
     0
102
RTVSPropertyOp20
 70
     0
102
RTVSPropertyOp21
 70
     0
102
RTVSPropertyOp22
 70
     0
102
RTVSPropertyOp23
 70
     0
102
RTVSPropertyOp24
 70
     0
102
RTVSPropertyOp25
 70
     0
102
RTVSPropertyOp26
 70
     0
102
RTVSPropertyOp27
 70
     0
102
RTVSPropertyOp28
 70
     1
102
RTVSPropertyOp29
 70
     1
102
RTVSPropertyOp30
 70
     1
102
RTVSPropertyOp31
 70
     1
102
RTVSPropertyOp32
 70
     1
102
RTVSPropertyOp33
 70
     1
102
RTVSPropertyOp34
 70
     1
102
RTVSPropertyOp35
 70
     1
102
RTVSPropertyOp36
 70
     1
102
RTVSPropertyOp37
 70
     0
102
RTVSPropertyOp38
 70
     0
102
RTVSPropertyOp39
 70
     0
102
RTVSPropertyOp40
 70
     0
102
RTVSPropertyOp41
 70
     0
102
RTVSPropertyOp42
 70
     0
102
RTVSPropertyOp43
 70
     0
102
RTVSPropertyOp44
 70
     0
102
RTVSPropertyOp45
 70
     1
102
RTVSPropertyOp46
 70
     0
102
RTVSPropertyOp47
 70
     0
102
RTVSPropertyOp48
 70
     0
102
RTVSPropertyOp49
 70
     1
102
RTVSPropertyOp50
 70
     0
102
RTVSPropertyOp51
 70
     0
102
RTVSPropertyOp52
 70
     0
102
RTVSPropertyOp53
 70
     0
102
RTVSPropertyOp54
 70
     0
102
RTVSPropertyOp55
 70
     1
102
RTVSPropertyOp56
 70
     0
102
RTVSPropertyOp57
 70
     0
102
RTVSPropertyOp58
 70
     0
102
RTVSPropertyOp59
 70
     0
102
RTVSPropertyOp60
 70
     0
102
RTVSPropertyOp61
 70
     0
102
RTVSPropertyOp62
 70
     0
  0
XRECORD
  5
14B96
102
{ACAD_REACTORS
330
14B95
102
}
330
14B95
100
AcDbXrecord
280
     1
102
RTVSPost2010Prop28
280
     0
102
RTVSPost2010PropOp28
 70
     1
102
RTVSPost2010Prop29
280
     1
102
RTVSPost2010PropOp29
 70
     1
102
RTVSPost2010Prop30
280
     1
102
RTVSPost2010PropOp30
 70
     1
102
RTVSPost2010Prop31
280
     0
102
RTVSPost2010PropOp31
 70
     1
102
RTVSPost2010Prop32
280
     0
102
RTVSPost2010PropOp32
 70
     1
102
RTVSPost2010Prop33
280
     0
102
RTVSPost2010PropOp33
 70
     1
102
RTVSPost2010Prop34
280
     0
102
RTVSPost2010PropOp34
 70
     1
102
RTVSPost2010Prop35
280
     0
102
RTVSPost2010PropOp35
 70
     1
102
RTVSPost2010Prop36
280
     0
102
RTVSPost2010PropOp36
 70
     1
102
RTVSPost2010Prop37
 90
       50
102
RTVSPost2010PropOp37
 70
     1
102
RTVSPost2010Prop38
140
0.0
102
RTVSPost2010PropOp38
 70
     1
102
RTVSPost2010Prop39
140
1.0
102
RTVSPost2010PropOp39
 70
     1
102
RTVSPost2010Prop40
 90
        0
102
RTVSPost2010PropOp40
 70
     1
102
RTVSPost2010Prop41ColorIndex
 90
       18
102
RTVSPost2010Prop41ColorRGB
 90
        0
102
RTVSPost2010PropOp41
 70
     1
102
RTVSPost2010Prop42
 90
       50
102
RTVSPost2010PropOp42
 70
     1
102
RTVSPost2010Prop43
 90
        3
102
RTVSPost2010PropOp43
 70
     1
102
RTVSPost2010Prop44ColorIndex
 90
        5
102
RTVSPost2010Prop44ColorRGB
 90
      255
102
RTVSPost2010PropOp44
 70
     1
102
RTVSPost2010Prop45
280
     0
102
RTVSPost2010PropOp45
 70
     1
102
RTVSPost2010Prop46
 90
       50
102
RTVSPost2010PropOp46
 70
     1
102
RTVSPost2010Prop47
 90
       50
102
RTVSPost2010PropOp47
 70
     1
102
RTVSPost2010Prop48
 90
       50
102
RTVSPost2010PropOp48
 70
     1
102
RTVSPost2010Prop49
280
     0
102
RTVSPost2010PropOp49
 70
     1
102
RTVSPost2010Prop50
 90
       50
102
RTVSPost2010PropOp50
 70
     1
102
RTVSPost2010Prop51ColorIndex
 90
      256
102
RTVSPost2010Prop51ColorRGB
 90
-16777216
102
RTVSPost2010PropOp51
 70
     0
102
RTVSPost2010Prop52
140
1.0
102
RTVSPost2010PropOp52
 70
     0
102
RTVSPost2010Prop53
 90
        2
102
RTVSPost2010PropOp53
 70
     1
102
RTVSPost2010Prop54
  1
strokes_ogs.tif
102
RTVSPost2010PropOp54
 70
     1
102
RTVSPost2010Prop55
280
     0
102
RTVSPost2010PropOp55
 70
     1
102
RTVSPost2010Prop56
140
1.0
102
RTVSPost2010PropOp56
 70
     1
102
RTVSPost2010Prop57
140
1.0
102
RTVSPost2010PropOp57
 70
     1
102
RTVSPropertyOp0
 70
     1
102
RTVSPropertyOp1
 70
     1
102
RTVSPropertyOp2
 70
     1
102
RTVSPropertyOp3
 70
     1
102
RTVSPropertyOp4
 70
     1
102
RTVSPropertyOp5
 70
     1
102
RTVSPropertyOp6
 70
     1
102
RTVSPropertyOp7
 70
     1
102
RTVSPropertyOp8
 70
     1
102
RTVSPropertyOp9
 70
     1
102
RTVSPropertyOp10
 70
     1
102
RTVSPropertyOp11
 70
     1
102
RTVSPropertyOp12
 70
     1
102
RTVSPropertyOp13
 70
     1
102
RTVSPropertyOp14
 70
     1
102
RTVSPropertyOp15
 70
     1
102
RTVSPropertyOp16
 70
     1
102
RTVSPropertyOp17
 70
     1
102
RTVSPropertyOp18
 70
     1
102
RTVSPropertyOp19
 70
     1
102
RTVSPropertyOp20
 70
     1
102
RTVSPropertyOp21
 70
     1
102
RTVSPropertyOp22
 70
     1
102
RTVSPropertyOp23
 70
     1
102
RTVSPropertyOp24
 70
     1
102
RTVSPropertyOp25
 70
     1
102
RTVSPropertyOp26
 70
     1
102
RTVSPropertyOp27
 70
     1
102
RTVSPropertyOp28
 70
     1
102
RTVSPropertyOp29
 70
     1
102
RTVSPropertyOp30
 70
     1
102
RTVSPropertyOp31
 70
     1
102
RTVSPropertyOp32
 70
     1
102
RTVSPropertyOp33
 70
     1
102
RTVSPropertyOp34
 70
     1
102
RTVSPropertyOp35
 70
     1
102
RTVSPropertyOp36
 70
     1
102
RTVSPropertyOp37
 70
     1
102
RTVSPropertyOp38
 70
     1
102
RTVSPropertyOp39
 70
     1
102
RTVSPropertyOp40
 70
     1
102
RTVSPropertyOp41
 70
     1
102
RTVSPropertyOp42
 70
     1
102
RTVSPropertyOp43
 70
     1
102
RTVSPropertyOp44
 70
     1
102
RTVSPropertyOp45
 70
     1
102
RTVSPropertyOp46
 70
     1
102
RTVSPropertyOp47
 70
     1
102
RTVSPropertyOp48
 70
     1
102
RTVSPropertyOp49
 70
     1
102
RTVSPropertyOp50
 70
     1
102
RTVSPropertyOp51
 70
     0
102
RTVSPropertyOp52
 70
     0
102
RTVSPropertyOp53
 70
     1
102
RTVSPropertyOp54
 70
     1
102
RTVSPropertyOp55
 70
     1
102
RTVSPropertyOp56
 70
     1
102
RTVSPropertyOp57
 70
     1
102
RTVSPropertyOp58
 70
     1
102
RTVSPropertyOp59
 70
     1
102
RTVSPropertyOp60
 70
     1
102
RTVSPropertyOp61
 70
     1
102
RTVSPropertyOp62
 70
     1
  0
XRECORD
  5
14BAC
102
{ACAD_REACTORS
330
14BAB
102
}
330
14BAB
100
AcDbXrecord
280
     1
102
RTVSPost2010Prop28
280
     0
102
RTVSPost2010PropOp28
 70
     1
102
RTVSPost2010Prop29
280
     1
102
RTVSPost2010PropOp29
 70
     1
102
RTVSPost2010Prop30
280
     1
102
RTVSPost2010PropOp30
 70
     1
102
RTVSPost2010Prop31
280
     0
102
RTVSPost2010PropOp31
 70
     1
102
RTVSPost2010Prop32
280
     0
102
RTVSPost2010PropOp32
 70
     1
102
RTVSPost2010Prop33
280
     0
102
RTVSPost2010PropOp33
 70
     1
102
RTVSPost2010Prop34
280
     0
102
RTVSPost2010PropOp34
 70
     1
102
RTVSPost2010Prop35
280
     0
102
RTVSPost2010PropOp35
 70
     1
102
RTVSPost2010Prop36
280
     0
102
RTVSPost2010PropOp36
 70
     1
102
RTVSPost2010Prop37
 90
       50
102
RTVSPost2010PropOp37
 70
     1
102
RTVSPost2010Prop38
140
0.0
102
RTVSPost2010PropOp38
 70
     1
102
RTVSPost2010Prop39
140
1.0
102
RTVSPost2010PropOp39
 70
     1
102
RTVSPost2010Prop40
 90
        0
102
RTVSPost2010PropOp40
 70
     1
102
RTVSPost2010Prop41ColorIndex
 90
       18
102
RTVSPost2010Prop41ColorRGB
 90
        0
102
RTVSPost2010PropOp41
 70
     1
102
RTVSPost2010Prop42
 90
       50
102
RTVSPost2010PropOp42
 70
     1
102
RTVSPost2010Prop43
 90
        3
102
RTVSPost2010PropOp43
 70
     1
102
RTVSPost2010Prop44ColorIndex
 90
        5
102
RTVSPost2010Prop44ColorRGB
 90
      255
102
RTVSPost2010PropOp44
 70
     1
102
RTVSPost2010Prop45
280
     0
102
RTVSPost2010PropOp45
 70
     1
102
RTVSPost2010Prop46
 90
       50
102
RTVSPost2010PropOp46
 70
     1
102
RTVSPost2010Prop47
 90
       50
102
RTVSPost2010PropOp47
 70
     1
102
RTVSPost2010Prop48
 90
       50
102
RTVSPost2010PropOp48
 70
     1
102
RTVSPost2010Prop49
280
     0
102
RTVSPost2010PropOp49
 70
     1
102
RTVSPost2010Prop50
 90
       50
102
RTVSPost2010PropOp50
 70
     1
102
RTVSPost2010Prop51ColorIndex
 90
      256
102
RTVSPost2010Prop51ColorRGB
 90
-16777216
102
RTVSPost2010PropOp51
 70
     0
102
RTVSPost2010Prop52
140
1.0
102
RTVSPost2010PropOp52
 70
     0
102
RTVSPost2010Prop53
 90
        2
102
RTVSPost2010PropOp53
 70
     1
102
RTVSPost2010Prop54
  1
strokes_ogs.tif
102
RTVSPost2010PropOp54
 70
     1
102
RTVSPost2010Prop55
280
     0
102
RTVSPost2010PropOp55
 70
     1
102
RTVSPost2010Prop56
140
1.0
102
RTVSPost2010PropOp56
 70
     1
102
RTVSPost2010Prop57
140
1.0
102
RTVSPost2010PropOp57
 70
     1
102
RTVSPropertyOp0
 70
     1
102
RTVSPropertyOp1
 70
     1
102
RTVSPropertyOp2
 70
     1
102
RTVSPropertyOp3
 70
     1
102
RTVSPropertyOp4
 70
     1
102
RTVSPropertyOp5
 70
     1
102
RTVSPropertyOp6
 70
     1
102
RTVSPropertyOp7
 70
     1
102
RTVSPropertyOp8
 70
     1
102
RTVSPropertyOp9
 70
     1
102
RTVSPropertyOp10
 70
     1
102
RTVSPropertyOp11
 70
     1
102
RTVSPropertyOp12
 70
     1
102
RTVSPropertyOp13
 70
     1
102
RTVSPropertyOp14
 70
     1
102
RTVSPropertyOp15
 70
     1
102
RTVSPropertyOp16
 70
     1
102
RTVSPropertyOp17
 70
     1
102
RTVSPropertyOp18
 70
     1
102
RTVSPropertyOp19
 70
     1
102
RTVSPropertyOp20
 70
     1
102
RTVSPropertyOp21
 70
     1
102
RTVSPropertyOp22
 70
     1
102
RTVSPropertyOp23
 70
     1
102
RTVSPropertyOp24
 70
     1
102
RTVSPropertyOp25
 70
     1
102
RTVSPropertyOp26
 70
     1
102
RTVSPropertyOp27
 70
     1
102
RTVSPropertyOp28
 70
     1
102
RTVSPropertyOp29
 70
     1
102
RTVSPropertyOp30
 70
     1
102
RTVSPropertyOp31
 70
     1
102
RTVSPropertyOp32
 70
     1
102
RTVSPropertyOp33
 70
     1
102
RTVSPropertyOp34
 70
     1
102
RTVSPropertyOp35
 70
     1
102
RTVSPropertyOp36
 70
     1
102
RTVSPropertyOp37
 70
     1
102
RTVSPropertyOp38
 70
     1
102
RTVSPropertyOp39
 70
     1
102
RTVSPropertyOp40
 70
     1
102
RTVSPropertyOp41
 70
     1
102
RTVSPropertyOp42
 70
     1
102
RTVSPropertyOp43
 70
     1
102
RTVSPropertyOp44
 70
     1
102
RTVSPropertyOp45
 70
     1
102
RTVSPropertyOp46
 70
     1
102
RTVSPropertyOp47
 70
     1
102
RTVSPropertyOp48
 70
     1
102
RTVSPropertyOp49
 70
     1
102
RTVSPropertyOp50
 70
     1
102
RTVSPropertyOp51
 70
     0
102
RTVSPropertyOp52
 70
     0
102
RTVSPropertyOp53
 70
     1
102
RTVSPropertyOp54
 70
     1
102
RTVSPropertyOp55
 70
     1
102
RTVSPropertyOp56
 70
     1
102
RTVSPropertyOp57
 70
     1
102
RTVSPropertyOp58
 70
     1
102
RTVSPropertyOp59
 70
     1
102
RTVSPropertyOp60
 70
     1
102
RTVSPropertyOp61
 70
     1
102
RTVSPropertyOp62
 70
     1
  0
XRECORD
  5
14BAA
102
{ACAD_REACTORS
330
14BA9
102
}
330
14BA9
100
AcDbXrecord
280
     1
102
RTVSPost2010Prop28
280
     0
102
RTVSPost2010PropOp28
 70
     1
102
RTVSPost2010Prop29
280
     1
102
RTVSPost2010PropOp29
 70
     1
102
RTVSPost2010Prop30
280
     1
102
RTVSPost2010PropOp30
 70
     1
102
RTVSPost2010Prop31
280
     0
102
RTVSPost2010PropOp31
 70
     1
102
RTVSPost2010Prop32
280
     0
102
RTVSPost2010PropOp32
 70
     1
102
RTVSPost2010Prop33
280
     0
102
RTVSPost2010PropOp33
 70
     1
102
RTVSPost2010Prop34
280
     0
102
RTVSPost2010PropOp34
 70
     1
102
RTVSPost2010Prop35
280
     0
102
RTVSPost2010PropOp35
 70
     1
102
RTVSPost2010Prop36
280
     0
102
RTVSPost2010PropOp36
 70
     1
102
RTVSPost2010Prop37
 90
       50
102
RTVSPost2010PropOp37
 70
     1
102
RTVSPost2010Prop38
140
0.0
102
RTVSPost2010PropOp38
 70
     1
102
RTVSPost2010Prop39
140
1.0
102
RTVSPost2010PropOp39
 70
     1
102
RTVSPost2010Prop40
 90
        0
102
RTVSPost2010PropOp40
 70
     1
102
RTVSPost2010Prop41ColorIndex
 90
       18
102
RTVSPost2010Prop41ColorRGB
 90
        0
102
RTVSPost2010PropOp41
 70
     1
102
RTVSPost2010Prop42
 90
       50
102
RTVSPost2010PropOp42
 70
     1
102
RTVSPost2010Prop43
 90
        3
102
RTVSPost2010PropOp43
 70
     1
102
RTVSPost2010Prop44ColorIndex
 90
        5
102
RTVSPost2010Prop44ColorRGB
 90
      255
102
RTVSPost2010PropOp44
 70
     1
102
RTVSPost2010Prop45
280
     0
102
RTVSPost2010PropOp45
 70
     1
102
RTVSPost2010Prop46
 90
       50
102
RTVSPost2010PropOp46
 70
     1
102
RTVSPost2010Prop47
 90
       50
102
RTVSPost2010PropOp47
 70
     1
102
RTVSPost2010Prop48
 90
       50
102
RTVSPost2010PropOp48
 70
     1
102
RTVSPost2010Prop49
280
     0
102
RTVSPost2010PropOp49
 70
     1
102
RTVSPost2010Prop50
 90
       50
102
RTVSPost2010PropOp50
 70
     1
102
RTVSPost2010Prop51ColorIndex
 90
      256
102
RTVSPost2010Prop51ColorRGB
 90
-16777216
102
RTVSPost2010PropOp51
 70
     0
102
RTVSPost2010Prop52
140
1.0
102
RTVSPost2010PropOp52
 70
     0
102
RTVSPost2010Prop53
 90
        2
102
RTVSPost2010PropOp53
 70
     1
102
RTVSPost2010Prop54
  1
strokes_ogs.tif
102
RTVSPost2010PropOp54
 70
     1
102
RTVSPost2010Prop55
280
     0
102
RTVSPost2010PropOp55
 70
     1
102
RTVSPost2010Prop56
140
1.0
102
RTVSPost2010PropOp56
 70
     1
102
RTVSPost2010Prop57
140
1.0
102
RTVSPost2010PropOp57
 70
     1
102
RTVSPropertyOp0
 70
     1
102
RTVSPropertyOp1
 70
     1
102
RTVSPropertyOp2
 70
     1
102
RTVSPropertyOp3
 70
     1
102
RTVSPropertyOp4
 70
     1
102
RTVSPropertyOp5
 70
     1
102
RTVSPropertyOp6
 70
     1
102
RTVSPropertyOp7
 70
     1
102
RTVSPropertyOp8
 70
     1
102
RTVSPropertyOp9
 70
     1
102
RTVSPropertyOp10
 70
     1
102
RTVSPropertyOp11
 70
     1
102
RTVSPropertyOp12
 70
     1
102
RTVSPropertyOp13
 70
     1
102
RTVSPropertyOp14
 70
     1
102
RTVSPropertyOp15
 70
     1
102
RTVSPropertyOp16
 70
     1
102
RTVSPropertyOp17
 70
     1
102
RTVSPropertyOp18
 70
     1
102
RTVSPropertyOp19
 70
     1
102
RTVSPropertyOp20
 70
     1
102
RTVSPropertyOp21
 70
     1
102
RTVSPropertyOp22
 70
     1
102
RTVSPropertyOp23
 70
     1
102
RTVSPropertyOp24
 70
     1
102
RTVSPropertyOp25
 70
     1
102
RTVSPropertyOp26
 70
     1
102
RTVSPropertyOp27
 70
     1
102
RTVSPropertyOp28
 70
     1
102
RTVSPropertyOp29
 70
     1
102
RTVSPropertyOp30
 70
     1
102
RTVSPropertyOp31
 70
     1
102
RTVSPropertyOp32
 70
     1
102
RTVSPropertyOp33
 70
     1
102
RTVSPropertyOp34
 70
     1
102
RTVSPropertyOp35
 70
     1
102
RTVSPropertyOp36
 70
     1
102
RTVSPropertyOp37
 70
     1
102
RTVSPropertyOp38
 70
     1
102
RTVSPropertyOp39
 70
     1
102
RTVSPropertyOp40
 70
     1
102
RTVSPropertyOp41
 70
     1
102
RTVSPropertyOp42
 70
     1
102
RTVSPropertyOp43
 70
     1
102
RTVSPropertyOp44
 70
     1
102
RTVSPropertyOp45
 70
     1
102
RTVSPropertyOp46
 70
     1
102
RTVSPropertyOp47
 70
     1
102
RTVSPropertyOp48
 70
     1
102
RTVSPropertyOp49
 70
     1
102
RTVSPropertyOp50
 70
     1
102
RTVSPropertyOp51
 70
     0
102
RTVSPropertyOp52
 70
     0
102
RTVSPropertyOp53
 70
     1
102
RTVSPropertyOp54
 70
     1
102
RTVSPropertyOp55
 70
     1
102
RTVSPropertyOp56
 70
     1
102
RTVSPropertyOp57
 70
     1
102
RTVSPropertyOp58
 70
     1
102
RTVSPropertyOp59
 70
     1
102
RTVSPropertyOp60
 70
     1
102
RTVSPropertyOp61
 70
     1
102
RTVSPropertyOp62
 70
     1
  0
XRECORD
  5
14BA4
102
{ACAD_REACTORS
330
14BA3
102
}
330
14BA3
100
AcDbXrecord
280
     1
102
RTVSPost2010Prop28
280
     0
102
RTVSPost2010PropOp28
 70
     1
102
RTVSPost2010Prop29
280
     1
102
RTVSPost2010PropOp29
 70
     1
102
RTVSPost2010Prop30
280
     1
102
RTVSPost2010PropOp30
 70
     1
102
RTVSPost2010Prop31
280
     0
102
RTVSPost2010PropOp31
 70
     1
102
RTVSPost2010Prop32
280
     0
102
RTVSPost2010PropOp32
 70
     1
102
RTVSPost2010Prop33
280
     0
102
RTVSPost2010PropOp33
 70
     1
102
RTVSPost2010Prop34
280
     0
102
RTVSPost2010PropOp34
 70
     1
102
RTVSPost2010Prop35
280
     0
102
RTVSPost2010PropOp35
 70
     1
102
RTVSPost2010Prop36
280
     0
102
RTVSPost2010PropOp36
 70
     1
102
RTVSPost2010Prop37
 90
       50
102
RTVSPost2010PropOp37
 70
     1
102
RTVSPost2010Prop38
140
0.0
102
RTVSPost2010PropOp38
 70
     1
102
RTVSPost2010Prop39
140
1.0
102
RTVSPost2010PropOp39
 70
     1
102
RTVSPost2010Prop40
 90
        0
102
RTVSPost2010PropOp40
 70
     1
102
RTVSPost2010Prop41ColorIndex
 90
       18
102
RTVSPost2010Prop41ColorRGB
 90
        0
102
RTVSPost2010PropOp41
 70
     1
102
RTVSPost2010Prop42
 90
       50
102
RTVSPost2010PropOp42
 70
     1
102
RTVSPost2010Prop43
 90
        3
102
RTVSPost2010PropOp43
 70
     1
102
RTVSPost2010Prop44ColorIndex
 90
        5
102
RTVSPost2010Prop44ColorRGB
 90
      255
102
RTVSPost2010PropOp44
 70
     1
102
RTVSPost2010Prop45
280
     0
102
RTVSPost2010PropOp45
 70
     1
102
RTVSPost2010Prop46
 90
       50
102
RTVSPost2010PropOp46
 70
     1
102
RTVSPost2010Prop47
 90
       50
102
RTVSPost2010PropOp47
 70
     1
102
RTVSPost2010Prop48
 90
       50
102
RTVSPost2010PropOp48
 70
     1
102
RTVSPost2010Prop49
280
     0
102
RTVSPost2010PropOp49
 70
     1
102
RTVSPost2010Prop50
 90
       50
102
RTVSPost2010PropOp50
 70
     1
102
RTVSPost2010Prop51ColorIndex
 90
      256
102
RTVSPost2010Prop51ColorRGB
 90
-16777216
102
RTVSPost2010PropOp51
 70
     0
102
RTVSPost2010Prop52
140
1.0
102
RTVSPost2010PropOp52
 70
     0
102
RTVSPost2010Prop53
 90
        2
102
RTVSPost2010PropOp53
 70
     1
102
RTVSPost2010Prop54
  1
strokes_ogs.tif
102
RTVSPost2010PropOp54
 70
     1
102
RTVSPost2010Prop55
280
     0
102
RTVSPost2010PropOp55
 70
     1
102
RTVSPost2010Prop56
140
1.0
102
RTVSPost2010PropOp56
 70
     1
102
RTVSPost2010Prop57
140
1.0
102
RTVSPost2010PropOp57
 70
     1
102
RTVSPropertyOp0
 70
     1
102
RTVSPropertyOp1
 70
     1
102
RTVSPropertyOp2
 70
     1
102
RTVSPropertyOp3
 70
     1
102
RTVSPropertyOp4
 70
     1
102
RTVSPropertyOp5
 70
     1
102
RTVSPropertyOp6
 70
     1
102
RTVSPropertyOp7
 70
     1
102
RTVSPropertyOp8
 70
     1
102
RTVSPropertyOp9
 70
     1
102
RTVSPropertyOp10
 70
     1
102
RTVSPropertyOp11
 70
     1
102
RTVSPropertyOp12
 70
     1
102
RTVSPropertyOp13
 70
     1
102
RTVSPropertyOp14
 70
     1
102
RTVSPropertyOp15
 70
     1
102
RTVSPropertyOp16
 70
     1
102
RTVSPropertyOp17
 70
     1
102
RTVSPropertyOp18
 70
     1
102
RTVSPropertyOp19
 70
     1
102
RTVSPropertyOp20
 70
     1
102
RTVSPropertyOp21
 70
     1
102
RTVSPropertyOp22
 70
     1
102
RTVSPropertyOp23
 70
     1
102
RTVSPropertyOp24
 70
     1
102
RTVSPropertyOp25
 70
     1
102
RTVSPropertyOp26
 70
     1
102
RTVSPropertyOp27
 70
     1
102
RTVSPropertyOp28
 70
     1
102
RTVSPropertyOp29
 70
     1
102
RTVSPropertyOp30
 70
     1
102
RTVSPropertyOp31
 70
     1
102
RTVSPropertyOp32
 70
     1
102
RTVSPropertyOp33
 70
     1
102
RTVSPropertyOp34
 70
     1
102
RTVSPropertyOp35
 70
     1
102
RTVSPropertyOp36
 70
     1
102
RTVSPropertyOp37
 70
     1
102
RTVSPropertyOp38
 70
     1
102
RTVSPropertyOp39
 70
     1
102
RTVSPropertyOp40
 70
     1
102
RTVSPropertyOp41
 70
     1
102
RTVSPropertyOp42
 70
     1
102
RTVSPropertyOp43
 70
     1
102
RTVSPropertyOp44
 70
     1
102
RTVSPropertyOp45
 70
     1
102
RTVSPropertyOp46
 70
     1
102
RTVSPropertyOp47
 70
     1
102
RTVSPropertyOp48
 70
     1
102
RTVSPropertyOp49
 70
     1
102
RTVSPropertyOp50
 70
     1
102
RTVSPropertyOp51
 70
     0
102
RTVSPropertyOp52
 70
     0
102
RTVSPropertyOp53
 70
     1
102
RTVSPropertyOp54
 70
     1
102
RTVSPropertyOp55
 70
     1
102
RTVSPropertyOp56
 70
     1
102
RTVSPropertyOp57
 70
     1
102
RTVSPropertyOp58
 70
     1
102
RTVSPropertyOp59
 70
     1
102
RTVSPropertyOp60
 70
     1
102
RTVSPropertyOp61
 70
     1
102
RTVSPropertyOp62
 70
     1
  0
XRECORD
  5
14BA6
102
{ACAD_REACTORS
330
14BA5
102
}
330
14BA5
100
AcDbXrecord
280
     1
102
RTVSPost2010Prop28
280
     0
102
RTVSPost2010PropOp28
 70
     1
102
RTVSPost2010Prop29
280
     1
102
RTVSPost2010PropOp29
 70
     1
102
RTVSPost2010Prop30
280
     1
102
RTVSPost2010PropOp30
 70
     1
102
RTVSPost2010Prop31
280
     0
102
RTVSPost2010PropOp31
 70
     1
102
RTVSPost2010Prop32
280
     0
102
RTVSPost2010PropOp32
 70
     1
102
RTVSPost2010Prop33
280
     0
102
RTVSPost2010PropOp33
 70
     1
102
RTVSPost2010Prop34
280
     0
102
RTVSPost2010PropOp34
 70
     1
102
RTVSPost2010Prop35
280
     0
102
RTVSPost2010PropOp35
 70
     1
102
RTVSPost2010Prop36
280
     0
102
RTVSPost2010PropOp36
 70
     1
102
RTVSPost2010Prop37
 90
       50
102
RTVSPost2010PropOp37
 70
     1
102
RTVSPost2010Prop38
140
0.0
102
RTVSPost2010PropOp38
 70
     1
102
RTVSPost2010Prop39
140
1.0
102
RTVSPost2010PropOp39
 70
     1
102
RTVSPost2010Prop40
 90
        0
102
RTVSPost2010PropOp40
 70
     1
102
RTVSPost2010Prop41ColorIndex
 90
       18
102
RTVSPost2010Prop41ColorRGB
 90
        0
102
RTVSPost2010PropOp41
 70
     1
102
RTVSPost2010Prop42
 90
       50
102
RTVSPost2010PropOp42
 70
     1
102
RTVSPost2010Prop43
 90
        3
102
RTVSPost2010PropOp43
 70
     1
102
RTVSPost2010Prop44ColorIndex
 90
        5
102
RTVSPost2010Prop44ColorRGB
 90
      255
102
RTVSPost2010PropOp44
 70
     1
102
RTVSPost2010Prop45
280
     0
102
RTVSPost2010PropOp45
 70
     1
102
RTVSPost2010Prop46
 90
       50
102
RTVSPost2010PropOp46
 70
     1
102
RTVSPost2010Prop47
 90
       50
102
RTVSPost2010PropOp47
 70
     1
102
RTVSPost2010Prop48
 90
       50
102
RTVSPost2010PropOp48
 70
     1
102
RTVSPost2010Prop49
280
     0
102
RTVSPost2010PropOp49
 70
     1
102
RTVSPost2010Prop50
 90
       50
102
RTVSPost2010PropOp50
 70
     1
102
RTVSPost2010Prop51ColorIndex
 90
      256
102
RTVSPost2010Prop51ColorRGB
 90
-16777216
102
RTVSPost2010PropOp51
 70
     0
102
RTVSPost2010Prop52
140
1.0
102
RTVSPost2010PropOp52
 70
     0
102
RTVSPost2010Prop53
 90
        2
102
RTVSPost2010PropOp53
 70
     1
102
RTVSPost2010Prop54
  1
strokes_ogs.tif
102
RTVSPost2010PropOp54
 70
     1
102
RTVSPost2010Prop55
280
     0
102
RTVSPost2010PropOp55
 70
     1
102
RTVSPost2010Prop56
140
1.0
102
RTVSPost2010PropOp56
 70
     1
102
RTVSPost2010Prop57
140
1.0
102
RTVSPost2010PropOp57
 70
     1
102
RTVSPropertyOp0
 70
     1
102
RTVSPropertyOp1
 70
     1
102
RTVSPropertyOp2
 70
     1
102
RTVSPropertyOp3
 70
     1
102
RTVSPropertyOp4
 70
     1
102
RTVSPropertyOp5
 70
     1
102
RTVSPropertyOp6
 70
     1
102
RTVSPropertyOp7
 70
     1
102
RTVSPropertyOp8
 70
     1
102
RTVSPropertyOp9
 70
     1
102
RTVSPropertyOp10
 70
     1
102
RTVSPropertyOp11
 70
     1
102
RTVSPropertyOp12
 70
     1
102
RTVSPropertyOp13
 70
     1
102
RTVSPropertyOp14
 70
     1
102
RTVSPropertyOp15
 70
     1
102
RTVSPropertyOp16
 70
     1
102
RTVSPropertyOp17
 70
     1
102
RTVSPropertyOp18
 70
     1
102
RTVSPropertyOp19
 70
     1
102
RTVSPropertyOp20
 70
     1
102
RTVSPropertyOp21
 70
     1
102
RTVSPropertyOp22
 70
     1
102
RTVSPropertyOp23
 70
     1
102
RTVSPropertyOp24
 70
     1
102
RTVSPropertyOp25
 70
     1
102
RTVSPropertyOp26
 70
     1
102
RTVSPropertyOp27
 70
     1
102
RTVSPropertyOp28
 70
     1
102
RTVSPropertyOp29
 70
     1
102
RTVSPropertyOp30
 70
     1
102
RTVSPropertyOp31
 70
     1
102
RTVSPropertyOp32
 70
     1
102
RTVSPropertyOp33
 70
     1
102
RTVSPropertyOp34
 70
     1
102
RTVSPropertyOp35
 70
     1
102
RTVSPropertyOp36
 70
     1
102
RTVSPropertyOp37
 70
     1
102
RTVSPropertyOp38
 70
     1
102
RTVSPropertyOp39
 70
     1
102
RTVSPropertyOp40
 70
     1
102
RTVSPropertyOp41
 70
     1
102
RTVSPropertyOp42
 70
     1
102
RTVSPropertyOp43
 70
     1
102
RTVSPropertyOp44
 70
     1
102
RTVSPropertyOp45
 70
     1
102
RTVSPropertyOp46
 70
     1
102
RTVSPropertyOp47
 70
     1
102
RTVSPropertyOp48
 70
     1
102
RTVSPropertyOp49
 70
     1
102
RTVSPropertyOp50
 70
     1
102
RTVSPropertyOp51
 70
     0
102
RTVSPropertyOp52
 70
     0
102
RTVSPropertyOp53
 70
     1
102
RTVSPropertyOp54
 70
     1
102
RTVSPropertyOp55
 70
     1
102
RTVSPropertyOp56
 70
     1
102
RTVSPropertyOp57
 70
     1
102
RTVSPropertyOp58
 70
     1
102
RTVSPropertyOp59
 70
     1
102
RTVSPropertyOp60
 70
     1
102
RTVSPropertyOp61
 70
     1
102
RTVSPropertyOp62
 70
     1
  0
XRECORD
  5
14B9C
102
{ACAD_REACTORS
330
14B9B
102
}
330
14B9B
100
AcDbXrecord
280
     1
102
RTVSPost2010Prop28
280
     0
102
RTVSPost2010PropOp28
 70
     1
102
RTVSPost2010Prop29
280
     1
102
RTVSPost2010PropOp29
 70
     1
102
RTVSPost2010Prop30
280
     1
102
RTVSPost2010PropOp30
 70
     1
102
RTVSPost2010Prop31
280
     0
102
RTVSPost2010PropOp31
 70
     1
102
RTVSPost2010Prop32
280
     0
102
RTVSPost2010PropOp32
 70
     1
102
RTVSPost2010Prop33
280
     0
102
RTVSPost2010PropOp33
 70
     1
102
RTVSPost2010Prop34
280
     0
102
RTVSPost2010PropOp34
 70
     1
102
RTVSPost2010Prop35
280
     0
102
RTVSPost2010PropOp35
 70
     1
102
RTVSPost2010Prop36
280
     0
102
RTVSPost2010PropOp36
 70
     1
102
RTVSPost2010Prop37
 90
       50
102
RTVSPost2010PropOp37
 70
     1
102
RTVSPost2010Prop38
140
0.0
102
RTVSPost2010PropOp38
 70
     1
102
RTVSPost2010Prop39
140
1.0
102
RTVSPost2010PropOp39
 70
     1
102
RTVSPost2010Prop40
 90
        0
102
RTVSPost2010PropOp40
 70
     1
102
RTVSPost2010Prop41ColorIndex
 90
       18
102
RTVSPost2010Prop41ColorRGB
 90
        0
102
RTVSPost2010PropOp41
 70
     1
102
RTVSPost2010Prop42
 90
       50
102
RTVSPost2010PropOp42
 70
     1
102
RTVSPost2010Prop43
 90
        3
102
RTVSPost2010PropOp43
 70
     1
102
RTVSPost2010Prop44ColorIndex
 90
        5
102
RTVSPost2010Prop44ColorRGB
 90
      255
102
RTVSPost2010PropOp44
 70
     1
102
RTVSPost2010Prop45
280
     0
102
RTVSPost2010PropOp45
 70
     1
102
RTVSPost2010Prop46
 90
       50
102
RTVSPost2010PropOp46
 70
     1
102
RTVSPost2010Prop47
 90
       50
102
RTVSPost2010PropOp47
 70
     1
102
RTVSPost2010Prop48
 90
       50
102
RTVSPost2010PropOp48
 70
     1
102
RTVSPost2010Prop49
280
     0
102
RTVSPost2010PropOp49
 70
     1
102
RTVSPost2010Prop50
 90
       50
102
RTVSPost2010PropOp50
 70
     1
102
RTVSPost2010Prop51ColorIndex
 90
      256
102
RTVSPost2010Prop51ColorRGB
 90
-16777216
102
RTVSPost2010PropOp51
 70
     0
102
RTVSPost2010Prop52
140
1.0
102
RTVSPost2010PropOp52
 70
     0
102
RTVSPost2010Prop53
 90
        2
102
RTVSPost2010PropOp53
 70
     1
102
RTVSPost2010Prop54
  1
strokes_ogs.tif
102
RTVSPost2010PropOp54
 70
     1
102
RTVSPost2010Prop55
280
     0
102
RTVSPost2010PropOp55
 70
     1
102
RTVSPost2010Prop56
140
1.0
102
RTVSPost2010PropOp56
 70
     1
102
RTVSPost2010Prop57
140
1.0
102
RTVSPost2010PropOp57
 70
     1
102
RTVSPropertyOp0
 70
     1
102
RTVSPropertyOp1
 70
     1
102
RTVSPropertyOp2
 70
     1
102
RTVSPropertyOp3
 70
     1
102
RTVSPropertyOp4
 70
     1
102
RTVSPropertyOp5
 70
     1
102
RTVSPropertyOp6
 70
     1
102
RTVSPropertyOp7
 70
     1
102
RTVSPropertyOp8
 70
     1
102
RTVSPropertyOp9
 70
     1
102
RTVSPropertyOp10
 70
     1
102
RTVSPropertyOp11
 70
     1
102
RTVSPropertyOp12
 70
     1
102
RTVSPropertyOp13
 70
     1
102
RTVSPropertyOp14
 70
     1
102
RTVSPropertyOp15
 70
     1
102
RTVSPropertyOp16
 70
     1
102
RTVSPropertyOp17
 70
     1
102
RTVSPropertyOp18
 70
     1
102
RTVSPropertyOp19
 70
     1
102
RTVSPropertyOp20
 70
     1
102
RTVSPropertyOp21
 70
     1
102
RTVSPropertyOp22
 70
     1
102
RTVSPropertyOp23
 70
     1
102
RTVSPropertyOp24
 70
     1
102
RTVSPropertyOp25
 70
     1
102
RTVSPropertyOp26
 70
     1
102
RTVSPropertyOp27
 70
     1
102
RTVSPropertyOp28
 70
     1
102
RTVSPropertyOp29
 70
     1
102
RTVSPropertyOp30
 70
     1
102
RTVSPropertyOp31
 70
     1
102
RTVSPropertyOp32
 70
     1
102
RTVSPropertyOp33
 70
     1
102
RTVSPropertyOp34
 70
     1
102
RTVSPropertyOp35
 70
     1
102
RTVSPropertyOp36
 70
     1
102
RTVSPropertyOp37
 70
     1
102
RTVSPropertyOp38
 70
     1
102
RTVSPropertyOp39
 70
     1
102
RTVSPropertyOp40
 70
     1
102
RTVSPropertyOp41
 70
     1
102
RTVSPropertyOp42
 70
     1
102
RTVSPropertyOp43
 70
     1
102
RTVSPropertyOp44
 70
     1
102
RTVSPropertyOp45
 70
     1
102
RTVSPropertyOp46
 70
     1
102
RTVSPropertyOp47
 70
     1
102
RTVSPropertyOp48
 70
     1
102
RTVSPropertyOp49
 70
     1
102
RTVSPropertyOp50
 70
     1
102
RTVSPropertyOp51
 70
     0
102
RTVSPropertyOp52
 70
     0
102
RTVSPropertyOp53
 70
     1
102
RTVSPropertyOp54
 70
     1
102
RTVSPropertyOp55
 70
     1
102
RTVSPropertyOp56
 70
     1
102
RTVSPropertyOp57
 70
     1
102
RTVSPropertyOp58
 70
     1
102
RTVSPropertyOp59
 70
     1
102
RTVSPropertyOp60
 70
     1
102
RTVSPropertyOp61
 70
     1
102
RTVSPropertyOp62
 70
     1
  0
XRECORD
  5
14B90
102
{ACAD_REACTORS
330
14B8F
102
}
330
14B8F
100
AcDbXrecord
280
     1
102
RTVSPost2010Prop28
280
     0
102
RTVSPost2010PropOp28
 70
     1
102
RTVSPost2010Prop29
280
     1
102
RTVSPost2010PropOp29
 70
     1
102
RTVSPost2010Prop30
280
     1
102
RTVSPost2010PropOp30
 70
     1
102
RTVSPost2010Prop31
280
     0
102
RTVSPost2010PropOp31
 70
     1
102
RTVSPost2010Prop32
280
     0
102
RTVSPost2010PropOp32
 70
     1
102
RTVSPost2010Prop33
280
     0
102
RTVSPost2010PropOp33
 70
     1
102
RTVSPost2010Prop34
280
     0
102
RTVSPost2010PropOp34
 70
     1
102
RTVSPost2010Prop35
280
     0
102
RTVSPost2010PropOp35
 70
     1
102
RTVSPost2010Prop36
280
     0
102
RTVSPost2010PropOp36
 70
     1
102
RTVSPost2010Prop37
 90
       50
102
RTVSPost2010PropOp37
 70
     1
102
RTVSPost2010Prop38
140
0.0
102
RTVSPost2010PropOp38
 70
     1
102
RTVSPost2010Prop39
140
1.0
102
RTVSPost2010PropOp39
 70
     1
102
RTVSPost2010Prop40
 90
        0
102
RTVSPost2010PropOp40
 70
     1
102
RTVSPost2010Prop41ColorIndex
 90
       18
102
RTVSPost2010Prop41ColorRGB
 90
        0
102
RTVSPost2010PropOp41
 70
     1
102
RTVSPost2010Prop42
 90
       50
102
RTVSPost2010PropOp42
 70
     1
102
RTVSPost2010Prop43
 90
        3
102
RTVSPost2010PropOp43
 70
     1
102
RTVSPost2010Prop44ColorIndex
 90
        5
102
RTVSPost2010Prop44ColorRGB
 90
      255
102
RTVSPost2010PropOp44
 70
     1
102
RTVSPost2010Prop45
280
     0
102
RTVSPost2010PropOp45
 70
     1
102
RTVSPost2010Prop46
 90
       50
102
RTVSPost2010PropOp46
 70
     1
102
RTVSPost2010Prop47
 90
       50
102
RTVSPost2010PropOp47
 70
     1
102
RTVSPost2010Prop48
 90
       50
102
RTVSPost2010PropOp48
 70
     1
102
RTVSPost2010Prop49
280
     0
102
RTVSPost2010PropOp49
 70
     1
102
RTVSPost2010Prop50
 90
       50
102
RTVSPost2010PropOp50
 70
     1
102
RTVSPost2010Prop51ColorIndex
 90
      256
102
RTVSPost2010Prop51ColorRGB
 90
-16777216
102
RTVSPost2010PropOp51
 70
     0
102
RTVSPost2010Prop52
140
1.0
102
RTVSPost2010PropOp52
 70
     0
102
RTVSPost2010Prop53
 90
        2
102
RTVSPost2010PropOp53
 70
     1
102
RTVSPost2010Prop54
  1
strokes_ogs.tif
102
RTVSPost2010PropOp54
 70
     1
102
RTVSPost2010Prop55
280
     0
102
RTVSPost2010PropOp55
 70
     1
102
RTVSPost2010Prop56
140
1.0
102
RTVSPost2010PropOp56
 70
     1
102
RTVSPost2010Prop57
140
1.0
102
RTVSPost2010PropOp57
 70
     1
102
RTVSPropertyOp0
 70
     1
102
RTVSPropertyOp1
 70
     1
102
RTVSPropertyOp2
 70
     1
102
RTVSPropertyOp3
 70
     1
102
RTVSPropertyOp4
 70
     1
102
RTVSPropertyOp5
 70
     1
102
RTVSPropertyOp6
 70
     1
102
RTVSPropertyOp7
 70
     1
102
RTVSPropertyOp8
 70
     1
102
RTVSPropertyOp9
 70
     1
102
RTVSPropertyOp10
 70
     1
102
RTVSPropertyOp11
 70
     1
102
RTVSPropertyOp12
 70
     1
102
RTVSPropertyOp13
 70
     1
102
RTVSPropertyOp14
 70
     1
102
RTVSPropertyOp15
 70
     1
102
RTVSPropertyOp16
 70
     1
102
RTVSPropertyOp17
 70
     1
102
RTVSPropertyOp18
 70
     1
102
RTVSPropertyOp19
 70
     1
102
RTVSPropertyOp20
 70
     1
102
RTVSPropertyOp21
 70
     1
102
RTVSPropertyOp22
 70
     1
102
RTVSPropertyOp23
 70
     1
102
RTVSPropertyOp24
 70
     1
102
RTVSPropertyOp25
 70
     1
102
RTVSPropertyOp26
 70
     1
102
RTVSPropertyOp27
 70
     1
102
RTVSPropertyOp28
 70
     1
102
RTVSPropertyOp29
 70
     1
102
RTVSPropertyOp30
 70
     1
102
RTVSPropertyOp31
 70
     1
102
RTVSPropertyOp32
 70
     1
102
RTVSPropertyOp33
 70
     1
102
RTVSPropertyOp34
 70
     1
102
RTVSPropertyOp35
 70
     1
102
RTVSPropertyOp36
 70
     1
102
RTVSPropertyOp37
 70
     1
102
RTVSPropertyOp38
 70
     1
102
RTVSPropertyOp39
 70
     1
102
RTVSPropertyOp40
 70
     1
102
RTVSPropertyOp41
 70
     1
102
RTVSPropertyOp42
 70
     1
102
RTVSPropertyOp43
 70
     1
102
RTVSPropertyOp44
 70
     1
102
RTVSPropertyOp45
 70
     1
102
RTVSPropertyOp46
 70
     1
102
RTVSPropertyOp47
 70
     1
102
RTVSPropertyOp48
 70
     1
102
RTVSPropertyOp49
 70
     1
102
RTVSPropertyOp50
 70
     1
102
RTVSPropertyOp51
 70
     0
102
RTVSPropertyOp52
 70
     0
102
RTVSPropertyOp53
 70
     1
102
RTVSPropertyOp54
 70
     1
102
RTVSPropertyOp55
 70
     1
102
RTVSPropertyOp56
 70
     1
102
RTVSPropertyOp57
 70
     1
102
RTVSPropertyOp58
 70
     1
102
RTVSPropertyOp59
 70
     1
102
RTVSPropertyOp60
 70
     1
102
RTVSPropertyOp61
 70
     1
102
RTVSPropertyOp62
 70
     1
  0
XRECORD
  5
14BA8
102
{ACAD_REACTORS
330
14BA7
102
}
330
14BA7
100
AcDbXrecord
280
     1
102
RTVSPost2010Prop28
280
     0
102
RTVSPost2010PropOp28
 70
     1
102
RTVSPost2010Prop29
280
     1
102
RTVSPost2010PropOp29
 70
     1
102
RTVSPost2010Prop30
280
     1
102
RTVSPost2010PropOp30
 70
     1
102
RTVSPost2010Prop31
280
     0
102
RTVSPost2010PropOp31
 70
     1
102
RTVSPost2010Prop32
280
     0
102
RTVSPost2010PropOp32
 70
     1
102
RTVSPost2010Prop33
280
     0
102
RTVSPost2010PropOp33
 70
     1
102
RTVSPost2010Prop34
280
     0
102
RTVSPost2010PropOp34
 70
     1
102
RTVSPost2010Prop35
280
     0
102
RTVSPost2010PropOp35
 70
     1
102
RTVSPost2010Prop36
280
     0
102
RTVSPost2010PropOp36
 70
     1
102
RTVSPost2010Prop37
 90
       50
102
RTVSPost2010PropOp37
 70
     1
102
RTVSPost2010Prop38
140
0.0
102
RTVSPost2010PropOp38
 70
     1
102
RTVSPost2010Prop39
140
1.0
102
RTVSPost2010PropOp39
 70
     1
102
RTVSPost2010Prop40
 90
        0
102
RTVSPost2010PropOp40
 70
     1
102
RTVSPost2010Prop41ColorIndex
 90
       18
102
RTVSPost2010Prop41ColorRGB
 90
        0
102
RTVSPost2010PropOp41
 70
     1
102
RTVSPost2010Prop42
 90
       50
102
RTVSPost2010PropOp42
 70
     1
102
RTVSPost2010Prop43
 90
        3
102
RTVSPost2010PropOp43
 70
     1
102
RTVSPost2010Prop44ColorIndex
 90
        5
102
RTVSPost2010Prop44ColorRGB
 90
      255
102
RTVSPost2010PropOp44
 70
     1
102
RTVSPost2010Prop45
280
     0
102
RTVSPost2010PropOp45
 70
     1
102
RTVSPost2010Prop46
 90
       50
102
RTVSPost2010PropOp46
 70
     1
102
RTVSPost2010Prop47
 90
       50
102
RTVSPost2010PropOp47
 70
     1
102
RTVSPost2010Prop48
 90
       50
102
RTVSPost2010PropOp48
 70
     1
102
RTVSPost2010Prop49
280
     0
102
RTVSPost2010PropOp49
 70
     1
102
RTVSPost2010Prop50
 90
       50
102
RTVSPost2010PropOp50
 70
     1
102
RTVSPost2010Prop51ColorIndex
 90
      256
102
RTVSPost2010Prop51ColorRGB
 90
-16777216
102
RTVSPost2010PropOp51
 70
     0
102
RTVSPost2010Prop52
140
1.0
102
RTVSPost2010PropOp52
 70
     0
102
RTVSPost2010Prop53
 90
        2
102
RTVSPost2010PropOp53
 70
     1
102
RTVSPost2010Prop54
  1
strokes_ogs.tif
102
RTVSPost2010PropOp54
 70
     1
102
RTVSPost2010Prop55
280
     0
102
RTVSPost2010PropOp55
 70
     1
102
RTVSPost2010Prop56
140
1.0
102
RTVSPost2010PropOp56
 70
     1
102
RTVSPost2010Prop57
140
1.0
102
RTVSPost2010PropOp57
 70
     1
102
RTVSPropertyOp0
 70
     1
102
RTVSPropertyOp1
 70
     1
102
RTVSPropertyOp2
 70
     1
102
RTVSPropertyOp3
 70
     1
102
RTVSPropertyOp4
 70
     1
102
RTVSPropertyOp5
 70
     1
102
RTVSPropertyOp6
 70
     1
102
RTVSPropertyOp7
 70
     1
102
RTVSPropertyOp8
 70
     1
102
RTVSPropertyOp9
 70
     1
102
RTVSPropertyOp10
 70
     1
102
RTVSPropertyOp11
 70
     1
102
RTVSPropertyOp12
 70
     1
102
RTVSPropertyOp13
 70
     1
102
RTVSPropertyOp14
 70
     1
102
RTVSPropertyOp15
 70
     1
102
RTVSPropertyOp16
 70
     1
102
RTVSPropertyOp17
 70
     1
102
RTVSPropertyOp18
 70
     1
102
RTVSPropertyOp19
 70
     1
102
RTVSPropertyOp20
 70
     1
102
RTVSPropertyOp21
 70
     1
102
RTVSPropertyOp22
 70
     1
102
RTVSPropertyOp23
 70
     1
102
RTVSPropertyOp24
 70
     1
102
RTVSPropertyOp25
 70
     1
102
RTVSPropertyOp26
 70
     1
102
RTVSPropertyOp27
 70
     1
102
RTVSPropertyOp28
 70
     1
102
RTVSPropertyOp29
 70
     1
102
RTVSPropertyOp30
 70
     1
102
RTVSPropertyOp31
 70
     1
102
RTVSPropertyOp32
 70
     1
102
RTVSPropertyOp33
 70
     1
102
RTVSPropertyOp34
 70
     1
102
RTVSPropertyOp35
 70
     1
102
RTVSPropertyOp36
 70
     1
102
RTVSPropertyOp37
 70
     1
102
RTVSPropertyOp38
 70
     1
102
RTVSPropertyOp39
 70
     1
102
RTVSPropertyOp40
 70
     1
102
RTVSPropertyOp41
 70
     1
102
RTVSPropertyOp42
 70
     1
102
RTVSPropertyOp43
 70
     1
102
RTVSPropertyOp44
 70
     1
102
RTVSPropertyOp45
 70
     1
102
RTVSPropertyOp46
 70
     1
102
RTVSPropertyOp47
 70
     1
102
RTVSPropertyOp48
 70
     1
102
RTVSPropertyOp49
 70
     1
102
RTVSPropertyOp50
 70
     1
102
RTVSPropertyOp51
 70
     0
102
RTVSPropertyOp52
 70
     0
102
RTVSPropertyOp53
 70
     1
102
RTVSPropertyOp54
 70
     1
102
RTVSPropertyOp55
 70
     1
102
RTVSPropertyOp56
 70
     1
102
RTVSPropertyOp57
 70
     1
102
RTVSPropertyOp58
 70
     1
102
RTVSPropertyOp59
 70
     1
102
RTVSPropertyOp60
 70
     1
102
RTVSPropertyOp61
 70
     1
102
RTVSPropertyOp62
 70
     1
  0
ENDSEC
  0
EOF
