ISO-10303-21;
HEADER;
/****************************************************************
 * Generated by software with PDE/Lib inside                    *
 * PDElib Version 4.4.1-0003, patched  Thursday August 19 11:58 *
 * International Technegroup Inc. (www.iti-oh.com)              *
 ****************************************************************/
FILE_DESCRIPTION((''),'2;1');
FILE_NAME('','2005-12-15T09:57:56',(''),(''),'','CADfix','');
FILE_SCHEMA(('AUTOMOTIVE_DESIGN'));
ENDSEC;
DATA;
#5=APPLICATION_CONTEXT('automotive design');
#6=APPLICATION_PROTOCOL_DEFINITION('Draft International Standard','automotive_design',1998,#5);
#7=PRODUCT_CONTEXT('None',#5,'mechanical');
#8=PRODUCT('rubber foam','','None',(#7));
#9=PRODUCT_RELATED_PRODUCT_CATEGORY('part','description',(#8));
#10=PRODUCT_DEFINITION_FORMATION('None','None',#8);
#11=PRODUCT_DEFINITION_CONTEXT('part definition',#5,'design');
#12=PRODUCT_DEFINITION('None','None',#10,#11);
#18=(NAMED_UNIT(*)PLANE_ANGLE_UNIT()SI_UNIT($,.RADIAN.));
#19=DIMENSIONAL_EXPONENTS(0.0,0.0,0.0,0.0,0.0,0.0,0.0);
#20=PLANE_ANGLE_MEASURE_WITH_UNIT(PLANE_ANGLE_MEASURE(0.017453292500000),#18);
#24=(CONVERSION_BASED_UNIT('DEGREE',#20)NAMED_UNIT(#19)PLANE_ANGLE_UNIT());
#28=(NAMED_UNIT(*)SI_UNIT($,.STERADIAN.)SOLID_ANGLE_UNIT());
#32=(LENGTH_UNIT()NAMED_UNIT(*)SI_UNIT(.MILLI.,.METRE.));
#34=UNCERTAINTY_MEASURE_WITH_UNIT(LENGTH_MEASURE(0.001000000000000),#32,'DISTANCE_ACCURACY_VALUE','');
#36=(GEOMETRIC_REPRESENTATION_CONTEXT(3)GLOBAL_UNCERTAINTY_ASSIGNED_CONTEXT((#34))GLOBAL_UNIT_ASSIGNED_CONTEXT((#24,#28,#32))REPRESENTATION_CONTEXT('None','None'));
#37=AXIS2_PLACEMENT_3D('',#38,#39,#40);
#38=CARTESIAN_POINT('',(0.0,0.0,0.0));
#39=DIRECTION('',(0.0,0.0,1.0));
#40=DIRECTION('',(1.0,0.0,0.0));
#41=ADVANCED_BREP_SHAPE_REPRESENTATION('',(#37,#214),#36);
#42=PRODUCT_DEFINITION_SHAPE('','',#12);
#43=SHAPE_DEFINITION_REPRESENTATION(#42,#41);
#44=CARTESIAN_POINT('',(-0.749249970927090,0.0,10.499499980617371));
#45=CARTESIAN_POINT('',(15.749250373258439,0.0,10.499499980617371));
#46=CARTESIAN_POINT('',(-0.749249970927090,0.0,-0.499500248838928));
#47=CARTESIAN_POINT('',(15.749250373258439,0.0,-0.499500248838928));
#48=B_SPLINE_SURFACE_WITH_KNOTS('',1,1,((#44,#46),(#45,#47)),.UNSPECIFIED.,.F.,.F.,.U.,(2,2),(2,2),(0.0,16.498500344185530),(0.0,10.999000229456289),.UNSPECIFIED.);
#49=CARTESIAN_POINT('',(15.0,0.0,0.0));
#50=VERTEX_POINT('',#49);
#51=CARTESIAN_POINT('',(15.0,0.0,2.500000000000000));
#52=VERTEX_POINT('',#51);
#53=CARTESIAN_POINT('',(15.0,0.0,0.0));
#54=CARTESIAN_POINT('',(15.0,0.0,2.500000000000000));
#55=QUASI_UNIFORM_CURVE('',1,(#53,#54),.UNSPECIFIED.,.F.,.U.);
#56=EDGE_CURVE('',#50,#52,#55,.T.);
#57=ORIENTED_EDGE('',*,*,#56,.T.);
#58=CARTESIAN_POINT('',(0.0,0.0,2.500000000000000));
#59=VERTEX_POINT('',#58);
#60=CARTESIAN_POINT('',(15.0,0.0,2.500000000000000));
#61=CARTESIAN_POINT('',(14.999999999999996,0.0,10.0));
#62=CARTESIAN_POINT('',(7.500000000000000,0.0,10.0));
#63=CARTESIAN_POINT('',(0.0,0.0,10.0));
#64=CARTESIAN_POINT('',(0.0,0.0,2.500000000000000));
#72=(BOUNDED_CURVE()B_SPLINE_CURVE(2,(#60,#61,#62,#63,#64),.UNSPECIFIED.,.F.,.U.)B_SPLINE_CURVE_WITH_KNOTS((3,2,3),(0.0,0.500000000000000,1.0),.UNSPECIFIED.)CURVE()GEOMETRIC_REPRESENTATION_ITEM()RATIONAL_B_SPLINE_CURVE((1.0,0.707106781186547,1.0,0.707106781186547,1.0))REPRESENTATION_ITEM(''));
#73=EDGE_CURVE('',#52,#59,#72,.T.);
#74=ORIENTED_EDGE('',*,*,#73,.T.);
#75=CARTESIAN_POINT('',(0.0,0.0,0.0));
#76=VERTEX_POINT('',#75);
#77=CARTESIAN_POINT('',(0.0,0.0,2.500000000000000));
#78=CARTESIAN_POINT('',(0.0,0.0,0.0));
#79=QUASI_UNIFORM_CURVE('',1,(#77,#78),.UNSPECIFIED.,.F.,.U.);
#80=EDGE_CURVE('',#59,#76,#79,.T.);
#81=ORIENTED_EDGE('',*,*,#80,.T.);
#82=CARTESIAN_POINT('',(0.0,0.0,0.0));
#83=CARTESIAN_POINT('',(15.0,0.0,0.0));
#84=QUASI_UNIFORM_CURVE('',1,(#82,#83),.UNSPECIFIED.,.F.,.U.);
#85=EDGE_CURVE('',#76,#50,#84,.T.);
#86=ORIENTED_EDGE('',*,*,#85,.T.);
#87=EDGE_LOOP('',(#57,#74,#81,#86));
#88=FACE_OUTER_BOUND('',#87,.T.);
#89=ADVANCED_FACE('',(#88),#48,.F.);
#90=CARTESIAN_POINT('',(-0.749249970927090,200.0,10.499499980617371));
#91=CARTESIAN_POINT('',(15.749250373258439,200.0,10.499499980617371));
#92=CARTESIAN_POINT('',(-0.749249970927090,200.0,-0.499500248838928));
#93=CARTESIAN_POINT('',(15.749250373258439,200.0,-0.499500248838928));
#94=B_SPLINE_SURFACE_WITH_KNOTS('',1,1,((#90,#92),(#91,#93)),.UNSPECIFIED.,.F.,.F.,.U.,(2,2),(2,2),(0.0,16.498500344185530),(0.0,10.999000229456289),.UNSPECIFIED.);
#95=CARTESIAN_POINT('',(15.0,200.0,0.0));
#96=VERTEX_POINT('',#95);
#97=CARTESIAN_POINT('',(15.0,200.0,2.500000000000000));
#98=VERTEX_POINT('',#97);
#99=CARTESIAN_POINT('',(15.0,200.0,0.0));
#100=CARTESIAN_POINT('',(15.0,200.0,2.500000000000000));
#101=QUASI_UNIFORM_CURVE('',1,(#99,#100),.UNSPECIFIED.,.F.,.U.);
#102=EDGE_CURVE('',#96,#98,#101,.T.);
#103=ORIENTED_EDGE('',*,*,#102,.F.);
#104=CARTESIAN_POINT('',(0.0,200.0,0.0));
#105=VERTEX_POINT('',#104);
#106=CARTESIAN_POINT('',(0.0,200.0,0.0));
#107=CARTESIAN_POINT('',(15.0,200.0,0.0));
#108=QUASI_UNIFORM_CURVE('',1,(#106,#107),.UNSPECIFIED.,.F.,.U.);
#109=EDGE_CURVE('',#105,#96,#108,.T.);
#110=ORIENTED_EDGE('',*,*,#109,.F.);
#111=CARTESIAN_POINT('',(0.0,200.0,2.500000000000000));
#112=VERTEX_POINT('',#111);
#113=CARTESIAN_POINT('',(0.0,200.0,2.500000000000000));
#114=CARTESIAN_POINT('',(0.0,200.0,0.0));
#115=QUASI_UNIFORM_CURVE('',1,(#113,#114),.UNSPECIFIED.,.F.,.U.);
#116=EDGE_CURVE('',#112,#105,#115,.T.);
#117=ORIENTED_EDGE('',*,*,#116,.F.);
#118=CARTESIAN_POINT('',(15.0,200.0,2.500000000000000));
#119=CARTESIAN_POINT('',(14.999999999999996,200.000000000000030,10.0));
#120=CARTESIAN_POINT('',(7.500000000000000,200.0,10.0));
#121=CARTESIAN_POINT('',(0.0,200.000000000000030,10.0));
#122=CARTESIAN_POINT('',(0.0,200.0,2.500000000000000));
#130=(BOUNDED_CURVE()B_SPLINE_CURVE(2,(#118,#119,#120,#121,#122),.UNSPECIFIED.,.F.,.U.)B_SPLINE_CURVE_WITH_KNOTS((3,2,3),(0.0,0.500000000000000,1.0),.UNSPECIFIED.)CURVE()GEOMETRIC_REPRESENTATION_ITEM()RATIONAL_B_SPLINE_CURVE((1.0,0.707106781186547,1.0,0.707106781186547,1.0))REPRESENTATION_ITEM(''));
#131=EDGE_CURVE('',#98,#112,#130,.T.);
#132=ORIENTED_EDGE('',*,*,#131,.F.);
#133=EDGE_LOOP('',(#103,#110,#117,#132));
#134=FACE_OUTER_BOUND('',#133,.T.);
#135=ADVANCED_FACE('',(#134),#94,.T.);
#136=CARTESIAN_POINT('',(15.749249970927091,-9.989999612361194,0.0));
#137=CARTESIAN_POINT('',(-0.749250373258442,-9.989999612361194,0.0));
#138=CARTESIAN_POINT('',(15.749249970927091,209.990004976779200,0.0));
#139=CARTESIAN_POINT('',(-0.749250373258442,209.990004976779200,0.0));
#140=B_SPLINE_SURFACE_WITH_KNOTS('',1,1,((#136,#138),(#137,#139)),.UNSPECIFIED.,.F.,.F.,.U.,(2,2),(2,2),(0.0,16.498500344185530),(0.0,219.980004589140410),.UNSPECIFIED.);
#141=ORIENTED_EDGE('',*,*,#85,.F.);
#142=CARTESIAN_POINT('',(0.0,200.0,0.0));
#143=CARTESIAN_POINT('',(0.0,0.0,0.0));
#144=QUASI_UNIFORM_CURVE('',1,(#142,#143),.UNSPECIFIED.,.F.,.U.);
#145=EDGE_CURVE('',#105,#76,#144,.T.);
#146=ORIENTED_EDGE('',*,*,#145,.F.);
#147=ORIENTED_EDGE('',*,*,#109,.T.);
#148=CARTESIAN_POINT('',(15.0,200.0,0.0));
#149=CARTESIAN_POINT('',(15.0,0.0,0.0));
#150=QUASI_UNIFORM_CURVE('',1,(#148,#149),.UNSPECIFIED.,.F.,.U.);
#151=EDGE_CURVE('',#96,#50,#150,.T.);
#152=ORIENTED_EDGE('',*,*,#151,.T.);
#153=EDGE_LOOP('',(#141,#146,#147,#152));
#154=FACE_OUTER_BOUND('',#153,.T.);
#155=ADVANCED_FACE('',(#154),#140,.T.);
#156=CARTESIAN_POINT('',(0.0,-9.989999612361194,-0.124874995154515));
#157=CARTESIAN_POINT('',(0.0,-9.989999612361194,2.624875062209740));
#158=CARTESIAN_POINT('',(0.0,209.990004976779200,-0.124874995154515));
#159=CARTESIAN_POINT('',(0.0,209.990004976779200,2.624875062209740));
#160=B_SPLINE_SURFACE_WITH_KNOTS('',1,1,((#156,#158),(#157,#159)),.UNSPECIFIED.,.F.,.F.,.U.,(2,2),(2,2),(0.0,2.749750057364255),(0.0,219.980004589140410),.UNSPECIFIED.);
#161=ORIENTED_EDGE('',*,*,#80,.F.);
#162=CARTESIAN_POINT('',(0.0,200.0,2.500000000000000));
#163=CARTESIAN_POINT('',(0.0,0.0,2.500000000000000));
#164=QUASI_UNIFORM_CURVE('',1,(#162,#163),.UNSPECIFIED.,.F.,.U.);
#165=EDGE_CURVE('',#112,#59,#164,.T.);
#166=ORIENTED_EDGE('',*,*,#165,.F.);
#167=ORIENTED_EDGE('',*,*,#116,.T.);
#168=ORIENTED_EDGE('',*,*,#145,.T.);
#169=EDGE_LOOP('',(#161,#166,#167,#168));
#170=FACE_OUTER_BOUND('',#169,.T.);
#171=ADVANCED_FACE('',(#170),#160,.T.);
#172=CARTESIAN_POINT('',(0.002570062683323,205.0,2.303672887690941));
#173=CARTESIAN_POINT('',(0.002570062683323,-5.125000000000000,2.303672887690941));
#174=CARTESIAN_POINT('',(-0.204315546321768,205.000000000000030,10.204315546321745));
#175=CARTESIAN_POINT('',(-0.204315546321768,-5.124999999999999,10.204315546321745));
#176=CARTESIAN_POINT('',(7.696327112309038,205.0,9.997429937316678));
#177=CARTESIAN_POINT('',(7.696327112309038,-5.125000000000000,9.997429937316678));
#178=CARTESIAN_POINT('',(15.596969770939838,205.000000000000030,9.790544328311611));
#179=CARTESIAN_POINT('',(15.596969770939838,-5.124999999999999,9.790544328311611));
#180=CARTESIAN_POINT('',(14.976880002998460,205.0,1.911556782041174));
#181=CARTESIAN_POINT('',(14.976880002998460,-5.125000000000000,1.911556782041174));
#189=(BOUNDED_SURFACE()B_SPLINE_SURFACE(1,2,((#172,#174,#176,#178,#180),(#173,#175,#177,#179,#181)),.UNSPECIFIED.,.F.,.F.,.U.)B_SPLINE_SURFACE_WITH_KNOTS((2,2),(3,2,3),(0.0,210.125000000000110),(0.0,12.889017179005080,25.778034358010149),.UNSPECIFIED.)GEOMETRIC_REPRESENTATION_ITEM()RATIONAL_B_SPLINE_SURFACE(((1.0,0.688354575693754,1.0,0.688354575693754,1.0),(1.0,0.688354575693754,1.0,0.688354575693754,1.0)))REPRESENTATION_ITEM('')SURFACE());
#190=ORIENTED_EDGE('',*,*,#73,.F.);
#191=CARTESIAN_POINT('',(15.0,200.0,2.500000000000000));
#192=CARTESIAN_POINT('',(15.0,0.0,2.500000000000000));
#193=QUASI_UNIFORM_CURVE('',1,(#191,#192),.UNSPECIFIED.,.F.,.U.);
#194=EDGE_CURVE('',#98,#52,#193,.T.);
#195=ORIENTED_EDGE('',*,*,#194,.F.);
#196=ORIENTED_EDGE('',*,*,#131,.T.);
#197=ORIENTED_EDGE('',*,*,#165,.T.);
#198=EDGE_LOOP('',(#190,#195,#196,#197));
#199=FACE_OUTER_BOUND('',#198,.T.);
#200=ADVANCED_FACE('',(#199),#189,.T.);
#201=CARTESIAN_POINT('',(15.0,-9.989999612361194,2.624874995154515));
#202=CARTESIAN_POINT('',(15.0,-9.989999612361194,-0.124875062209740));
#203=CARTESIAN_POINT('',(15.0,209.990004976779200,2.624874995154515));
#204=CARTESIAN_POINT('',(15.0,209.990004976779200,-0.124875062209740));
#205=B_SPLINE_SURFACE_WITH_KNOTS('',1,1,((#201,#203),(#202,#204)),.UNSPECIFIED.,.F.,.F.,.U.,(2,2),(2,2),(0.0,2.749750057364255),(0.0,219.980004589140410),.UNSPECIFIED.);
#206=ORIENTED_EDGE('',*,*,#56,.F.);
#207=ORIENTED_EDGE('',*,*,#151,.F.);
#208=ORIENTED_EDGE('',*,*,#102,.T.);
#209=ORIENTED_EDGE('',*,*,#194,.T.);
#210=EDGE_LOOP('',(#206,#207,#208,#209));
#211=FACE_OUTER_BOUND('',#210,.T.);
#212=ADVANCED_FACE('',(#211),#205,.T.);
#213=CLOSED_SHELL('',(#89,#135,#155,#171,#200,#212));
#214=MANIFOLD_SOLID_BREP('rubber foam',#213);
#220=(NAMED_UNIT(*)PLANE_ANGLE_UNIT()SI_UNIT($,.RADIAN.));
#221=DIMENSIONAL_EXPONENTS(0.0,0.0,0.0,0.0,0.0,0.0,0.0);
#222=PLANE_ANGLE_MEASURE_WITH_UNIT(PLANE_ANGLE_MEASURE(0.017453292500000),#220);
#226=(CONVERSION_BASED_UNIT('DEGREE',#222)NAMED_UNIT(#221)PLANE_ANGLE_UNIT());
#230=(NAMED_UNIT(*)SI_UNIT($,.STERADIAN.)SOLID_ANGLE_UNIT());
#234=(LENGTH_UNIT()NAMED_UNIT(*)SI_UNIT(.MILLI.,.METRE.));
#236=UNCERTAINTY_MEASURE_WITH_UNIT(LENGTH_MEASURE(0.001000000000000),#234,'DISTANCE_ACCURACY_VALUE','');
#238=(GEOMETRIC_REPRESENTATION_CONTEXT(3)GLOBAL_UNCERTAINTY_ASSIGNED_CONTEXT((#236))GLOBAL_UNIT_ASSIGNED_CONTEXT((#226,#230,#234))REPRESENTATION_CONTEXT('','3D'));
ENDSEC;
END-ISO-10303-21;
