ISO-10303-21;
HEADER;
/****************************************************************
 * Generated by software with PDE/Lib inside                    *
 * PDElib Version 4.4.1-0003, patched  Thursday August 19 11:58 *
 * International Technegroup Inc. (www.iti-oh.com)              *
 ****************************************************************/
FILE_DESCRIPTION((''),'2;1');
FILE_NAME('','2005-12-14T14:08:14',(''),(''),'','CADfix','');
FILE_SCHEMA(('AUTOMOTIVE_DESIGN'));
ENDSEC;
DATA;
#5=APPLICATION_CONTEXT('automotive design');
#6=APPLICATION_PROTOCOL_DEFINITION('Draft International Standard','automotive_design',1998,#5);
#7=PRODUCT_CONTEXT('None',#5,'mechanical');
#8=PRODUCT('rubber foot','','None',(#7));
#9=PRODUCT_RELATED_PRODUCT_CATEGORY('part','description',(#8));
#10=PRODUCT_DEFINITION_FORMATION('None','None',#8);
#11=PRODUCT_DEFINITION_CONTEXT('part definition',#5,'design');
#12=PRODUCT_DEFINITION('None','None',#10,#11);
#18=(NAMED_UNIT(*)PLANE_ANGLE_UNIT()SI_UNIT($,.RADIAN.));
#19=DIMENSIONAL_EXPONENTS(0.0,0.0,0.0,0.0,0.0,0.0,0.0);
#20=PLANE_ANGLE_MEASURE_WITH_UNIT(PLANE_ANGLE_MEASURE(0.017453292500000),#18);
#24=(CONVERSION_BASED_UNIT('DEGREE',#20)NAMED_UNIT(#19)PLANE_ANGLE_UNIT());
#28=(NAMED_UNIT(*)SI_UNIT($,.STERADIAN.)SOLID_ANGLE_UNIT());
#32=(LENGTH_UNIT()NAMED_UNIT(*)SI_UNIT(.MILLI.,.METRE.));
#34=UNCERTAINTY_MEASURE_WITH_UNIT(LENGTH_MEASURE(0.001000000000000),#32,'DISTANCE_ACCURACY_VALUE','');
#36=(GEOMETRIC_REPRESENTATION_CONTEXT(3)GLOBAL_UNCERTAINTY_ASSIGNED_CONTEXT((#34))GLOBAL_UNIT_ASSIGNED_CONTEXT((#24,#28,#32))REPRESENTATION_CONTEXT('None','None'));
#37=AXIS2_PLACEMENT_3D('',#38,#39,#40);
#38=CARTESIAN_POINT('',(0.0,0.0,0.0));
#39=DIRECTION('',(0.0,0.0,1.0));
#40=DIRECTION('',(1.0,0.0,0.0));
#41=ADVANCED_BREP_SHAPE_REPRESENTATION('',(#37,#482),#36);
#42=PRODUCT_DEFINITION_SHAPE('','',#12);
#43=SHAPE_DEFINITION_REPRESENTATION(#42,#41);
#44=CARTESIAN_POINT('',(-0.283282163176220,2.383222863272799,10.162500000000001));
#45=CARTESIAN_POINT('',(-0.215075348731146,2.391330277076653,10.162500000000000));
#46=CARTESIAN_POINT('',(-0.146516494883657,2.395523516212480,10.162500000000000));
#47=CARTESIAN_POINT('',(2.249007021328823,2.542040011096137,10.162500000000001));
#48=CARTESIAN_POINT('',(2.395523516212480,0.146516494883657,10.162500000000000));
#49=CARTESIAN_POINT('',(2.542040011096137,-2.249007021328823,10.162500000000001));
#50=CARTESIAN_POINT('',(0.146516494883657,-2.395523516212480,10.162500000000000));
#51=CARTESIAN_POINT('',(-0.283282163176220,2.383222863272799,3.333437500000000));
#52=CARTESIAN_POINT('',(-0.215075348731146,2.391330277076653,3.333437500000000));
#53=CARTESIAN_POINT('',(-0.146516494883657,2.395523516212480,3.333437500000000));
#54=CARTESIAN_POINT('',(2.249007021328823,2.542040011096137,3.333437500000000));
#55=CARTESIAN_POINT('',(2.395523516212480,0.146516494883657,3.333437500000000));
#56=CARTESIAN_POINT('',(2.542040011096137,-2.249007021328823,3.333437500000000));
#57=CARTESIAN_POINT('',(0.146516494883657,-2.395523516212480,3.333437500000000));
#65=(BOUNDED_SURFACE()B_SPLINE_SURFACE(2,1,((#44,#51),(#45,#52),(#46,#53),(#47,#54),(#48,#55),(#49,#56),(#50,#57)),.UNSPECIFIED.,.F.,.F.,.U.)B_SPLINE_SURFACE_WITH_KNOTS((3,2,2,3),(2,2),(0.0,0.159058007951269,4.135508206732980,8.111958405514690),(0.0,6.829062500000002),.UNSPECIFIED.)GEOMETRIC_REPRESENTATION_ITEM()RATIONAL_B_SPLINE_SURFACE(((0.977505800795127,0.977505800795127),(0.988284271247462,0.988284271247462),(1.0,1.0),(0.707106781186548,0.707106781186548),(1.0,1.0),(0.707106781186548,0.707106781186548),(1.0,1.0)))REPRESENTATION_ITEM('')SURFACE());
#66=CARTESIAN_POINT('',(-0.283277970102220,2.383223361675722,10.0));
#67=VERTEX_POINT('',#66);
#68=CARTESIAN_POINT('',(2.400000000000000,0.0,10.0));
#69=VERTEX_POINT('',#68);
#70=CARTESIAN_POINT('',(-0.283277970102220,2.383223361675723,10.0));
#71=CARTESIAN_POINT('',(-0.142135768463816,2.400000000000000,10.0));
#72=CARTESIAN_POINT('',(0.0,2.400000000000000,10.0));
#73=CARTESIAN_POINT('',(2.400000000000000,2.400000000000000,10.0));
#74=CARTESIAN_POINT('',(2.400000000000000,0.0,10.0));
#82=(BOUNDED_CURVE()B_SPLINE_CURVE(2,(#70,#71,#72,#73,#74),.UNSPECIFIED.,.F.,.U.)B_SPLINE_CURVE_WITH_KNOTS((3,2,3),(0.229562770862239,0.250000000000000,0.500000000000000),.UNSPECIFIED.)CURVE()GEOMETRIC_REPRESENTATION_ITEM()RATIONAL_B_SPLINE_CURVE((0.956027337000208,0.976056296696852,1.0,0.707106781186547,1.0))REPRESENTATION_ITEM(''));
#83=EDGE_CURVE('',#67,#69,#82,.T.);
#84=ORIENTED_EDGE('',*,*,#83,.T.);
#85=CARTESIAN_POINT('',(0.146515735753242,-2.395523562642644,10.0));
#86=VERTEX_POINT('',#85);
#87=CARTESIAN_POINT('',(2.400000000000000,0.0,10.0));
#88=CARTESIAN_POINT('',(2.400000000000000,-2.257695994154080,10.0));
#89=CARTESIAN_POINT('',(0.146515735753242,-2.395523562642644,10.0));
#97=(BOUNDED_CURVE()B_SPLINE_CURVE(2,(#87,#88,#89),.UNSPECIFIED.,.F.,.U.)B_SPLINE_CURVE_WITH_KNOTS((3,3),(0.500000000000000,0.739333071600552),.UNSPECIFIED.)CURVE()GEOMETRIC_REPRESENTATION_ITEM()RATIONAL_B_SPLINE_CURVE((1.0,0.719603865161616,0.976072276049575))REPRESENTATION_ITEM(''));
#98=EDGE_CURVE('',#69,#86,#97,.T.);
#99=ORIENTED_EDGE('',*,*,#98,.T.);
#100=CARTESIAN_POINT('',(0.146515744885725,-2.395523562084083,3.500000000000001));
#101=VERTEX_POINT('',#100);
#102=CARTESIAN_POINT('',(0.146515735753242,-2.395523562642644,10.0));
#103=CARTESIAN_POINT('',(0.146515744885725,-2.395523562084083,3.500000000000001));
#104=QUASI_UNIFORM_CURVE('',1,(#102,#103),.UNSPECIFIED.,.F.,.U.);
#105=EDGE_CURVE('',#86,#101,#104,.T.);
#106=ORIENTED_EDGE('',*,*,#105,.T.);
#107=CARTESIAN_POINT('',(2.400000000000000,0.0,3.500000000000000));
#108=VERTEX_POINT('',#107);
#109=CARTESIAN_POINT('',(2.400000000000000,0.0,3.500000000000000));
#110=CARTESIAN_POINT('',(2.400000000000000,-2.257695976907820,3.500000000000000));
#111=CARTESIAN_POINT('',(0.146515744885725,-2.395523562084084,3.500000000000001));
#119=(BOUNDED_CURVE()B_SPLINE_CURVE(2,(#109,#110,#111),.UNSPECIFIED.,.F.,.U.)B_SPLINE_CURVE_WITH_KNOTS((3,3),(0.500000000000000,0.739333070284946),.UNSPECIFIED.)CURVE()GEOMETRIC_REPRESENTATION_ITEM()RATIONAL_B_SPLINE_CURVE((1.0,0.719603866702943,0.976072273229979))REPRESENTATION_ITEM(''));
#120=EDGE_CURVE('',#108,#101,#119,.T.);
#121=ORIENTED_EDGE('',*,*,#120,.F.);
#122=CARTESIAN_POINT('',(-0.283278020621010,2.383223355670978,3.499999999999999));
#123=VERTEX_POINT('',#122);
#124=CARTESIAN_POINT('',(-0.283278020621010,2.383223355670978,3.499999999999999));
#125=CARTESIAN_POINT('',(-0.142135793990237,2.400000000000000,3.500000000000000));
#126=CARTESIAN_POINT('',(0.0,2.400000000000000,3.500000000000000));
#127=CARTESIAN_POINT('',(2.400000000000000,2.400000000000000,3.500000000000000));
#128=CARTESIAN_POINT('',(2.400000000000000,0.0,3.500000000000000));
#136=(BOUNDED_CURVE()B_SPLINE_CURVE(2,(#124,#125,#126,#127,#128),.UNSPECIFIED.,.F.,.U.)B_SPLINE_CURVE_WITH_KNOTS((3,2,3),(0.229562767279762,0.250000000000000,0.500000000000000),.UNSPECIFIED.)CURVE()GEOMETRIC_REPRESENTATION_ITEM()RATIONAL_B_SPLINE_CURVE((0.956027329978387,0.976056292499719,1.0,0.707106781186547,1.0))REPRESENTATION_ITEM(''));
#137=EDGE_CURVE('',#123,#108,#136,.T.);
#138=ORIENTED_EDGE('',*,*,#137,.F.);
#139=CARTESIAN_POINT('',(-0.283277970102220,2.383223361675722,10.0));
#140=CARTESIAN_POINT('',(-0.283278020621010,2.383223355670978,3.499999999999999));
#141=QUASI_UNIFORM_CURVE('',1,(#139,#140),.UNSPECIFIED.,.F.,.U.);
#142=EDGE_CURVE('',#67,#123,#141,.T.);
#143=ORIENTED_EDGE('',*,*,#142,.F.);
#144=EDGE_LOOP('',(#84,#99,#106,#121,#138,#143));
#145=FACE_OUTER_BOUND('',#144,.T.);
#146=ADVANCED_FACE('',(#145),#65,.T.);
#147=CARTESIAN_POINT('',(0.179526526347534,-2.393504536196899,10.162500000000000));
#148=CARTESIAN_POINT('',(0.163068749210304,-2.394511136968465,10.162500000000000));
#149=CARTESIAN_POINT('',(-2.249007021328823,-2.542040011096137,10.162500000000001));
#150=CARTESIAN_POINT('',(-2.395523516212480,-0.146516494883657,10.162500000000000));
#151=CARTESIAN_POINT('',(-2.533886872158066,2.115704378014802,10.162500000000001));
#152=CARTESIAN_POINT('',(-0.266430658555528,2.385225920039034,10.162500000000001));
#153=CARTESIAN_POINT('',(-0.249669724315793,2.387218211142588,10.162500000000001));
#154=CARTESIAN_POINT('',(0.179526526347534,-2.393504536196899,3.333437499999999));
#155=CARTESIAN_POINT('',(0.163068749210304,-2.394511136968465,3.333437500000001));
#156=CARTESIAN_POINT('',(-2.249007021328823,-2.542040011096137,3.333437500000000));
#157=CARTESIAN_POINT('',(-2.395523516212480,-0.146516494883657,3.333437500000000));
#158=CARTESIAN_POINT('',(-2.533886872158066,2.115704378014802,3.333437500000001));
#159=CARTESIAN_POINT('',(-0.266430658555528,2.385225920039034,3.333437500000000));
#160=CARTESIAN_POINT('',(-0.249669724315793,2.387218211142588,3.333437500000000));
#168=(BOUNDED_SURFACE()B_SPLINE_SURFACE(2,1,((#147,#154),(#148,#155),(#149,#156),(#150,#157),(#151,#158),(#152,#159),(#153,#160)),.UNSPECIFIED.,.F.,.F.,.U.)B_SPLINE_SURFACE_WITH_KNOTS((3,1,2,1,3),(2,2),(0.0,0.038968350535267,4.015418549316978,7.832810740147420,7.871784806794593),(0.0,6.829062500000003),.UNSPECIFIED.)GEOMETRIC_REPRESENTATION_ITEM()RATIONAL_B_SPLINE_SURFACE(((1.005740580190655,1.005740580190655),(1.002870290095327,1.002870290095327),(0.707106781186548,0.707106781186548),(1.0,1.0),(0.718822509939086,0.718822509939086),(0.980146855031721,0.980146855031721),(0.982787909268315,0.982787909268315)))REPRESENTATION_ITEM('')SURFACE());
#169=CARTESIAN_POINT('',(-2.400000000000000,0.0,10.0));
#170=VERTEX_POINT('',#169);
#171=CARTESIAN_POINT('',(-2.400000000000000,0.0,10.0));
#172=CARTESIAN_POINT('',(-2.400000000000000,2.131622639085640,10.0));
#173=CARTESIAN_POINT('',(-0.283277970102220,2.383223361675723,10.0));
#181=(BOUNDED_CURVE()B_SPLINE_CURVE(2,(#171,#172,#173),.UNSPECIFIED.,.F.,.U.)B_SPLINE_CURVE_WITH_KNOTS((3,3),(0.0,0.229562770862239),.UNSPECIFIED.)CURVE()GEOMETRIC_REPRESENTATION_ITEM()RATIONAL_B_SPLINE_CURVE((1.0,0.731050484489695,0.956027337000208))REPRESENTATION_ITEM(''));
#182=EDGE_CURVE('',#170,#67,#181,.T.);
#183=ORIENTED_EDGE('',*,*,#182,.T.);
#184=ORIENTED_EDGE('',*,*,#142,.T.);
#185=CARTESIAN_POINT('',(-2.400000000000000,0.0,3.500000000000000));
#186=VERTEX_POINT('',#185);
#187=CARTESIAN_POINT('',(-2.400000000000000,0.0,3.500000000000000));
#188=CARTESIAN_POINT('',(-2.400000000000000,2.131622593582129,3.499999999999999));
#189=CARTESIAN_POINT('',(-0.283278020621010,2.383223355670978,3.499999999999999));
#197=(BOUNDED_CURVE()B_SPLINE_CURVE(2,(#187,#188,#189),.UNSPECIFIED.,.F.,.U.)B_SPLINE_CURVE_WITH_KNOTS((3,3),(0.0,0.229562767279762),.UNSPECIFIED.)CURVE()GEOMETRIC_REPRESENTATION_ITEM()RATIONAL_B_SPLINE_CURVE((1.0,0.731050488686828,0.956027329978387))REPRESENTATION_ITEM(''));
#198=EDGE_CURVE('',#186,#123,#197,.T.);
#199=ORIENTED_EDGE('',*,*,#198,.F.);
#200=CARTESIAN_POINT('',(0.146515744885725,-2.395523562084083,3.500000000000001));
#201=CARTESIAN_POINT('',(0.073325879815782,-2.400000000000000,3.500000000000000));
#202=CARTESIAN_POINT('',(0.0,-2.400000000000000,3.500000000000000));
#203=CARTESIAN_POINT('',(-2.400000000000000,-2.400000000000000,3.500000000000000));
#204=CARTESIAN_POINT('',(-2.400000000000000,0.0,3.500000000000000));
#212=(BOUNDED_CURVE()B_SPLINE_CURVE(2,(#200,#201,#202,#203,#204),.UNSPECIFIED.,.F.,.U.)B_SPLINE_CURVE_WITH_KNOTS((3,2,3),(0.739333070284947,0.750000000000000,1.0),.UNSPECIFIED.)CURVE()GEOMETRIC_REPRESENTATION_ITEM()RATIONAL_B_SPLINE_CURVE((0.976072273229982,0.987502914483605,1.0,0.707106781186547,1.0))REPRESENTATION_ITEM(''));
#213=EDGE_CURVE('',#101,#186,#212,.T.);
#214=ORIENTED_EDGE('',*,*,#213,.F.);
#215=ORIENTED_EDGE('',*,*,#105,.F.);
#216=CARTESIAN_POINT('',(0.146515735753242,-2.395523562642644,10.0));
#217=CARTESIAN_POINT('',(0.073325870657693,-2.400000000000000,10.0));
#218=CARTESIAN_POINT('',(0.0,-2.400000000000000,10.0));
#219=CARTESIAN_POINT('',(-2.400000000000000,-2.400000000000000,10.0));
#220=CARTESIAN_POINT('',(-2.400000000000000,0.0,10.0));
#228=(BOUNDED_CURVE()B_SPLINE_CURVE(2,(#216,#217,#218,#219,#220),.UNSPECIFIED.,.F.,.U.)B_SPLINE_CURVE_WITH_KNOTS((3,2,3),(0.739333071600552,0.750000000000000,1.0),.UNSPECIFIED.)CURVE()GEOMETRIC_REPRESENTATION_ITEM()RATIONAL_B_SPLINE_CURVE((0.976072276049576,0.987502916024932,1.0,0.707106781186547,1.0))REPRESENTATION_ITEM(''));
#229=EDGE_CURVE('',#86,#170,#228,.T.);
#230=ORIENTED_EDGE('',*,*,#229,.T.);
#231=EDGE_LOOP('',(#183,#184,#199,#214,#215,#230));
#232=FACE_OUTER_BOUND('',#231,.T.);
#233=ADVANCED_FACE('',(#232),#168,.T.);
#234=CARTESIAN_POINT('',(-0.708205407940551,5.958057158181998,3.512500000000000));
#235=CARTESIAN_POINT('',(-0.537688371827866,5.978325692691634,3.512500000000000));
#236=CARTESIAN_POINT('',(-0.366291237209142,5.988808790531200,3.512500000000001));
#237=CARTESIAN_POINT('',(5.622517553322059,6.355100027740342,3.512500000000001));
#238=CARTESIAN_POINT('',(5.988808790531200,0.366291237209142,3.512500000000001));
#239=CARTESIAN_POINT('',(6.355100027740342,-5.622517553322059,3.512500000000001));
#240=CARTESIAN_POINT('',(0.366291237209142,-5.988808790531200,3.512500000000001));
#241=CARTESIAN_POINT('',(-0.708205407940551,5.958057158181998,2.987187500000001));
#242=CARTESIAN_POINT('',(-0.537688371827866,5.978325692691634,2.987187499999999));
#243=CARTESIAN_POINT('',(-0.366291237209142,5.988808790531200,2.987187500000000));
#244=CARTESIAN_POINT('',(5.622517553322059,6.355100027740342,2.987187500000000));
#245=CARTESIAN_POINT('',(5.988808790531200,0.366291237209142,2.987187500000000));
#246=CARTESIAN_POINT('',(6.355100027740342,-5.622517553322059,2.987187500000000));
#247=CARTESIAN_POINT('',(0.366291237209142,-5.988808790531200,2.987187500000000));
#255=(BOUNDED_SURFACE()B_SPLINE_SURFACE(2,1,((#234,#241),(#235,#242),(#236,#243),(#237,#244),(#238,#245),(#239,#246),(#240,#247)),.UNSPECIFIED.,.F.,.F.,.U.)B_SPLINE_SURFACE_WITH_KNOTS((3,2,2,3),(2,2),(0.0,0.397645019878172,10.338770516832451,20.279896013786729),(0.0,1.0),.UNSPECIFIED.)GEOMETRIC_REPRESENTATION_ITEM()RATIONAL_B_SPLINE_SURFACE(((0.977505800795127,0.977505800795127),(0.988284271247462,0.988284271247462),(1.0,1.0),(0.707106781186548,0.707106781186548),(1.0,1.0),(0.707106781186548,0.707106781186548),(1.0,1.0)))REPRESENTATION_ITEM('')SURFACE());
#256=CARTESIAN_POINT('',(-0.708201614987205,5.958057609029551,3.499999999999930));
#257=VERTEX_POINT('',#256);
#258=CARTESIAN_POINT('',(6.0,0.0,3.500000000000000));
#259=VERTEX_POINT('',#258);
#260=CARTESIAN_POINT('',(-0.708201614987205,5.958057609029551,3.499999999999930));
#261=CARTESIAN_POINT('',(-0.355342801385660,5.999999999999999,3.500000000000000));
#262=CARTESIAN_POINT('',(0.0,6.0,3.500000000000000));
#263=CARTESIAN_POINT('',(6.0,6.0,3.499999999999999));
#264=CARTESIAN_POINT('',(6.0,0.0,3.500000000000000));
#272=(BOUNDED_CURVE()B_SPLINE_CURVE(2,(#260,#261,#262,#263,#264),.UNSPECIFIED.,.F.,.U.)B_SPLINE_CURVE_WITH_KNOTS((3,2,3),(0.229562581104653,0.250000000000000,0.500000000000000),.UNSPECIFIED.)CURVE()GEOMETRIC_REPRESENTATION_ITEM()RATIONAL_B_SPLINE_CURVE((0.956026965066855,0.976056074382012,1.0,0.707106781186548,1.0))REPRESENTATION_ITEM(''));
#273=EDGE_CURVE('',#257,#259,#272,.T.);
#274=ORIENTED_EDGE('',*,*,#273,.T.);
#275=CARTESIAN_POINT('',(0.366289094753475,-5.988808921568634,3.499999999999954));
#276=VERTEX_POINT('',#275);
#277=CARTESIAN_POINT('',(6.0,0.0,3.500000000000000));
#278=CARTESIAN_POINT('',(5.999999999999999,-5.644238424394930,3.500000000000000));
#279=CARTESIAN_POINT('',(0.366289094753475,-5.988808921568634,3.499999999999954));
#287=(BOUNDED_CURVE()B_SPLINE_CURVE(2,(#277,#278,#279),.UNSPECIFIED.,.F.,.U.)B_SPLINE_CURVE_WITH_KNOTS((3,3),(0.500000000000000,0.739333023969413),.UNSPECIFIED.)CURVE()GEOMETRIC_REPRESENTATION_ITEM()RATIONAL_B_SPLINE_CURVE((1.0,0.719603920964966,0.976072173966902))REPRESENTATION_ITEM(''));
#288=EDGE_CURVE('',#259,#276,#287,.T.);
#289=ORIENTED_EDGE('',*,*,#288,.T.);
#290=CARTESIAN_POINT('',(0.366289120546966,-5.988808919991055,3.0));
#291=VERTEX_POINT('',#290);
#292=CARTESIAN_POINT('',(0.366289094753475,-5.988808921568634,3.499999999999954));
#293=CARTESIAN_POINT('',(0.366289120546966,-5.988808919991055,3.0));
#294=QUASI_UNIFORM_CURVE('',1,(#292,#293),.UNSPECIFIED.,.F.,.U.);
#295=EDGE_CURVE('',#276,#291,#294,.T.);
#296=ORIENTED_EDGE('',*,*,#295,.T.);
#297=CARTESIAN_POINT('',(6.0,0.0,3.0));
#298=VERTEX_POINT('',#297);
#299=CARTESIAN_POINT('',(6.0,0.0,3.0));
#300=CARTESIAN_POINT('',(6.000000000000001,-5.644238400040059,3.000000000000000));
#301=CARTESIAN_POINT('',(0.366289120546966,-5.988808919991055,3.000000000000000));
#309=(BOUNDED_CURVE()B_SPLINE_CURVE(2,(#299,#300,#301),.UNSPECIFIED.,.F.,.U.)B_SPLINE_CURVE_WITH_KNOTS((3,3),(0.500000000000000,0.739333023226263),.UNSPECIFIED.)CURVE()GEOMETRIC_REPRESENTATION_ITEM()RATIONAL_B_SPLINE_CURVE((1.0,0.719603921835620,0.976072172374189))REPRESENTATION_ITEM(''));
#310=EDGE_CURVE('',#298,#291,#309,.T.);
#311=ORIENTED_EDGE('',*,*,#310,.F.);
#312=CARTESIAN_POINT('',(-0.708201660671828,5.958057603599299,3.0));
#313=VERTEX_POINT('',#312);
#314=CARTESIAN_POINT('',(-0.708201660671828,5.958057603599301,3.000000000000001));
#315=CARTESIAN_POINT('',(-0.355342824469453,6.0,3.0));
#316=CARTESIAN_POINT('',(0.0,6.0,3.0));
#317=CARTESIAN_POINT('',(6.0,6.0,3.0));
#318=CARTESIAN_POINT('',(6.0,0.0,3.0));
#326=(BOUNDED_CURVE()B_SPLINE_CURVE(2,(#314,#315,#316,#317,#318),.UNSPECIFIED.,.F.,.U.)B_SPLINE_CURVE_WITH_KNOTS((3,2,3),(0.229562579808786,0.250000000000000,0.500000000000000),.UNSPECIFIED.)CURVE()GEOMETRIC_REPRESENTATION_ITEM()RATIONAL_B_SPLINE_CURVE((0.956026962526900,0.976056072863809,1.0,0.707106781186548,1.0))REPRESENTATION_ITEM(''));
#327=EDGE_CURVE('',#313,#298,#326,.T.);
#328=ORIENTED_EDGE('',*,*,#327,.F.);
#329=CARTESIAN_POINT('',(-0.708201614987205,5.958057609029551,3.499999999999930));
#330=CARTESIAN_POINT('',(-0.708201660671828,5.958057603599299,3.0));
#331=QUASI_UNIFORM_CURVE('',1,(#329,#330),.UNSPECIFIED.,.F.,.U.);
#332=EDGE_CURVE('',#257,#313,#331,.T.);
#333=ORIENTED_EDGE('',*,*,#332,.F.);
#334=EDGE_LOOP('',(#274,#289,#296,#311,#328,#333));
#335=FACE_OUTER_BOUND('',#334,.T.);
#336=ADVANCED_FACE('',(#335),#255,.T.);
#337=CARTESIAN_POINT('',(0.366291237209142,-5.988808790531200,3.512500000000001));
#338=CARTESIAN_POINT('',(-5.622517553322059,-6.355100027740342,3.512500000000001));
#339=CARTESIAN_POINT('',(-5.988808790531200,-0.366291237209142,3.512500000000001));
#340=CARTESIAN_POINT('',(-6.334717180395164,5.289260945037006,3.512500000000001));
#341=CARTESIAN_POINT('',(-0.708205407940551,5.958057158181998,3.512500000000000));
#342=CARTESIAN_POINT('',(0.366291237209142,-5.988808790531200,2.987187500000000));
#343=CARTESIAN_POINT('',(-5.622517553322059,-6.355100027740342,2.987187500000000));
#344=CARTESIAN_POINT('',(-5.988808790531200,-0.366291237209142,2.987187500000000));
#345=CARTESIAN_POINT('',(-6.334717180395164,5.289260945037006,2.987187499999999));
#346=CARTESIAN_POINT('',(-0.708205407940551,5.958057158181998,2.987187500000001));
#354=(BOUNDED_SURFACE()B_SPLINE_SURFACE(2,1,((#337,#342),(#338,#343),(#339,#344),(#340,#345),(#341,#346)),.UNSPECIFIED.,.F.,.F.,.U.)B_SPLINE_SURFACE_WITH_KNOTS((3,2,3),(2,2),(0.0,9.941125496954278,19.484605974030391),(0.0,1.0),.UNSPECIFIED.)GEOMETRIC_REPRESENTATION_ITEM()RATIONAL_B_SPLINE_SURFACE(((1.0,1.0),(0.707106781186548,0.707106781186548),(1.0,1.0),(0.718822509939086,0.718822509939086),(0.977505800795127,0.977505800795127)))REPRESENTATION_ITEM('')SURFACE());
#355=CARTESIAN_POINT('',(-6.0,0.0,3.500000000000000));
#356=VERTEX_POINT('',#355);
#357=CARTESIAN_POINT('',(-6.0,0.0,3.500000000000000));
#358=CARTESIAN_POINT('',(-6.000000000000001,5.329050572111043,3.500000000000000));
#359=CARTESIAN_POINT('',(-0.708201614987205,5.958057609029551,3.499999999999930));
#367=(BOUNDED_CURVE()B_SPLINE_CURVE(2,(#357,#358,#359),.UNSPECIFIED.,.F.,.U.)B_SPLINE_CURVE_WITH_KNOTS((3,3),(0.0,0.229562581104653),.UNSPECIFIED.)CURVE()GEOMETRIC_REPRESENTATION_ITEM()RATIONAL_B_SPLINE_CURVE((1.0,0.731050706804535,0.956026965066855))REPRESENTATION_ITEM(''));
#368=EDGE_CURVE('',#356,#257,#367,.T.);
#369=ORIENTED_EDGE('',*,*,#368,.T.);
#370=ORIENTED_EDGE('',*,*,#332,.T.);
#371=CARTESIAN_POINT('',(-6.0,0.0,3.0));
#372=VERTEX_POINT('',#371);
#373=CARTESIAN_POINT('',(-6.0,0.0,3.0));
#374=CARTESIAN_POINT('',(-6.000000000000001,5.329050530961814,3.000000000000000));
#375=CARTESIAN_POINT('',(-0.708201660671828,5.958057603599301,3.000000000000001));
#383=(BOUNDED_CURVE()B_SPLINE_CURVE(2,(#373,#374,#375),.UNSPECIFIED.,.F.,.U.)B_SPLINE_CURVE_WITH_KNOTS((3,3),(0.0,0.229562579808786),.UNSPECIFIED.)CURVE()GEOMETRIC_REPRESENTATION_ITEM()RATIONAL_B_SPLINE_CURVE((1.0,0.731050708322738,0.956026962526900))REPRESENTATION_ITEM(''));
#384=EDGE_CURVE('',#372,#313,#383,.T.);
#385=ORIENTED_EDGE('',*,*,#384,.F.);
#386=CARTESIAN_POINT('',(0.366289120546966,-5.988808919991055,3.000000000000000));
#387=CARTESIAN_POINT('',(0.183315518493018,-6.0,3.0));
#388=CARTESIAN_POINT('',(0.0,-6.0,3.0));
#389=CARTESIAN_POINT('',(-6.0,-6.0,3.0));
#390=CARTESIAN_POINT('',(-6.0,0.0,3.0));
#398=(BOUNDED_CURVE()B_SPLINE_CURVE(2,(#386,#387,#388,#389,#390),.UNSPECIFIED.,.F.,.U.)B_SPLINE_CURVE_WITH_KNOTS((3,2,3),(0.739333023226263,0.750000000000000,1.0),.UNSPECIFIED.)CURVE()GEOMETRIC_REPRESENTATION_ITEM()RATIONAL_B_SPLINE_CURVE((0.976072172374189,0.987502859350927,1.0,0.707106781186548,1.0))REPRESENTATION_ITEM(''));
#399=EDGE_CURVE('',#291,#372,#398,.T.);
#400=ORIENTED_EDGE('',*,*,#399,.F.);
#401=ORIENTED_EDGE('',*,*,#295,.F.);
#402=CARTESIAN_POINT('',(0.366289094753475,-5.988808921568634,3.499999999999954));
#403=CARTESIAN_POINT('',(0.183315505560110,-6.0,3.500000000000000));
#404=CARTESIAN_POINT('',(0.0,-6.0,3.500000000000000));
#405=CARTESIAN_POINT('',(-6.0,-6.0,3.499999999999999));
#406=CARTESIAN_POINT('',(-6.0,0.0,3.500000000000000));
#414=(BOUNDED_CURVE()B_SPLINE_CURVE(2,(#402,#403,#404,#405,#406),.UNSPECIFIED.,.F.,.U.)B_SPLINE_CURVE_WITH_KNOTS((3,2,3),(0.739333023969413,0.750000000000000,1.0),.UNSPECIFIED.)CURVE()GEOMETRIC_REPRESENTATION_ITEM()RATIONAL_B_SPLINE_CURVE((0.976072173966902,0.987502860221582,1.0,0.707106781186548,1.0))REPRESENTATION_ITEM(''));
#415=EDGE_CURVE('',#276,#356,#414,.T.);
#416=ORIENTED_EDGE('',*,*,#415,.T.);
#417=EDGE_LOOP('',(#369,#370,#385,#400,#401,#416));
#418=FACE_OUTER_BOUND('',#417,.T.);
#419=ADVANCED_FACE('',(#418),#354,.T.);
#420=CARTESIAN_POINT('',(-2.639760125873566,-2.639701576829904,10.0));
#421=CARTESIAN_POINT('',(2.639760125873565,-2.639701576829904,10.0));
#422=CARTESIAN_POINT('',(-2.639760125873566,2.639716339708322,10.0));
#423=CARTESIAN_POINT('',(2.639760125873565,2.639716339708322,10.0));
#424=B_SPLINE_SURFACE_WITH_KNOTS('',1,1,((#420,#422),(#421,#423)),.UNSPECIFIED.,.F.,.F.,.U.,(2,2),(2,2),(0.0,5.279520251747131),(0.0,5.279417916538225),.UNSPECIFIED.);
#425=ORIENTED_EDGE('',*,*,#229,.F.);
#426=ORIENTED_EDGE('',*,*,#98,.F.);
#427=ORIENTED_EDGE('',*,*,#83,.F.);
#428=ORIENTED_EDGE('',*,*,#182,.F.);
#429=EDGE_LOOP('',(#425,#426,#427,#428));
#430=FACE_OUTER_BOUND('',#429,.T.);
#431=ADVANCED_FACE('',(#430),#424,.T.);
#432=CARTESIAN_POINT('',(-6.599399976741671,-6.599253942074776,3.500000000000000));
#433=CARTESIAN_POINT('',(6.599400298606753,-6.599253942074776,3.500000000000000));
#434=CARTESIAN_POINT('',(-6.599399976741671,6.599290849270819,3.500000000000000));
#435=CARTESIAN_POINT('',(6.599400298606753,6.599290849270819,3.500000000000000));
#436=B_SPLINE_SURFACE_WITH_KNOTS('',1,1,((#432,#434),(#433,#435)),.UNSPECIFIED.,.F.,.F.,.U.,(2,2),(2,2),(0.0,13.198800275348420),(0.0,13.198544791345590),.UNSPECIFIED.);
#437=ORIENTED_EDGE('',*,*,#415,.F.);
#438=ORIENTED_EDGE('',*,*,#288,.F.);
#439=ORIENTED_EDGE('',*,*,#273,.F.);
#440=ORIENTED_EDGE('',*,*,#368,.F.);
#441=EDGE_LOOP('',(#437,#438,#439,#440));
#442=FACE_OUTER_BOUND('',#441,.T.);
#443=ORIENTED_EDGE('',*,*,#120,.T.);
#444=ORIENTED_EDGE('',*,*,#213,.T.);
#445=ORIENTED_EDGE('',*,*,#198,.T.);
#446=ORIENTED_EDGE('',*,*,#137,.T.);
#447=EDGE_LOOP('',(#443,#444,#445,#446));
#448=FACE_BOUND('',#447,.T.);
#449=ADVANCED_FACE('',(#442,#448),#436,.T.);
#450=CARTESIAN_POINT('',(-5.140103938888109,5.140018900075386,5.653506781952705));
#451=CARTESIAN_POINT('',(-3.166856723762372,6.333608606148587,3.483110435220235));
#452=CARTESIAN_POINT('',(3.166856548081260,6.333608606148587,3.483110373360461));
#453=CARTESIAN_POINT('',(5.140103804500112,5.140018959547502,5.653506573405789));
#454=CARTESIAN_POINT('',(-6.333664752981052,3.166779976939676,3.483198936631549));
#455=CARTESIAN_POINT('',(-4.124625030244595,4.124556736272549,0.000000042581069));
#456=CARTESIAN_POINT('',(4.124624757124279,4.124556736272549,-0.000000037987264));
#457=CARTESIAN_POINT('',(6.333664570385753,3.166780022088840,3.483198648716531));
#458=CARTESIAN_POINT('',(-6.333664752981052,-3.166762462014540,3.483198933104503));
#459=CARTESIAN_POINT('',(-4.124625030244595,-4.124533921519548,0.000000037987285));
#460=CARTESIAN_POINT('',(4.124624757124279,-4.124533921519548,-0.000000042581048));
#461=CARTESIAN_POINT('',(6.333664570385753,-3.166762507163454,3.483198645189484));
#462=CARTESIAN_POINT('',(-5.140114650887342,-5.140001188466539,5.653487298095198));
#463=CARTESIAN_POINT('',(-3.166864856069410,-6.333589844757493,3.483080853452695));
#464=CARTESIAN_POINT('',(3.166864680387469,-6.333589844757493,3.483080791592762));
#465=CARTESIAN_POINT('',(5.140114516498881,-5.140001247938576,5.653487089547619));
#473=(BOUNDED_SURFACE()B_SPLINE_SURFACE(2,2,((#450,#454,#458,#462),(#451,#455,#459,#463),(#452,#456,#460,#464),(#453,#457,#461,#465)),.UNSPECIFIED.,.F.,.F.,.U.)B_SPLINE_SURFACE_WITH_KNOTS((3,1,3),(3,1,3),(0.117626021406054,7.252112413729519,14.386598587036129),(0.117744032040238,7.252112413729519,14.386441346511241),.UNSPECIFIED.)GEOMETRIC_REPRESENTATION_ITEM()RATIONAL_B_SPLINE_SURFACE(((1.604879987060188,1.302444996193027,1.302444996193027,1.604876642490249),(1.302434990867161,1.0,1.0,1.302431646297222),(1.302434990867161,1.0,1.0,1.302431646297222),(1.604879968491072,1.302444977623912,1.302444977623912,1.604876623921133)))REPRESENTATION_ITEM('')SURFACE());
#474=ORIENTED_EDGE('',*,*,#384,.T.);
#475=ORIENTED_EDGE('',*,*,#327,.T.);
#476=ORIENTED_EDGE('',*,*,#310,.T.);
#477=ORIENTED_EDGE('',*,*,#399,.T.);
#478=EDGE_LOOP('',(#474,#475,#476,#477));
#479=FACE_OUTER_BOUND('',#478,.T.);
#480=ADVANCED_FACE('',(#479),#473,.T.);
#481=CLOSED_SHELL('',(#146,#233,#336,#419,#431,#449,#480));
#482=MANIFOLD_SOLID_BREP('rubber foot',#481);
#488=(NAMED_UNIT(*)PLANE_ANGLE_UNIT()SI_UNIT($,.RADIAN.));
#489=DIMENSIONAL_EXPONENTS(0.0,0.0,0.0,0.0,0.0,0.0,0.0);
#490=PLANE_ANGLE_MEASURE_WITH_UNIT(PLANE_ANGLE_MEASURE(0.017453292500000),#488);
#494=(CONVERSION_BASED_UNIT('DEGREE',#490)NAMED_UNIT(#489)PLANE_ANGLE_UNIT());
#498=(NAMED_UNIT(*)SI_UNIT($,.STERADIAN.)SOLID_ANGLE_UNIT());
#502=(LENGTH_UNIT()NAMED_UNIT(*)SI_UNIT(.MILLI.,.METRE.));
#504=UNCERTAINTY_MEASURE_WITH_UNIT(LENGTH_MEASURE(0.001000000000000),#502,'DISTANCE_ACCURACY_VALUE','');
#506=(GEOMETRIC_REPRESENTATION_CONTEXT(3)GLOBAL_UNCERTAINTY_ASSIGNED_CONTEXT((#504))GLOBAL_UNIT_ASSIGNED_CONTEXT((#494,#498,#502))REPRESENTATION_CONTEXT('','3D'));
ENDSEC;
END-ISO-10303-21;
