ISO-10303-21;
HEADER;
/****************************************************************
 * Generated by software with PDE/Lib inside                    *
 * PDElib Version 4.4.1-0003, patched  Thursday August 19 11:58 *
 * International Technegroup Inc. (www.iti-oh.com)              *
 ****************************************************************/
FILE_DESCRIPTION((''),'2;1');
FILE_NAME('','2006-10-08T14:49:25',(''),(''),'','CADfix','');
FILE_SCHEMA(('AUTOMOTIVE_DESIGN'));
ENDSEC;
DATA;
#5=APPLICATION_CONTEXT('automotive design');
#6=APPLICATION_PROTOCOL_DEFINITION('Draft International Standard','automotive_design',1998,#5);
#7=PRODUCT_CONTEXT('None',#5,'mechanical');
#8=PRODUCT('control_cam','control_cam','None',(#7));
#9=PRODUCT_RELATED_PRODUCT_CATEGORY('part','description',(#8));
#10=PRODUCT_DEFINITION_FORMATION('','None',#8);
#11=PRODUCT_DEFINITION_CONTEXT('part definition',#5,'design');
#12=PRODUCT_DEFINITION('None','None',#10,#11);
#18=(NAMED_UNIT(*)PLANE_ANGLE_UNIT()SI_UNIT($,.RADIAN.));
#19=DIMENSIONAL_EXPONENTS(0.0,0.0,0.0,0.0,0.0,0.0,0.0);
#20=PLANE_ANGLE_MEASURE_WITH_UNIT(PLANE_ANGLE_MEASURE(0.017453292500000),#18);
#24=(CONVERSION_BASED_UNIT('DEGREE',#20)NAMED_UNIT(#19)PLANE_ANGLE_UNIT());
#28=(NAMED_UNIT(*)SI_UNIT($,.STERADIAN.)SOLID_ANGLE_UNIT());
#32=(LENGTH_UNIT()NAMED_UNIT(*)SI_UNIT(.MILLI.,.METRE.));
#34=UNCERTAINTY_MEASURE_WITH_UNIT(LENGTH_MEASURE(0.001000000000000),#32,'DISTANCE_ACCURACY_VALUE','');
#36=(GEOMETRIC_REPRESENTATION_CONTEXT(3)GLOBAL_UNCERTAINTY_ASSIGNED_CONTEXT((#34))GLOBAL_UNIT_ASSIGNED_CONTEXT((#24,#28,#32))REPRESENTATION_CONTEXT('None','None'));
#37=AXIS2_PLACEMENT_3D('',#38,#39,#40);
#38=CARTESIAN_POINT('',(0.0,0.0,0.0));
#39=DIRECTION('',(0.0,0.0,1.0));
#40=DIRECTION('',(1.0,0.0,0.0));
#41=ADVANCED_BREP_SHAPE_REPRESENTATION('',(#37,#375),#36);
#42=PRODUCT_DEFINITION_SHAPE('','',#12);
#43=SHAPE_DEFINITION_REPRESENTATION(#42,#41);
#44=CARTESIAN_POINT('',(-14.298700036590409,0.0,12.410028388543120));
#45=CARTESIAN_POINT('',(14.298700961270690,0.0,12.410028388543120));
#46=CARTESIAN_POINT('',(-14.298700036590409,0.0,-14.208849519168730));
#47=CARTESIAN_POINT('',(14.298700961270690,0.0,-14.208849519168730));
#48=B_SPLINE_SURFACE_WITH_KNOTS('',1,1,((#44,#46),(#45,#47)),.UNSPECIFIED.,.F.,.F.,.U.,(2,2),(2,2),(0.0,28.597400997861090),(0.0,26.618877907711848),.UNSPECIFIED.);
#49=CARTESIAN_POINT('',(5.075383629594130,0.0,8.616291604422859));
#50=VERTEX_POINT('',#49);
#51=CARTESIAN_POINT('',(6.597998718472370,0.0,11.201179085749720));
#52=VERTEX_POINT('',#51);
#53=CARTESIAN_POINT('',(5.075383629594130,0.0,8.616291604422859));
#54=CARTESIAN_POINT('',(6.597998718472370,0.0,11.201179085749720));
#55=QUASI_UNIFORM_CURVE('',1,(#53,#54),.UNSPECIFIED.,.F.,.U.);
#56=EDGE_CURVE('',#50,#52,#55,.T.);
#57=ORIENTED_EDGE('',*,*,#56,.F.);
#58=CARTESIAN_POINT('',(-5.075383629594100,0.0,8.616291604422930));
#59=VERTEX_POINT('',#58);
#60=CARTESIAN_POINT('',(5.075383629594131,0.0,8.616291604422862));
#61=CARTESIAN_POINT('',(3.903128E-014,0.0,11.605921037847464));
#62=CARTESIAN_POINT('',(-5.075383629594100,0.0,8.616291604422930));
#70=(BOUNDED_CURVE()B_SPLINE_CURVE(2,(#60,#61,#62),.UNSPECIFIED.,.F.,.U.)CURVE()GEOMETRIC_REPRESENTATION_ITEM()QUASI_UNIFORM_CURVE()RATIONAL_B_SPLINE_CURVE((1.0,0.861629160442288,1.0))REPRESENTATION_ITEM(''));
#71=EDGE_CURVE('',#50,#59,#70,.T.);
#72=ORIENTED_EDGE('',*,*,#71,.T.);
#73=CARTESIAN_POINT('',(-6.597998718472230,0.0,11.201179085749800));
#74=VERTEX_POINT('',#73);
#75=CARTESIAN_POINT('',(-6.597998718472230,0.0,11.201179085749800));
#76=CARTESIAN_POINT('',(-5.075383629594100,0.0,8.616291604422930));
#77=QUASI_UNIFORM_CURVE('',1,(#75,#76),.UNSPECIFIED.,.F.,.U.);
#78=EDGE_CURVE('',#74,#59,#77,.T.);
#79=ORIENTED_EDGE('',*,*,#78,.F.);
#80=CARTESIAN_POINT('',(-6.597998718472229,0.0,11.201179085749800));
#81=CARTESIAN_POINT('',(-15.154204986512827,0.0,6.161188424111623));
#82=CARTESIAN_POINT('',(-12.542235209777161,0.0,-3.419405787944156));
#83=CARTESIAN_POINT('',(-9.930265433041486,0.0,-13.000000000000002));
#84=CARTESIAN_POINT('',(0.0,0.0,-13.0));
#85=CARTESIAN_POINT('',(9.930265433041349,0.0,-13.000000000000002));
#86=CARTESIAN_POINT('',(12.542235209777120,0.0,-3.419405787944321));
#87=CARTESIAN_POINT('',(15.154204986512902,0.0,6.161188424111429));
#88=CARTESIAN_POINT('',(6.597998718472370,0.0,11.201179085749720));
#96=(BOUNDED_CURVE()B_SPLINE_CURVE(2,(#80,#81,#82,#83,#84,#85,#86,#87,#88),.UNSPECIFIED.,.F.,.U.)B_SPLINE_CURVE_WITH_KNOTS((3,2,2,2,3),(0.0,0.250000000000000,0.500000000000000,0.750000000000000,1.0),.UNSPECIFIED.)CURVE()GEOMETRIC_REPRESENTATION_ITEM()RATIONAL_B_SPLINE_CURVE((1.0,0.794679562609121,1.0,0.794679562609121,1.0,0.794679562609121,1.0,0.794679562609121,1.0))REPRESENTATION_ITEM(''));
#97=EDGE_CURVE('',#74,#52,#96,.T.);
#98=ORIENTED_EDGE('',*,*,#97,.T.);
#99=EDGE_LOOP('',(#57,#72,#79,#98));
#100=FACE_OUTER_BOUND('',#99,.T.);
#101=CARTESIAN_POINT('',(9.499956E-012,0.0,-7.141778489987300));
#102=VERTEX_POINT('',#101);
#103=CARTESIAN_POINT('',(7.141778489993611,0.0,-3.112177E-012));
#104=VERTEX_POINT('',#103);
#105=CARTESIAN_POINT('',(9.499956E-012,0.0,-7.141778489987300));
#106=CARTESIAN_POINT('',(7.141778489993611,0.0,-3.112177E-012));
#107=QUASI_UNIFORM_CURVE('',1,(#105,#106),.UNSPECIFIED.,.F.,.U.);
#108=EDGE_CURVE('',#102,#104,#107,.T.);
#109=ORIENTED_EDGE('',*,*,#108,.F.);
#110=CARTESIAN_POINT('',(-7.141778489974711,0.0,-3.112177E-012));
#111=VERTEX_POINT('',#110);
#112=CARTESIAN_POINT('',(-7.141778489974711,0.0,-3.112177E-012));
#113=CARTESIAN_POINT('',(9.499956E-012,0.0,-7.141778489987300));
#114=QUASI_UNIFORM_CURVE('',1,(#112,#113),.UNSPECIFIED.,.F.,.U.);
#115=EDGE_CURVE('',#111,#102,#114,.T.);
#116=ORIENTED_EDGE('',*,*,#115,.F.);
#117=CARTESIAN_POINT('',(9.499956E-012,0.0,7.141778489980980));
#118=VERTEX_POINT('',#117);
#119=CARTESIAN_POINT('',(9.499956E-012,0.0,7.141778489980980));
#120=CARTESIAN_POINT('',(-7.141778489974711,0.0,-3.112177E-012));
#121=QUASI_UNIFORM_CURVE('',1,(#119,#120),.UNSPECIFIED.,.F.,.U.);
#122=EDGE_CURVE('',#118,#111,#121,.T.);
#123=ORIENTED_EDGE('',*,*,#122,.F.);
#124=CARTESIAN_POINT('',(7.141778489993611,0.0,-3.112177E-012));
#125=CARTESIAN_POINT('',(9.499956E-012,0.0,7.141778489980980));
#126=QUASI_UNIFORM_CURVE('',1,(#124,#125),.UNSPECIFIED.,.F.,.U.);
#127=EDGE_CURVE('',#104,#118,#126,.T.);
#128=ORIENTED_EDGE('',*,*,#127,.F.);
#129=EDGE_LOOP('',(#109,#116,#123,#128));
#130=FACE_BOUND('',#129,.T.);
#131=ADVANCED_FACE('',(#100,#130),#48,.F.);
#132=CARTESIAN_POINT('',(-14.298700036590409,2.0,12.410028388543120));
#133=CARTESIAN_POINT('',(14.298700961270690,2.0,12.410028388543120));
#134=CARTESIAN_POINT('',(-14.298700036590409,2.0,-14.208849519168730));
#135=CARTESIAN_POINT('',(14.298700961270690,2.0,-14.208849519168730));
#136=B_SPLINE_SURFACE_WITH_KNOTS('',1,1,((#132,#134),(#133,#135)),.UNSPECIFIED.,.F.,.F.,.U.,(2,2),(2,2),(0.0,28.597400997861090),(0.0,26.618877907711848),.UNSPECIFIED.);
#137=CARTESIAN_POINT('',(5.075383629594130,2.0,8.616291604422859));
#138=VERTEX_POINT('',#137);
#139=CARTESIAN_POINT('',(6.597998718472370,2.0,11.201179085749720));
#140=VERTEX_POINT('',#139);
#141=CARTESIAN_POINT('',(5.075383629594130,2.0,8.616291604422859));
#142=CARTESIAN_POINT('',(6.597998718472370,2.0,11.201179085749720));
#143=QUASI_UNIFORM_CURVE('',1,(#141,#142),.UNSPECIFIED.,.F.,.U.);
#144=EDGE_CURVE('',#138,#140,#143,.T.);
#145=ORIENTED_EDGE('',*,*,#144,.T.);
#146=CARTESIAN_POINT('',(-6.597998718472230,2.0,11.201179085749800));
#147=VERTEX_POINT('',#146);
#148=CARTESIAN_POINT('',(-6.597998718472229,2.0,11.201179085749800));
#149=CARTESIAN_POINT('',(-15.154204986512827,2.000000000000000,6.161188424111623));
#150=CARTESIAN_POINT('',(-12.542235209777161,2.0,-3.419405787944156));
#151=CARTESIAN_POINT('',(-9.930265433041486,2.000000000000000,-13.000000000000002));
#152=CARTESIAN_POINT('',(0.0,2.0,-13.0));
#153=CARTESIAN_POINT('',(9.930265433041349,2.000000000000000,-13.000000000000002));
#154=CARTESIAN_POINT('',(12.542235209777120,2.0,-3.419405787944321));
#155=CARTESIAN_POINT('',(15.154204986512902,2.000000000000000,6.161188424111429));
#156=CARTESIAN_POINT('',(6.597998718472370,2.0,11.201179085749720));
#164=(BOUNDED_CURVE()B_SPLINE_CURVE(2,(#148,#149,#150,#151,#152,#153,#154,#155,#156),.UNSPECIFIED.,.F.,.U.)B_SPLINE_CURVE_WITH_KNOTS((3,2,2,2,3),(0.0,0.250000000000000,0.500000000000000,0.750000000000000,1.0),.UNSPECIFIED.)CURVE()GEOMETRIC_REPRESENTATION_ITEM()RATIONAL_B_SPLINE_CURVE((1.0,0.794679562609121,1.0,0.794679562609121,1.0,0.794679562609121,1.0,0.794679562609121,1.0))REPRESENTATION_ITEM(''));
#165=EDGE_CURVE('',#147,#140,#164,.T.);
#166=ORIENTED_EDGE('',*,*,#165,.F.);
#167=CARTESIAN_POINT('',(-5.075383629594100,2.0,8.616291604422930));
#168=VERTEX_POINT('',#167);
#169=CARTESIAN_POINT('',(-6.597998718472230,2.0,11.201179085749800));
#170=CARTESIAN_POINT('',(-5.075383629594100,2.0,8.616291604422930));
#171=QUASI_UNIFORM_CURVE('',1,(#169,#170),.UNSPECIFIED.,.F.,.U.);
#172=EDGE_CURVE('',#147,#168,#171,.T.);
#173=ORIENTED_EDGE('',*,*,#172,.T.);
#174=CARTESIAN_POINT('',(5.075383629594131,2.0,8.616291604422862));
#175=CARTESIAN_POINT('',(3.903128E-014,2.000000000000000,11.605921037847464));
#176=CARTESIAN_POINT('',(-5.075383629594100,2.0,8.616291604422930));
#184=(BOUNDED_CURVE()B_SPLINE_CURVE(2,(#174,#175,#176),.UNSPECIFIED.,.F.,.U.)CURVE()GEOMETRIC_REPRESENTATION_ITEM()QUASI_UNIFORM_CURVE()RATIONAL_B_SPLINE_CURVE((1.0,0.861629160442288,1.0))REPRESENTATION_ITEM(''));
#185=EDGE_CURVE('',#138,#168,#184,.T.);
#186=ORIENTED_EDGE('',*,*,#185,.F.);
#187=EDGE_LOOP('',(#145,#166,#173,#186));
#188=FACE_OUTER_BOUND('',#187,.T.);
#189=CARTESIAN_POINT('',(9.499956E-012,2.0,-7.141778489987300));
#190=VERTEX_POINT('',#189);
#191=CARTESIAN_POINT('',(7.141778489993611,2.0,-3.112177E-012));
#192=VERTEX_POINT('',#191);
#193=CARTESIAN_POINT('',(9.499956E-012,2.0,-7.141778489987300));
#194=CARTESIAN_POINT('',(7.141778489993611,2.0,-3.112177E-012));
#195=QUASI_UNIFORM_CURVE('',1,(#193,#194),.UNSPECIFIED.,.F.,.U.);
#196=EDGE_CURVE('',#190,#192,#195,.T.);
#197=ORIENTED_EDGE('',*,*,#196,.T.);
#198=CARTESIAN_POINT('',(9.499956E-012,2.0,7.141778489980980));
#199=VERTEX_POINT('',#198);
#200=CARTESIAN_POINT('',(7.141778489993611,2.0,-3.112177E-012));
#201=CARTESIAN_POINT('',(9.499956E-012,2.0,7.141778489980980));
#202=QUASI_UNIFORM_CURVE('',1,(#200,#201),.UNSPECIFIED.,.F.,.U.);
#203=EDGE_CURVE('',#192,#199,#202,.T.);
#204=ORIENTED_EDGE('',*,*,#203,.T.);
#205=CARTESIAN_POINT('',(-7.141778489974711,2.0,-3.112177E-012));
#206=VERTEX_POINT('',#205);
#207=CARTESIAN_POINT('',(9.499956E-012,2.0,7.141778489980980));
#208=CARTESIAN_POINT('',(-7.141778489974711,2.0,-3.112177E-012));
#209=QUASI_UNIFORM_CURVE('',1,(#207,#208),.UNSPECIFIED.,.F.,.U.);
#210=EDGE_CURVE('',#199,#206,#209,.T.);
#211=ORIENTED_EDGE('',*,*,#210,.T.);
#212=CARTESIAN_POINT('',(-7.141778489974711,2.0,-3.112177E-012));
#213=CARTESIAN_POINT('',(9.499956E-012,2.0,-7.141778489987300));
#214=QUASI_UNIFORM_CURVE('',1,(#212,#213),.UNSPECIFIED.,.F.,.U.);
#215=EDGE_CURVE('',#206,#190,#214,.T.);
#216=ORIENTED_EDGE('',*,*,#215,.T.);
#217=EDGE_LOOP('',(#197,#204,#211,#216));
#218=FACE_BOUND('',#217,.T.);
#219=ADVANCED_FACE('',(#188,#218),#136,.T.);
#220=CARTESIAN_POINT('',(0.356731821742055,-0.099899996123612,-7.498510311719863));
#221=CARTESIAN_POINT('',(-7.498510503264748,-0.099899996123612,0.356732013286821));
#222=CARTESIAN_POINT('',(0.356731821742055,2.099900049767792,-7.498510311719863));
#223=CARTESIAN_POINT('',(-7.498510503264748,2.099900049767792,0.356732013286821));
#224=B_SPLINE_SURFACE_WITH_KNOTS('',1,1,((#220,#222),(#221,#223)),.UNSPECIFIED.,.F.,.F.,.U.,(2,2),(2,2),(0.0,11.108990231751701),(0.0,2.199800045891404),.UNSPECIFIED.);
#225=ORIENTED_EDGE('',*,*,#115,.T.);
#226=CARTESIAN_POINT('',(9.499956E-012,2.0,-7.141778489987300));
#227=CARTESIAN_POINT('',(9.499956E-012,0.0,-7.141778489987300));
#228=QUASI_UNIFORM_CURVE('',1,(#226,#227),.UNSPECIFIED.,.F.,.U.);
#229=EDGE_CURVE('',#190,#102,#228,.T.);
#230=ORIENTED_EDGE('',*,*,#229,.F.);
#231=ORIENTED_EDGE('',*,*,#215,.F.);
#232=CARTESIAN_POINT('',(-7.141778489974711,2.0,-3.112177E-012));
#233=CARTESIAN_POINT('',(-7.141778489974711,0.0,-3.112177E-012));
#234=QUASI_UNIFORM_CURVE('',1,(#232,#233),.UNSPECIFIED.,.F.,.U.);
#235=EDGE_CURVE('',#206,#111,#234,.T.);
#236=ORIENTED_EDGE('',*,*,#235,.T.);
#237=EDGE_LOOP('',(#225,#230,#231,#236));
#238=FACE_OUTER_BOUND('',#237,.T.);
#239=ADVANCED_FACE('',(#238),#224,.F.);
#240=CARTESIAN_POINT('',(-5.299192642344760,2.050000000000000,8.480480961556314));
#241=CARTESIAN_POINT('',(-5.299192642344760,-0.051250000000000,8.480480961556314));
#242=CARTESIAN_POINT('',(0.145813316061222,2.050000000000000,11.882898305939234));
#243=CARTESIAN_POINT('',(0.145813316061222,-0.051250000000000,11.882898305939234));
#244=CARTESIAN_POINT('',(5.505691204980385,2.049999999999999,8.347895804057542));
#245=CARTESIAN_POINT('',(5.505691204980385,-0.051250000000000,8.347895804057542));
#253=(BOUNDED_SURFACE()B_SPLINE_SURFACE(1,2,((#240,#242,#244),(#241,#243,#245)),.UNSPECIFIED.,.F.,.F.,.U.)B_SPLINE_SURFACE_WITH_KNOTS((2,2),(3,3),(0.0,2.101250000000000),(0.0,11.735816411092641),.UNSPECIFIED.)GEOMETRIC_REPRESENTATION_ITEM()RATIONAL_B_SPLINE_SURFACE(((1.0,0.838054981982146,0.991870956640156),(1.0,0.838054981982146,0.991870956640156)))REPRESENTATION_ITEM('')SURFACE());
#254=ORIENTED_EDGE('',*,*,#71,.F.);
#255=CARTESIAN_POINT('',(5.075383629594130,2.0,8.616291604422859));
#256=CARTESIAN_POINT('',(5.075383629594130,0.0,8.616291604422859));
#257=QUASI_UNIFORM_CURVE('',1,(#255,#256),.UNSPECIFIED.,.F.,.U.);
#258=EDGE_CURVE('',#138,#50,#257,.T.);
#259=ORIENTED_EDGE('',*,*,#258,.F.);
#260=ORIENTED_EDGE('',*,*,#185,.T.);
#261=CARTESIAN_POINT('',(-5.075383629594100,2.0,8.616291604422930));
#262=CARTESIAN_POINT('',(-5.075383629594100,0.0,8.616291604422930));
#263=QUASI_UNIFORM_CURVE('',1,(#261,#262),.UNSPECIFIED.,.F.,.U.);
#264=EDGE_CURVE('',#168,#59,#263,.T.);
#265=ORIENTED_EDGE('',*,*,#264,.T.);
#266=EDGE_LOOP('',(#254,#259,#260,#265));
#267=FACE_OUTER_BOUND('',#266,.T.);
#268=ADVANCED_FACE('',(#267),#253,.T.);
#269=CARTESIAN_POINT('',(-4.999329189227780,-0.099899996123612,8.487176785951601));
#270=CARTESIAN_POINT('',(-6.674053485556352,-0.099899996123612,11.330294458877781));
#271=CARTESIAN_POINT('',(-4.999329189227780,2.099900049767792,8.487176785951601));
#272=CARTESIAN_POINT('',(-6.674053485556352,2.099900049767792,11.330294458877781));
#273=B_SPLINE_SURFACE_WITH_KNOTS('',1,1,((#269,#271),(#270,#272)),.UNSPECIFIED.,.F.,.F.,.U.,(2,2),(2,2),(0.0,3.299699921328973),(0.0,2.199800045891404),.UNSPECIFIED.);
#274=ORIENTED_EDGE('',*,*,#78,.T.);
#275=ORIENTED_EDGE('',*,*,#264,.F.);
#276=ORIENTED_EDGE('',*,*,#172,.F.);
#277=CARTESIAN_POINT('',(-6.597998718472230,2.0,11.201179085749800));
#278=CARTESIAN_POINT('',(-6.597998718472230,0.0,11.201179085749800));
#279=QUASI_UNIFORM_CURVE('',1,(#277,#278),.UNSPECIFIED.,.F.,.U.);
#280=EDGE_CURVE('',#147,#74,#279,.T.);
#281=ORIENTED_EDGE('',*,*,#280,.T.);
#282=EDGE_LOOP('',(#274,#275,#276,#281));
#283=FACE_OUTER_BOUND('',#282,.T.);
#284=ADVANCED_FACE('',(#283),#273,.F.);
#285=CARTESIAN_POINT('',(6.499999999983138,2.050000000000000,11.258330249207431));
#286=CARTESIAN_POINT('',(6.499999999983138,-0.051250000000000,11.258330249207431));
#287=CARTESIAN_POINT('',(20.157446696385506,2.050000000000001,3.373199722623832));
#288=CARTESIAN_POINT('',(20.157446696385506,-0.051250000000000,3.373199722623832));
#289=CARTESIAN_POINT('',(9.811224542908812,2.050000000000000,-8.528767376861893));
#290=CARTESIAN_POINT('',(9.811224542908812,-0.051250000000000,-8.528767376861893));
#291=CARTESIAN_POINT('',(-0.534997610567885,2.050000000000001,-20.430734476347617));
#292=CARTESIAN_POINT('',(-0.534997610567885,-0.051250000000000,-20.430734476347617));
#293=CARTESIAN_POINT('',(-10.244139796875389,2.050000000000000,-8.003599179248910));
#294=CARTESIAN_POINT('',(-10.244139796875389,-0.051250000000000,-8.003599179248910));
#295=CARTESIAN_POINT('',(-19.953281983182890,2.050000000000001,4.423536117849801));
#296=CARTESIAN_POINT('',(-19.953281983182890,-0.051250000000000,4.423536117849801));
#297=CARTESIAN_POINT('',(-5.901876496631473,2.050000000000000,11.583084814439930));
#298=CARTESIAN_POINT('',(-5.901876496631473,-0.051250000000000,11.583084814439930));
#306=(BOUNDED_SURFACE()B_SPLINE_SURFACE(1,2,((#285,#287,#289,#291,#293,#295,#297),(#286,#288,#290,#292,#294,#296,#298)),.UNSPECIFIED.,.F.,.F.,.U.)B_SPLINE_SURFACE_WITH_KNOTS((2,2),(3,2,2,3),(0.0,2.101250000000000),(0.0,24.524792176103482,49.049584352206963,73.574376528310438),.UNSPECIFIED.)GEOMETRIC_REPRESENTATION_ITEM()RATIONAL_B_SPLINE_SURFACE(((1.0,0.636078220277764,1.0,0.636078220277764,1.0,0.636078220277764,1.0),(1.0,0.636078220277764,1.0,0.636078220277764,1.0,0.636078220277764,1.0)))REPRESENTATION_ITEM('')SURFACE());
#307=ORIENTED_EDGE('',*,*,#97,.F.);
#308=ORIENTED_EDGE('',*,*,#280,.F.);
#309=ORIENTED_EDGE('',*,*,#165,.T.);
#310=CARTESIAN_POINT('',(6.597998718472370,2.0,11.201179085749720));
#311=CARTESIAN_POINT('',(6.597998718472370,0.0,11.201179085749720));
#312=QUASI_UNIFORM_CURVE('',1,(#310,#311),.UNSPECIFIED.,.F.,.U.);
#313=EDGE_CURVE('',#140,#52,#312,.T.);
#314=ORIENTED_EDGE('',*,*,#313,.T.);
#315=EDGE_LOOP('',(#307,#308,#309,#314));
#316=FACE_OUTER_BOUND('',#315,.T.);
#317=ADVANCED_FACE('',(#316),#306,.T.);
#318=CARTESIAN_POINT('',(6.674053499849562,-0.099899996123612,11.330294483142870));
#319=CARTESIAN_POINT('',(4.999329188547707,-0.099899996123612,8.487176784797217));
#320=CARTESIAN_POINT('',(6.674053499849562,2.099900049767792,11.330294483142870));
#321=CARTESIAN_POINT('',(4.999329188547707,2.099900049767792,8.487176784797217));
#322=B_SPLINE_SURFACE_WITH_KNOTS('',1,1,((#318,#320),(#319,#321)),.UNSPECIFIED.,.F.,.F.,.U.,(2,2),(2,2),(0.0,3.299699950830643),(0.0,2.199800045891404),.UNSPECIFIED.);
#323=ORIENTED_EDGE('',*,*,#56,.T.);
#324=ORIENTED_EDGE('',*,*,#313,.F.);
#325=ORIENTED_EDGE('',*,*,#144,.F.);
#326=ORIENTED_EDGE('',*,*,#258,.T.);
#327=EDGE_LOOP('',(#323,#324,#325,#326));
#328=FACE_OUTER_BOUND('',#327,.T.);
#329=ADVANCED_FACE('',(#328),#322,.F.);
#330=CARTESIAN_POINT('',(-7.498510311707264,-0.099899996123612,-0.356731821735671));
#331=CARTESIAN_POINT('',(0.356732013299485,-0.099899996123612,7.498510503270959));
#332=CARTESIAN_POINT('',(-7.498510311707264,2.099900049767792,-0.356731821735671));
#333=CARTESIAN_POINT('',(0.356732013299485,2.099900049767792,7.498510503270960));
#334=B_SPLINE_SURFACE_WITH_KNOTS('',1,1,((#330,#332),(#331,#333)),.UNSPECIFIED.,.F.,.F.,.U.,(2,2),(2,2),(0.0,11.108990231751619),(0.0,2.199800045891404),.UNSPECIFIED.);
#335=ORIENTED_EDGE('',*,*,#122,.T.);
#336=ORIENTED_EDGE('',*,*,#235,.F.);
#337=ORIENTED_EDGE('',*,*,#210,.F.);
#338=CARTESIAN_POINT('',(9.499956E-012,2.0,7.141778489980980));
#339=CARTESIAN_POINT('',(9.499956E-012,0.0,7.141778489980980));
#340=QUASI_UNIFORM_CURVE('',1,(#338,#339),.UNSPECIFIED.,.F.,.U.);
#341=EDGE_CURVE('',#199,#118,#340,.T.);
#342=ORIENTED_EDGE('',*,*,#341,.T.);
#343=EDGE_LOOP('',(#335,#336,#337,#342));
#344=FACE_OUTER_BOUND('',#343,.T.);
#345=ADVANCED_FACE('',(#344),#334,.F.);
#346=CARTESIAN_POINT('',(-0.356731821723051,-0.099899996123612,7.498510311713536));
#347=CARTESIAN_POINT('',(7.498510503283590,-0.099899996123612,-0.356732013293092));
#348=CARTESIAN_POINT('',(-0.356731821723051,2.099900049767792,7.498510311713536));
#349=CARTESIAN_POINT('',(7.498510503283590,2.099900049767792,-0.356732013293092));
#350=B_SPLINE_SURFACE_WITH_KNOTS('',1,1,((#346,#348),(#347,#349)),.UNSPECIFIED.,.F.,.F.,.U.,(2,2),(2,2),(0.0,11.108990231751550),(0.0,2.199800045891404),.UNSPECIFIED.);
#351=ORIENTED_EDGE('',*,*,#127,.T.);
#352=ORIENTED_EDGE('',*,*,#341,.F.);
#353=ORIENTED_EDGE('',*,*,#203,.F.);
#354=CARTESIAN_POINT('',(7.141778489993611,2.0,-3.112177E-012));
#355=CARTESIAN_POINT('',(7.141778489993611,0.0,-3.112177E-012));
#356=QUASI_UNIFORM_CURVE('',1,(#354,#355),.UNSPECIFIED.,.F.,.U.);
#357=EDGE_CURVE('',#192,#104,#356,.T.);
#358=ORIENTED_EDGE('',*,*,#357,.T.);
#359=EDGE_LOOP('',(#351,#352,#353,#358));
#360=FACE_OUTER_BOUND('',#359,.T.);
#361=ADVANCED_FACE('',(#360),#350,.F.);
#362=CARTESIAN_POINT('',(7.498510311726162,-0.099899996123612,0.356731821729446));
#363=CARTESIAN_POINT('',(-0.356732013280525,-0.099899996123612,-7.498510503277238));
#364=CARTESIAN_POINT('',(7.498510311726162,2.099900049767792,0.356731821729446));
#365=CARTESIAN_POINT('',(-0.356732013280525,2.099900049767792,-7.498510503277238));
#366=B_SPLINE_SURFACE_WITH_KNOTS('',1,1,((#362,#364),(#363,#365)),.UNSPECIFIED.,.F.,.F.,.U.,(2,2),(2,2),(0.0,11.108990231751619),(0.0,2.199800045891404),.UNSPECIFIED.);
#367=ORIENTED_EDGE('',*,*,#108,.T.);
#368=ORIENTED_EDGE('',*,*,#357,.F.);
#369=ORIENTED_EDGE('',*,*,#196,.F.);
#370=ORIENTED_EDGE('',*,*,#229,.T.);
#371=EDGE_LOOP('',(#367,#368,#369,#370));
#372=FACE_OUTER_BOUND('',#371,.T.);
#373=ADVANCED_FACE('',(#372),#366,.F.);
#374=CLOSED_SHELL('',(#131,#219,#239,#268,#284,#317,#329,#345,#361,#373));
#375=MANIFOLD_SOLID_BREP('control_cam',#374);
#381=(NAMED_UNIT(*)PLANE_ANGLE_UNIT()SI_UNIT($,.RADIAN.));
#382=DIMENSIONAL_EXPONENTS(0.0,0.0,0.0,0.0,0.0,0.0,0.0);
#383=PLANE_ANGLE_MEASURE_WITH_UNIT(PLANE_ANGLE_MEASURE(0.017453292500000),#381);
#387=(CONVERSION_BASED_UNIT('DEGREE',#383)NAMED_UNIT(#382)PLANE_ANGLE_UNIT());
#391=(NAMED_UNIT(*)SI_UNIT($,.STERADIAN.)SOLID_ANGLE_UNIT());
#395=(LENGTH_UNIT()NAMED_UNIT(*)SI_UNIT(.MILLI.,.METRE.));
#397=UNCERTAINTY_MEASURE_WITH_UNIT(LENGTH_MEASURE(0.001000000000000),#395,'DISTANCE_ACCURACY_VALUE','');
#399=(GEOMETRIC_REPRESENTATION_CONTEXT(3)GLOBAL_UNCERTAINTY_ASSIGNED_CONTEXT((#397))GLOBAL_UNIT_ASSIGNED_CONTEXT((#387,#391,#395))REPRESENTATION_CONTEXT('','3D'));
ENDSEC;
END-ISO-10303-21;
