ISO-10303-21;
HEADER;
/****************************************************************
 * Generated by software with PDE/Lib inside                    *
 * PDElib Version 4.4.1-0003, patched  Thursday August 19 11:58 *
 * International Technegroup Inc. (www.iti-oh.com)              *
 ****************************************************************/
FILE_DESCRIPTION((''),'2;1');
FILE_NAME('','2006-10-08T14:49:45',(''),(''),'','CADfix','');
FILE_SCHEMA(('AUTOMOTIVE_DESIGN'));
ENDSEC;
DATA;
#5=APPLICATION_CONTEXT('automotive design');
#6=APPLICATION_PROTOCOL_DEFINITION('Draft International Standard','automotive_design',1998,#5);
#7=PRODUCT_CONTEXT('None',#5,'mechanical');
#8=PRODUCT('control_cam','control_cam','None',(#7));
#9=PRODUCT_RELATED_PRODUCT_CATEGORY('part','description',(#8));
#10=PRODUCT_DEFINITION_FORMATION('','None',#8);
#11=PRODUCT_DEFINITION_CONTEXT('part definition',#5,'design');
#12=PRODUCT_DEFINITION('None','None',#10,#11);
#18=(NAMED_UNIT(*)PLANE_ANGLE_UNIT()SI_UNIT($,.RADIAN.));
#19=DIMENSIONAL_EXPONENTS(0.0,0.0,0.0,0.0,0.0,0.0,0.0);
#20=PLANE_ANGLE_MEASURE_WITH_UNIT(PLANE_ANGLE_MEASURE(0.017453292500000),#18);
#24=(CONVERSION_BASED_UNIT('DEGREE',#20)NAMED_UNIT(#19)PLANE_ANGLE_UNIT());
#28=(NAMED_UNIT(*)SI_UNIT($,.STERADIAN.)SOLID_ANGLE_UNIT());
#32=(LENGTH_UNIT()NAMED_UNIT(*)SI_UNIT(.MILLI.,.METRE.));
#34=UNCERTAINTY_MEASURE_WITH_UNIT(LENGTH_MEASURE(0.001000000000000),#32,'DISTANCE_ACCURACY_VALUE','');
#36=(GEOMETRIC_REPRESENTATION_CONTEXT(3)GLOBAL_UNCERTAINTY_ASSIGNED_CONTEXT((#34))GLOBAL_UNIT_ASSIGNED_CONTEXT((#24,#28,#32))REPRESENTATION_CONTEXT('None','None'));
#37=AXIS2_PLACEMENT_3D('',#38,#39,#40);
#38=CARTESIAN_POINT('',(0.0,0.0,0.0));
#39=DIRECTION('',(0.0,0.0,1.0));
#40=DIRECTION('',(1.0,0.0,0.0));
#41=ADVANCED_BREP_SHAPE_REPRESENTATION('',(#37,#375),#36);
#42=PRODUCT_DEFINITION_SHAPE('','',#12);
#43=SHAPE_DEFINITION_REPRESENTATION(#42,#41);
#44=CARTESIAN_POINT('',(-12.373874998072580,0.0,10.739447250729460));
#45=CARTESIAN_POINT('',(12.373875792446659,0.0,10.739447250729460));
#46=CARTESIAN_POINT('',(-12.373874998072580,0.0,-12.296119757497740));
#47=CARTESIAN_POINT('',(12.373875792446659,0.0,-12.296119757497740));
#48=B_SPLINE_SURFACE_WITH_KNOTS('',1,1,((#44,#46),(#45,#47)),.UNSPECIFIED.,.F.,.F.,.U.,(2,2),(2,2),(0.0,24.747750790519241),(0.0,23.035567008227190),.UNSPECIFIED.);
#49=CARTESIAN_POINT('',(-5.709806583300590,0.0,9.693328054971541));
#50=VERTEX_POINT('',#49);
#51=CARTESIAN_POINT('',(5.709806583293400,0.0,9.693328054975650));
#52=VERTEX_POINT('',#51);
#53=CARTESIAN_POINT('',(-5.709806583300590,0.0,9.693328054971541));
#54=CARTESIAN_POINT('',(-13.114215853715574,0.0,5.331797674702919));
#55=CARTESIAN_POINT('',(-10.853857393074730,0.0,-2.959101162650171));
#56=CARTESIAN_POINT('',(-8.593498932433883,0.0,-11.250000000003260));
#57=CARTESIAN_POINT('',(4.140309E-012,0.0,-11.250000000000099));
#58=CARTESIAN_POINT('',(8.593498932442166,0.0,-11.249999999996936));
#59=CARTESIAN_POINT('',(10.853857393076909,0.0,-2.959101162642179));
#60=CARTESIAN_POINT('',(13.114215853711647,0.0,5.331797674712572));
#61=CARTESIAN_POINT('',(5.709806583293400,0.0,9.693328054975650));
#69=(BOUNDED_CURVE()B_SPLINE_CURVE(2,(#53,#54,#55,#56,#57,#58,#59,#60,#61),.UNSPECIFIED.,.F.,.U.)B_SPLINE_CURVE_WITH_KNOTS((3,2,2,2,3),(0.0,0.250000000000000,0.500000000000000,0.750000000000000,1.0),.UNSPECIFIED.)CURVE()GEOMETRIC_REPRESENTATION_ITEM()RATIONAL_B_SPLINE_CURVE((1.0,0.794679562609178,1.0,0.794679562609178,1.0,0.794679562609178,1.0,0.794679562609178,1.0))REPRESENTATION_ITEM(''));
#70=EDGE_CURVE('',#50,#52,#69,.T.);
#71=ORIENTED_EDGE('',*,*,#70,.T.);
#72=CARTESIAN_POINT('',(4.212568412563215,0.0,7.151522031670851));
#73=VERTEX_POINT('',#72);
#74=CARTESIAN_POINT('',(5.709806583293400,0.0,9.693328054975650));
#75=CARTESIAN_POINT('',(4.212568412563215,0.0,7.151522031670851));
#76=QUASI_UNIFORM_CURVE('',1,(#74,#75),.UNSPECIFIED.,.F.,.U.);
#77=EDGE_CURVE('',#52,#73,#76,.T.);
#78=ORIENTED_EDGE('',*,*,#77,.T.);
#79=CARTESIAN_POINT('',(-4.212568412568415,0.0,7.151522031667760));
#80=VERTEX_POINT('',#79);
#81=CARTESIAN_POINT('',(4.212568412563215,0.0,7.151522031670851));
#82=CARTESIAN_POINT('',(-3.509346E-012,0.0,9.632914461415446));
#83=CARTESIAN_POINT('',(-4.212568412568417,0.0,7.151522031667761));
#91=(BOUNDED_CURVE()B_SPLINE_CURVE(2,(#81,#82,#83),.UNSPECIFIED.,.F.,.U.)CURVE()GEOMETRIC_REPRESENTATION_ITEM()QUASI_UNIFORM_CURVE()RATIONAL_B_SPLINE_CURVE((1.0,0.861629160442096,1.0))REPRESENTATION_ITEM(''));
#92=EDGE_CURVE('',#73,#80,#91,.T.);
#93=ORIENTED_EDGE('',*,*,#92,.T.);
#94=CARTESIAN_POINT('',(-4.212568412568415,0.0,7.151522031667760));
#95=CARTESIAN_POINT('',(-5.709806583300590,0.0,9.693328054971541));
#96=QUASI_UNIFORM_CURVE('',1,(#94,#95),.UNSPECIFIED.,.F.,.U.);
#97=EDGE_CURVE('',#80,#50,#96,.T.);
#98=ORIENTED_EDGE('',*,*,#97,.T.);
#99=EDGE_LOOP('',(#71,#78,#93,#98));
#100=FACE_OUTER_BOUND('',#99,.T.);
#101=CARTESIAN_POINT('',(-7.499068E-011,0.0,-5.727564927609749));
#102=VERTEX_POINT('',#101);
#103=CARTESIAN_POINT('',(5.727564927536090,0.0,1.321609E-012));
#104=VERTEX_POINT('',#103);
#105=CARTESIAN_POINT('',(-7.499068E-011,0.0,-5.727564927609749));
#106=CARTESIAN_POINT('',(5.727564927536090,0.0,1.321609E-012));
#107=QUASI_UNIFORM_CURVE('',1,(#105,#106),.UNSPECIFIED.,.F.,.U.);
#108=EDGE_CURVE('',#102,#104,#107,.T.);
#109=ORIENTED_EDGE('',*,*,#108,.F.);
#110=CARTESIAN_POINT('',(-5.727564927686010,0.0,1.321609E-012));
#111=VERTEX_POINT('',#110);
#112=CARTESIAN_POINT('',(-5.727564927686010,0.0,1.321609E-012));
#113=CARTESIAN_POINT('',(-7.499068E-011,0.0,-5.727564927609749));
#114=QUASI_UNIFORM_CURVE('',1,(#112,#113),.UNSPECIFIED.,.F.,.U.);
#115=EDGE_CURVE('',#111,#102,#114,.T.);
#116=ORIENTED_EDGE('',*,*,#115,.F.);
#117=CARTESIAN_POINT('',(-7.490542E-011,0.0,5.727564927612320));
#118=VERTEX_POINT('',#117);
#119=CARTESIAN_POINT('',(-7.490542E-011,0.0,5.727564927612320));
#120=CARTESIAN_POINT('',(-5.727564927686010,0.0,1.321609E-012));
#121=QUASI_UNIFORM_CURVE('',1,(#119,#120),.UNSPECIFIED.,.F.,.U.);
#122=EDGE_CURVE('',#118,#111,#121,.T.);
#123=ORIENTED_EDGE('',*,*,#122,.F.);
#124=CARTESIAN_POINT('',(5.727564927536090,0.0,1.321609E-012));
#125=CARTESIAN_POINT('',(-7.490542E-011,0.0,5.727564927612320));
#126=QUASI_UNIFORM_CURVE('',1,(#124,#125),.UNSPECIFIED.,.F.,.U.);
#127=EDGE_CURVE('',#104,#118,#126,.T.);
#128=ORIENTED_EDGE('',*,*,#127,.F.);
#129=EDGE_LOOP('',(#109,#116,#123,#128));
#130=FACE_BOUND('',#129,.T.);
#131=ADVANCED_FACE('',(#100,#130),#48,.F.);
#132=CARTESIAN_POINT('',(-12.373874998072580,2.0,10.739447250729460));
#133=CARTESIAN_POINT('',(12.373875792446659,2.0,10.739447250729460));
#134=CARTESIAN_POINT('',(-12.373874998072580,2.0,-12.296119757497740));
#135=CARTESIAN_POINT('',(12.373875792446659,2.0,-12.296119757497740));
#136=B_SPLINE_SURFACE_WITH_KNOTS('',1,1,((#132,#134),(#133,#135)),.UNSPECIFIED.,.F.,.F.,.U.,(2,2),(2,2),(0.0,24.747750790519241),(0.0,23.035567008227190),.UNSPECIFIED.);
#137=CARTESIAN_POINT('',(-5.709806583300590,2.0,9.693328054971541));
#138=VERTEX_POINT('',#137);
#139=CARTESIAN_POINT('',(5.709806583293400,2.0,9.693328054975650));
#140=VERTEX_POINT('',#139);
#141=CARTESIAN_POINT('',(-5.709806583300590,2.0,9.693328054971541));
#142=CARTESIAN_POINT('',(-13.114215853715574,2.0,5.331797674702919));
#143=CARTESIAN_POINT('',(-10.853857393074730,2.0,-2.959101162650171));
#144=CARTESIAN_POINT('',(-8.593498932433883,2.0,-11.250000000003260));
#145=CARTESIAN_POINT('',(4.140309E-012,2.0,-11.250000000000099));
#146=CARTESIAN_POINT('',(8.593498932442166,2.0,-11.249999999996936));
#147=CARTESIAN_POINT('',(10.853857393076909,2.0,-2.959101162642179));
#148=CARTESIAN_POINT('',(13.114215853711647,2.0,5.331797674712572));
#149=CARTESIAN_POINT('',(5.709806583293400,2.0,9.693328054975650));
#157=(BOUNDED_CURVE()B_SPLINE_CURVE(2,(#141,#142,#143,#144,#145,#146,#147,#148,#149),.UNSPECIFIED.,.F.,.U.)B_SPLINE_CURVE_WITH_KNOTS((3,2,2,2,3),(0.0,0.250000000000000,0.500000000000000,0.750000000000000,1.0),.UNSPECIFIED.)CURVE()GEOMETRIC_REPRESENTATION_ITEM()RATIONAL_B_SPLINE_CURVE((1.0,0.794679562609178,1.0,0.794679562609178,1.0,0.794679562609178,1.0,0.794679562609178,1.0))REPRESENTATION_ITEM(''));
#158=EDGE_CURVE('',#138,#140,#157,.T.);
#159=ORIENTED_EDGE('',*,*,#158,.F.);
#160=CARTESIAN_POINT('',(-4.212568412568415,2.0,7.151522031667760));
#161=VERTEX_POINT('',#160);
#162=CARTESIAN_POINT('',(-4.212568412568415,2.0,7.151522031667760));
#163=CARTESIAN_POINT('',(-5.709806583300590,2.0,9.693328054971541));
#164=QUASI_UNIFORM_CURVE('',1,(#162,#163),.UNSPECIFIED.,.F.,.U.);
#165=EDGE_CURVE('',#161,#138,#164,.T.);
#166=ORIENTED_EDGE('',*,*,#165,.F.);
#167=CARTESIAN_POINT('',(4.212568412563215,2.0,7.151522031670851));
#168=VERTEX_POINT('',#167);
#169=CARTESIAN_POINT('',(4.212568412563215,2.0,7.151522031670851));
#170=CARTESIAN_POINT('',(-3.509346E-012,2.000000000000000,9.632914461415446));
#171=CARTESIAN_POINT('',(-4.212568412568417,2.0,7.151522031667761));
#179=(BOUNDED_CURVE()B_SPLINE_CURVE(2,(#169,#170,#171),.UNSPECIFIED.,.F.,.U.)CURVE()GEOMETRIC_REPRESENTATION_ITEM()QUASI_UNIFORM_CURVE()RATIONAL_B_SPLINE_CURVE((1.0,0.861629160442096,1.0))REPRESENTATION_ITEM(''));
#180=EDGE_CURVE('',#168,#161,#179,.T.);
#181=ORIENTED_EDGE('',*,*,#180,.F.);
#182=CARTESIAN_POINT('',(5.709806583293400,2.0,9.693328054975650));
#183=CARTESIAN_POINT('',(4.212568412563215,2.0,7.151522031670851));
#184=QUASI_UNIFORM_CURVE('',1,(#182,#183),.UNSPECIFIED.,.F.,.U.);
#185=EDGE_CURVE('',#140,#168,#184,.T.);
#186=ORIENTED_EDGE('',*,*,#185,.F.);
#187=EDGE_LOOP('',(#159,#166,#181,#186));
#188=FACE_OUTER_BOUND('',#187,.T.);
#189=CARTESIAN_POINT('',(-7.499068E-011,2.0,-5.727564927609749));
#190=VERTEX_POINT('',#189);
#191=CARTESIAN_POINT('',(5.727564927536090,2.0,1.321609E-012));
#192=VERTEX_POINT('',#191);
#193=CARTESIAN_POINT('',(-7.499068E-011,2.0,-5.727564927609749));
#194=CARTESIAN_POINT('',(5.727564927536090,2.0,1.321609E-012));
#195=QUASI_UNIFORM_CURVE('',1,(#193,#194),.UNSPECIFIED.,.F.,.U.);
#196=EDGE_CURVE('',#190,#192,#195,.T.);
#197=ORIENTED_EDGE('',*,*,#196,.T.);
#198=CARTESIAN_POINT('',(-7.490542E-011,2.0,5.727564927612320));
#199=VERTEX_POINT('',#198);
#200=CARTESIAN_POINT('',(5.727564927536090,2.0,1.321609E-012));
#201=CARTESIAN_POINT('',(-7.490542E-011,2.0,5.727564927612320));
#202=QUASI_UNIFORM_CURVE('',1,(#200,#201),.UNSPECIFIED.,.F.,.U.);
#203=EDGE_CURVE('',#192,#199,#202,.T.);
#204=ORIENTED_EDGE('',*,*,#203,.T.);
#205=CARTESIAN_POINT('',(-5.727564927686010,2.0,1.321609E-012));
#206=VERTEX_POINT('',#205);
#207=CARTESIAN_POINT('',(-7.490542E-011,2.0,5.727564927612320));
#208=CARTESIAN_POINT('',(-5.727564927686010,2.0,1.321609E-012));
#209=QUASI_UNIFORM_CURVE('',1,(#207,#208),.UNSPECIFIED.,.F.,.U.);
#210=EDGE_CURVE('',#199,#206,#209,.T.);
#211=ORIENTED_EDGE('',*,*,#210,.T.);
#212=CARTESIAN_POINT('',(-5.727564927686010,2.0,1.321609E-012));
#213=CARTESIAN_POINT('',(-7.499068E-011,2.0,-5.727564927609749));
#214=QUASI_UNIFORM_CURVE('',1,(#212,#213),.UNSPECIFIED.,.F.,.U.);
#215=EDGE_CURVE('',#206,#190,#214,.T.);
#216=ORIENTED_EDGE('',*,*,#215,.T.);
#217=EDGE_LOOP('',(#197,#204,#211,#216));
#218=FACE_BOUND('',#217,.T.);
#219=ADVANCED_FACE('',(#188,#218),#136,.T.);
#220=CARTESIAN_POINT('',(-5.784593523292535,-0.099899996123612,9.820291084803342));
#221=CARTESIAN_POINT('',(-4.137781445803713,-0.099899996123612,7.024558956384958));
#222=CARTESIAN_POINT('',(-5.784593523292535,2.099900049767792,9.820291084803342));
#223=CARTESIAN_POINT('',(-4.137781445803713,2.099900049767792,7.024558956384958));
#224=B_SPLINE_SURFACE_WITH_KNOTS('',1,1,((#220,#222),(#221,#223)),.UNSPECIFIED.,.F.,.F.,.U.,(2,2),(2,2),(0.0,3.244704632541125),(0.0,2.199800045891404),.UNSPECIFIED.);
#225=ORIENTED_EDGE('',*,*,#97,.F.);
#226=CARTESIAN_POINT('',(-4.212568412568415,2.0,7.151522031667760));
#227=CARTESIAN_POINT('',(-4.212568412568415,0.0,7.151522031667760));
#228=QUASI_UNIFORM_CURVE('',1,(#226,#227),.UNSPECIFIED.,.F.,.U.);
#229=EDGE_CURVE('',#161,#80,#228,.T.);
#230=ORIENTED_EDGE('',*,*,#229,.F.);
#231=ORIENTED_EDGE('',*,*,#165,.T.);
#232=CARTESIAN_POINT('',(-5.709806583300590,2.0,9.693328054971541));
#233=CARTESIAN_POINT('',(-5.709806583300590,0.0,9.693328054971541));
#234=QUASI_UNIFORM_CURVE('',1,(#232,#233),.UNSPECIFIED.,.F.,.U.);
#235=EDGE_CURVE('',#138,#50,#234,.T.);
#236=ORIENTED_EDGE('',*,*,#235,.T.);
#237=EDGE_LOOP('',(#225,#230,#231,#236));
#238=FACE_OUTER_BOUND('',#237,.T.);
#239=ADVANCED_FACE('',(#238),#224,.T.);
#240=CARTESIAN_POINT('',(-0.286091803341662,-0.099899996123612,6.013656730879074));
#241=CARTESIAN_POINT('',(6.013656935636528,-0.099899996123612,-0.286092008099117));
#242=CARTESIAN_POINT('',(-0.286091803341662,2.099900049767792,6.013656730879074));
#243=CARTESIAN_POINT('',(6.013656935636528,2.099900049767792,-0.286092008099117));
#244=B_SPLINE_SURFACE_WITH_KNOTS('',1,1,((#240,#242),(#241,#243)),.UNSPECIFIED.,.F.,.F.,.U.,(2,2),(2,2),(0.0,8.909190106205760),(0.0,2.199800045891404),.UNSPECIFIED.);
#245=ORIENTED_EDGE('',*,*,#127,.T.);
#246=CARTESIAN_POINT('',(-7.490542E-011,2.0,5.727564927612320));
#247=CARTESIAN_POINT('',(-7.490542E-011,0.0,5.727564927612320));
#248=QUASI_UNIFORM_CURVE('',1,(#246,#247),.UNSPECIFIED.,.F.,.U.);
#249=EDGE_CURVE('',#199,#118,#248,.T.);
#250=ORIENTED_EDGE('',*,*,#249,.F.);
#251=ORIENTED_EDGE('',*,*,#203,.F.);
#252=CARTESIAN_POINT('',(5.727564927536090,2.0,1.321609E-012));
#253=CARTESIAN_POINT('',(5.727564927536090,0.0,1.321609E-012));
#254=QUASI_UNIFORM_CURVE('',1,(#252,#253),.UNSPECIFIED.,.F.,.U.);
#255=EDGE_CURVE('',#192,#104,#254,.T.);
#256=ORIENTED_EDGE('',*,*,#255,.T.);
#257=EDGE_LOOP('',(#245,#250,#251,#256));
#258=FACE_OUTER_BOUND('',#257,.T.);
#259=ADVANCED_FACE('',(#258),#244,.F.);
#260=CARTESIAN_POINT('',(-6.013656730952770,-0.099899996123612,-0.286091803265434));
#261=CARTESIAN_POINT('',(0.286092008025540,-0.099899996123612,6.013656935712758));
#262=CARTESIAN_POINT('',(-6.013656730952770,2.099900049767792,-0.286091803265434));
#263=CARTESIAN_POINT('',(0.286092008025540,2.099900049767792,6.013656935712759));
#264=B_SPLINE_SURFACE_WITH_KNOTS('',1,1,((#260,#262),(#261,#263)),.UNSPECIFIED.,.F.,.F.,.U.,(2,2),(2,2),(0.0,8.909190106205847),(0.0,2.199800045891404),.UNSPECIFIED.);
#265=ORIENTED_EDGE('',*,*,#122,.T.);
#266=CARTESIAN_POINT('',(-5.727564927686010,2.0,1.321609E-012));
#267=CARTESIAN_POINT('',(-5.727564927686010,0.0,1.321609E-012));
#268=QUASI_UNIFORM_CURVE('',1,(#266,#267),.UNSPECIFIED.,.F.,.U.);
#269=EDGE_CURVE('',#206,#111,#268,.T.);
#270=ORIENTED_EDGE('',*,*,#269,.F.);
#271=ORIENTED_EDGE('',*,*,#210,.F.);
#272=ORIENTED_EDGE('',*,*,#249,.T.);
#273=EDGE_LOOP('',(#265,#270,#271,#272));
#274=FACE_OUTER_BOUND('',#273,.T.);
#275=ADVANCED_FACE('',(#274),#264,.F.);
#276=CARTESIAN_POINT('',(0.286091803191767,-0.099899996123612,-6.013656730876507));
#277=CARTESIAN_POINT('',(-6.013656935786448,-0.099899996123612,0.286092008101764));
#278=CARTESIAN_POINT('',(0.286091803191767,2.099900049767792,-6.013656730876507));
#279=CARTESIAN_POINT('',(-6.013656935786448,2.099900049767792,0.286092008101764));
#280=B_SPLINE_SURFACE_WITH_KNOTS('',1,1,((#276,#278),(#277,#279)),.UNSPECIFIED.,.F.,.F.,.U.,(2,2),(2,2),(0.0,8.909190106205836),(0.0,2.199800045891404),.UNSPECIFIED.);
#281=ORIENTED_EDGE('',*,*,#115,.T.);
#282=CARTESIAN_POINT('',(-7.499068E-011,2.0,-5.727564927609749));
#283=CARTESIAN_POINT('',(-7.499068E-011,0.0,-5.727564927609749));
#284=QUASI_UNIFORM_CURVE('',1,(#282,#283),.UNSPECIFIED.,.F.,.U.);
#285=EDGE_CURVE('',#190,#102,#284,.T.);
#286=ORIENTED_EDGE('',*,*,#285,.F.);
#287=ORIENTED_EDGE('',*,*,#215,.F.);
#288=ORIENTED_EDGE('',*,*,#269,.T.);
#289=EDGE_LOOP('',(#281,#286,#287,#288));
#290=FACE_OUTER_BOUND('',#289,.T.);
#291=ADVANCED_FACE('',(#290),#280,.F.);
#292=CARTESIAN_POINT('',(6.013656730802858,-0.099899996123612,0.286091803268073));
#293=CARTESIAN_POINT('',(-0.286092008175471,-0.099899996123612,-6.013656935710157));
#294=CARTESIAN_POINT('',(6.013656730802858,2.099900049767792,0.286091803268073));
#295=CARTESIAN_POINT('',(-0.286092008175471,2.099900049767792,-6.013656935710157));
#296=B_SPLINE_SURFACE_WITH_KNOTS('',1,1,((#292,#294),(#293,#295)),.UNSPECIFIED.,.F.,.F.,.U.,(2,2),(2,2),(0.0,8.909190106205886),(0.0,2.199800045891404),.UNSPECIFIED.);
#297=ORIENTED_EDGE('',*,*,#108,.T.);
#298=ORIENTED_EDGE('',*,*,#255,.F.);
#299=ORIENTED_EDGE('',*,*,#196,.F.);
#300=ORIENTED_EDGE('',*,*,#285,.T.);
#301=EDGE_LOOP('',(#297,#298,#299,#300));
#302=FACE_OUTER_BOUND('',#301,.T.);
#303=ADVANCED_FACE('',(#302),#296,.F.);
#304=CARTESIAN_POINT('',(-4.398329893146078,2.050000000000000,7.038799198091685));
#305=CARTESIAN_POINT('',(-4.398329893146078,-0.051250000000000,7.038799198091685));
#306=CARTESIAN_POINT('',(0.121025051301624,2.050000000000000,9.862805593286293));
#307=CARTESIAN_POINT('',(0.121025051301624,-0.051250000000000,9.862805593286293));
#308=CARTESIAN_POINT('',(4.569723698698914,2.050000000000000,6.928753518313960));
#309=CARTESIAN_POINT('',(4.569723698698914,-0.051250000000000,6.928753518313960));
#317=(BOUNDED_SURFACE()B_SPLINE_SURFACE(1,2,((#304,#306,#308),(#305,#307,#309)),.UNSPECIFIED.,.F.,.F.,.U.)B_SPLINE_SURFACE_WITH_KNOTS((2,2),(3,3),(0.0,2.101250000000000),(0.0,9.740727619339445),.UNSPECIFIED.)GEOMETRIC_REPRESENTATION_ITEM()RATIONAL_B_SPLINE_SURFACE(((1.0,0.838054982013056,0.991870956581439),(1.0,0.838054982013056,0.991870956581439)))REPRESENTATION_ITEM('')SURFACE());
#318=ORIENTED_EDGE('',*,*,#92,.F.);
#319=CARTESIAN_POINT('',(4.212568412563215,2.0,7.151522031670851));
#320=CARTESIAN_POINT('',(4.212568412563215,0.0,7.151522031670851));
#321=QUASI_UNIFORM_CURVE('',1,(#319,#320),.UNSPECIFIED.,.F.,.U.);
#322=EDGE_CURVE('',#168,#73,#321,.T.);
#323=ORIENTED_EDGE('',*,*,#322,.F.);
#324=ORIENTED_EDGE('',*,*,#180,.T.);
#325=ORIENTED_EDGE('',*,*,#229,.T.);
#326=EDGE_LOOP('',(#318,#323,#324,#325));
#327=FACE_OUTER_BOUND('',#326,.T.);
#328=ADVANCED_FACE('',(#327),#317,.T.);
#329=CARTESIAN_POINT('',(4.137781388241367,-0.099899996123612,7.024558858675061));
#330=CARTESIAN_POINT('',(5.784593554069837,-0.099899996123612,9.820291137069372));
#331=CARTESIAN_POINT('',(4.137781388241367,2.099900049767792,7.024558858675062));
#332=CARTESIAN_POINT('',(5.784593554069837,2.099900049767792,9.820291137069372));
#333=B_SPLINE_SURFACE_WITH_KNOTS('',1,1,((#329,#331),(#330,#332)),.UNSPECIFIED.,.F.,.F.,.U.,(2,2),(2,2),(0.0,3.244704806600518),(0.0,2.199800045891404),.UNSPECIFIED.);
#334=ORIENTED_EDGE('',*,*,#77,.F.);
#335=CARTESIAN_POINT('',(5.709806583293400,2.0,9.693328054975650));
#336=CARTESIAN_POINT('',(5.709806583293400,0.0,9.693328054975650));
#337=QUASI_UNIFORM_CURVE('',1,(#335,#336),.UNSPECIFIED.,.F.,.U.);
#338=EDGE_CURVE('',#140,#52,#337,.T.);
#339=ORIENTED_EDGE('',*,*,#338,.F.);
#340=ORIENTED_EDGE('',*,*,#185,.T.);
#341=ORIENTED_EDGE('',*,*,#322,.T.);
#342=EDGE_LOOP('',(#334,#339,#340,#341));
#343=FACE_OUTER_BOUND('',#342,.T.);
#344=ADVANCED_FACE('',(#343),#333,.T.);
#345=CARTESIAN_POINT('',(5.281555081348853,2.050000000000000,9.933160419658792));
#346=CARTESIAN_POINT('',(5.281555081348853,-0.051250000000000,9.933160419658792));
#347=CARTESIAN_POINT('',(17.547986638992146,2.050000000000000,3.410983067617844));
#348=CARTESIAN_POINT('',(17.547986638992146,-0.051250000000000,3.410983067617844));
#349=CARTESIAN_POINT('',(8.617999985082980,2.050000000000000,-7.231360608980242));
#350=CARTESIAN_POINT('',(8.617999985082980,-0.051250000000000,-7.231360608980242));
#351=CARTESIAN_POINT('',(-0.311986668826173,2.050000000000000,-17.873704285578327));
#352=CARTESIAN_POINT('',(-0.311986668826173,-0.051250000000000,-17.873704285578327));
#353=CARTESIAN_POINT('',(-8.865120978080901,2.050000000000000,-6.926191597406987));
#354=CARTESIAN_POINT('',(-8.865120978080901,-0.051250000000000,-6.926191597406987));
#355=CARTESIAN_POINT('',(-17.418255287335633,2.050000000000000,4.021321090764348));
#356=CARTESIAN_POINT('',(-17.418255287335633,-0.051250000000000,4.021321090764348));
#357=CARTESIAN_POINT('',(-4.931675401369405,2.050000000000000,10.111433020869280));
#358=CARTESIAN_POINT('',(-4.931675401369405,-0.051250000000000,10.111433020869280));
#366=(BOUNDED_SURFACE()B_SPLINE_SURFACE(1,2,((#345,#347,#349,#351,#353,#355,#357),(#346,#348,#350,#352,#354,#356,#358)),.UNSPECIFIED.,.F.,.F.,.U.)B_SPLINE_SURFACE_WITH_KNOTS((2,2),(3,2,2,3),(0.0,2.101250000000000),(0.0,21.463898971417201,42.927797942834403,64.391696914251597),.UNSPECIFIED.)GEOMETRIC_REPRESENTATION_ITEM()RATIONAL_B_SPLINE_SURFACE(((1.0,0.629320391049838,1.0,0.629320391049838,1.0,0.629320391049838,1.0),(1.0,0.629320391049838,1.0,0.629320391049838,1.0,0.629320391049838,1.0)))REPRESENTATION_ITEM('')SURFACE());
#367=ORIENTED_EDGE('',*,*,#70,.F.);
#368=ORIENTED_EDGE('',*,*,#235,.F.);
#369=ORIENTED_EDGE('',*,*,#158,.T.);
#370=ORIENTED_EDGE('',*,*,#338,.T.);
#371=EDGE_LOOP('',(#367,#368,#369,#370));
#372=FACE_OUTER_BOUND('',#371,.T.);
#373=ADVANCED_FACE('',(#372),#366,.T.);
#374=CLOSED_SHELL('',(#131,#219,#239,#259,#275,#291,#303,#328,#344,#373));
#375=MANIFOLD_SOLID_BREP('control_cam',#374);
#381=(NAMED_UNIT(*)PLANE_ANGLE_UNIT()SI_UNIT($,.RADIAN.));
#382=DIMENSIONAL_EXPONENTS(0.0,0.0,0.0,0.0,0.0,0.0,0.0);
#383=PLANE_ANGLE_MEASURE_WITH_UNIT(PLANE_ANGLE_MEASURE(0.017453292500000),#381);
#387=(CONVERSION_BASED_UNIT('DEGREE',#383)NAMED_UNIT(#382)PLANE_ANGLE_UNIT());
#391=(NAMED_UNIT(*)SI_UNIT($,.STERADIAN.)SOLID_ANGLE_UNIT());
#395=(LENGTH_UNIT()NAMED_UNIT(*)SI_UNIT(.MILLI.,.METRE.));
#397=UNCERTAINTY_MEASURE_WITH_UNIT(LENGTH_MEASURE(0.001000000000000),#395,'DISTANCE_ACCURACY_VALUE','');
#399=(GEOMETRIC_REPRESENTATION_CONTEXT(3)GLOBAL_UNCERTAINTY_ASSIGNED_CONTEXT((#397))GLOBAL_UNIT_ASSIGNED_CONTEXT((#387,#391,#395))REPRESENTATION_CONTEXT('','3D'));
ENDSEC;
END-ISO-10303-21;
